ISO-10303-21;
HEADER;
FILE_DESCRIPTION (( 'STEP AP214' ),
    '1' );
FILE_NAME ('59524.STEP',
    '2023-07-24T15:09:04',
    ( '' ),
    ( '' ),
    'SwSTEP 2.0',
    'SolidWorks 2023',
    '' );
FILE_SCHEMA (( 'AUTOMOTIVE_DESIGN' ));
ENDSEC;

DATA;
#1 = DIRECTION ( 'NONE',  ( -0.000000000000000000, -1.000000000000000000, -0.000000000000000000 ) ) ;
#2 = EDGE_CURVE ( 'NONE', #129, #368, #349, .T. ) ;
#3 = LINE ( 'NONE', #136, #90 ) ;
#4 = SURFACE_STYLE_USAGE ( .BOTH. , #347 ) ;
#5 = DIRECTION ( 'NONE',  ( -1.000000000000000000, -9.135657442593541248E-17, 0.000000000000000000 ) ) ;
#6 = DIRECTION ( 'NONE',  ( -1.224646799147353454E-16, 0.000000000000000000, -1.000000000000000000 ) ) ;
#7 = EDGE_LOOP ( 'NONE', ( #366, #246, #137, #193 ) ) ;
#8 = CARTESIAN_POINT ( 'NONE',  ( 0.000000000000000000, 1.000000000000000000, 0.000000000000000000 ) ) ;
#9 = AXIS2_PLACEMENT_3D ( 'NONE', #321, #173, #117 ) ;
#10 = PRESENTATION_LAYER_ASSIGNMENT (  '', '', ( #237 ) ) ;
#11 = PRESENTATION_STYLE_ASSIGNMENT (( #279 ) ) ;
#12 = CARTESIAN_POINT ( 'NONE',  ( -4.999999999999996447, 63.00000000000000000, 0.000000000000000000 ) ) ;
#13 = FILL_AREA_STYLE ('',( #280 ) ) ;
#14 = AXIS2_PLACEMENT_3D ( 'NONE', #65, #207, #346 ) ;
#15 = ADVANCED_FACE ( 'NONE', ( #119 ), #277, .T. ) ;
#16 = PRESENTATION_LAYER_ASSIGNMENT (  '', '', ( #88 ) ) ;
#17 = AXIS2_PLACEMENT_3D ( 'NONE', #150, #118, #170 ) ;
#18 = DIRECTION ( 'NONE',  ( 1.000000000000000000, 9.135657442593541248E-17, 0.000000000000000000 ) ) ;
#19 =( LENGTH_UNIT ( ) NAMED_UNIT ( * ) SI_UNIT ( .MILLI., .METRE. ) );
#20 = EDGE_LOOP ( 'NONE', ( #257, #307, #342, #249 ) ) ;
#21 = ORIENTED_EDGE ( 'NONE', *, *, #271, .T. ) ;
#22 = EDGE_CURVE ( 'NONE', #262, #340, #256, .T. ) ;
#23 = APPLICATION_CONTEXT ( 'automotive_design' ) ;
#24 = ORIENTED_EDGE ( 'NONE', *, *, #104, .T. ) ;
#25 = EDGE_CURVE ( 'NONE', #368, #55, #114, .T. ) ;
#26 = STYLED_ITEM ( 'NONE', ( #11 ), #209 ) ;
#27 = COLOUR_RGB ( '',1.000000000000000000, 0.000000000000000000, 0.000000000000000000 ) ;
#28 =( NAMED_UNIT ( * ) SI_UNIT ( $, .STERADIAN. ) SOLID_ANGLE_UNIT ( ) );
#29 = CARTESIAN_POINT ( 'NONE',  ( 5.000000000000000000, 15.00000000000000000, 6.123233995736762338E-16 ) ) ;
#30 = APPLICATION_CONTEXT ( 'automotive_design' ) ;
#31 = EDGE_LOOP ( 'NONE', ( #21, #222 ) ) ;
#32 =( NAMED_UNIT ( * ) SI_UNIT ( $, .STERADIAN. ) SOLID_ANGLE_UNIT ( ) );
#33 = CARTESIAN_POINT ( 'NONE',  ( 1.469576158976823750E-15, 63.00000000000000000, 0.000000000000000000 ) ) ;
#34 = UNCERTAINTY_MEASURE_WITH_UNIT (LENGTH_MEASURE( 1.000000000000000082E-05 ), #44, 'distance_accuracy_value', 'NONE');
#35 = AXIS2_PLACEMENT_3D ( 'NONE', #39, #1, #112 ) ;
#36 = FILL_AREA_STYLE ('',( #61 ) ) ;
#37 = DIRECTION ( 'NONE',  ( -9.135657442593541248E-17, 1.000000000000000000, -0.000000000000000000 ) ) ;
#38 = CARTESIAN_POINT ( 'NONE',  ( 0.000000000000000000, 15.00000000000000000, 0.000000000000000000 ) ) ;
#39 = CARTESIAN_POINT ( 'NONE',  ( 0.000000000000000000, 0.000000000000000000, 0.000000000000000000 ) ) ;
#40 = DIRECTION ( 'NONE',  ( 0.000000000000000000, 0.000000000000000000, -1.000000000000000000 ) ) ;
#41 = CARTESIAN_POINT ( 'NONE',  ( 0.000000000000000000, 15.00000000000000000, -5.000000000000000000 ) ) ;
#42 = CARTESIAN_POINT ( 'NONE',  ( 0.000000000000000000, 1.000000000000000000, -5.000000000000000000 ) ) ;
#43 = COLOUR_RGB ( '',1.000000000000000000, 0.000000000000000000, 0.000000000000000000 ) ;
#44 =( LENGTH_UNIT ( ) NAMED_UNIT ( * ) SI_UNIT ( .MILLI., .METRE. ) );
#45 = SURFACE_STYLE_FILL_AREA ( #323 ) ;
#46 = CLOSED_SHELL ( 'NONE', ( #302, #47, #255, #304, #209, #127 ) ) ;
#47 = ADVANCED_FACE ( 'NONE', ( #299 ), #144, .T. ) ;
#48 = FACE_OUTER_BOUND ( 'NONE', #198, .T. ) ;
#49 = CARTESIAN_POINT ( 'NONE',  ( 0.000000000000000000, 1.000000000000000000, -4.000000000000000000 ) ) ;
#50 = PRODUCT_DEFINITION ( 'UNKNOWN', '', #328, #157 ) ;
#51 = ORIENTED_EDGE ( 'NONE', *, *, #182, .T. ) ;
#52 =( LENGTH_UNIT ( ) NAMED_UNIT ( * ) SI_UNIT ( .MILLI., .METRE. ) );
#53 = CARTESIAN_POINT ( 'NONE',  ( 5.854691731421723944E-15, 15.00000000000000000, 0.000000000000000000 ) ) ;
#54 =( GEOMETRIC_REPRESENTATION_CONTEXT ( 3 ) GLOBAL_UNCERTAINTY_ASSIGNED_CONTEXT ( ( #219 ) ) GLOBAL_UNIT_ASSIGNED_CONTEXT ( ( #19, #156, #185 ) ) REPRESENTATION_CONTEXT ( 'NONE', 'WORKASPACE' ) );
#55 = VERTEX_POINT ( 'NONE', #12 ) ;
#56 = CIRCLE ( 'NONE', #102, 4.999999999999993783 ) ;
#57 =( GEOMETRIC_REPRESENTATION_CONTEXT ( 3 ) GLOBAL_UNCERTAINTY_ASSIGNED_CONTEXT ( ( #267 ) ) GLOBAL_UNIT_ASSIGNED_CONTEXT ( ( #210, #319, #28 ) ) REPRESENTATION_CONTEXT ( 'NONE', 'WORKASPACE' ) );
#58 = PLANE ( 'NONE',  #110 ) ;
#59 = ORIENTED_EDGE ( 'NONE', *, *, #22, .F. ) ;
#60 = FILL_AREA_STYLE_COLOUR ( '', #27 ) ;
#61 = FILL_AREA_STYLE_COLOUR ( '', #293 ) ;
#62 = COLOUR_RGB ( '',1.000000000000000000, 0.000000000000000000, 0.000000000000000000 ) ;
#63 =( NAMED_UNIT ( * ) PLANE_ANGLE_UNIT ( ) SI_UNIT ( $, .RADIAN. ) );
#64 = FILL_AREA_STYLE ('',( #239 ) ) ;
#65 = CARTESIAN_POINT ( 'NONE',  ( 1.469576158976823750E-15, 63.00000000000000000, 0.000000000000000000 ) ) ;
#66 = FACE_OUTER_BOUND ( 'NONE', #134, .T. ) ;
#67 = AXIS2_PLACEMENT_3D ( 'NONE', #196, #339, #108 ) ;
#68 =( LENGTH_UNIT ( ) NAMED_UNIT ( * ) SI_UNIT ( .MILLI., .METRE. ) );
#69 = UNCERTAINTY_MEASURE_WITH_UNIT (LENGTH_MEASURE( 1.000000000000000082E-05 ), #147, 'distance_accuracy_value', 'NONE');
#70 = APPLICATION_PROTOCOL_DEFINITION ( 'draft international standard', 'automotive_design', 1998, #23 ) ;
#71 = CARTESIAN_POINT ( 'NONE',  ( 0.000000000000000000, 15.00000000000000000, 0.000000000000000000 ) ) ;
#72 = AXIS2_PLACEMENT_3D ( 'NONE', #268, #317, #141 ) ;
#73 = MECHANICAL_DESIGN_GEOMETRIC_PRESENTATION_REPRESENTATION (  '', ( #135 ), #179 ) ;
#74 = DIRECTION ( 'NONE',  ( 1.000000000000000000, 0.000000000000000000, 0.000000000000000000 ) ) ;
#75 = FACE_OUTER_BOUND ( 'NONE', #82, .T. ) ;
#76 = CIRCLE ( 'NONE', #322, 1.000000000000000000 ) ;
#77 = VERTEX_POINT ( 'NONE', #41 ) ;
#78 = SURFACE_STYLE_FILL_AREA ( #109 ) ;
#79 = SURFACE_STYLE_FILL_AREA ( #142 ) ;
#80 = ORIENTED_EDGE ( 'NONE', *, *, #334, .T. ) ;
#81 = CYLINDRICAL_SURFACE ( 'NONE', #197, 5.000000000000000000 ) ;
#82 = EDGE_LOOP ( 'NONE', ( #158, #24, #80, #290 ) ) ;
#83 = ADVANCED_FACE ( 'NONE', ( #329 ), #165, .F. ) ;
#84 = MECHANICAL_DESIGN_GEOMETRIC_PRESENTATION_REPRESENTATION (  '', ( #236 ), #324 ) ;
#85 = SURFACE_SIDE_STYLE ('',( #78 ) ) ;
#86 = VERTEX_POINT ( 'NONE', #295 ) ;
#87 = CARTESIAN_POINT ( 'NONE',  ( 0.000000000000000000, 1.000000000000000000, 0.000000000000000000 ) ) ;
#88 = STYLED_ITEM ( 'NONE', ( #240 ), #304 ) ;
#89 = CARTESIAN_POINT ( 'NONE',  ( 5.854691731421723944E-15, 15.00000000000000000, 0.000000000000000000 ) ) ;
#90 = VECTOR ( 'NONE', #225, 1000.000000000000000 ) ;
#91 = COLOUR_RGB ( '',1.000000000000000000, 0.000000000000000000, 0.000000000000000000 ) ;
#92 = EDGE_CURVE ( 'NONE', #315, #86, #337, .T. ) ;
#93 = PRESENTATION_STYLE_ASSIGNMENT (( #235 ) ) ;
#94 =( NAMED_UNIT ( * ) PLANE_ANGLE_UNIT ( ) SI_UNIT ( $, .RADIAN. ) );
#95 =( LENGTH_UNIT ( ) NAMED_UNIT ( * ) SI_UNIT ( .MILLI., .METRE. ) );
#96 = CLOSED_SHELL ( 'NONE', ( #15, #83, #345, #332 ) ) ;
#97 = PLANE ( 'NONE',  #316 ) ;
#98 = MECHANICAL_DESIGN_GEOMETRIC_PRESENTATION_REPRESENTATION (  '', ( #88 ), #244 ) ;
#99 = SURFACE_STYLE_USAGE ( .BOTH. , #352 ) ;
#100 = EDGE_LOOP ( 'NONE', ( #253, #51, #132, #200 ) ) ;
#101 = LINE ( 'NONE', #245, #166 ) ;
#102 = AXIS2_PLACEMENT_3D ( 'NONE', #53, #37, #122 ) ;
#103 = AXIS2_PLACEMENT_3D ( 'NONE', #272, #171, #6 ) ;
#104 = EDGE_CURVE ( 'NONE', #129, #287, #251, .T. ) ;
#105 = EDGE_LOOP ( 'NONE', ( #227, #190 ) ) ;
#106 = ADVANCED_BREP_SHAPE_REPRESENTATION ( '59524', ( #177, #308, #258 ), #54 ) ;
#107 = ORIENTED_EDGE ( 'NONE', *, *, #181, .T. ) ;
#108 = DIRECTION ( 'NONE',  ( -1.000000000000000000, 0.000000000000000000, 0.000000000000000000 ) ) ;
#109 = FILL_AREA_STYLE ('',( #138 ) ) ;
#110 = AXIS2_PLACEMENT_3D ( 'NONE', #199, #370, #111 ) ;
#111 = DIRECTION ( 'NONE',  ( 0.000000000000000000, 0.000000000000000000, -1.000000000000000000 ) ) ;
#112 = DIRECTION ( 'NONE',  ( 0.000000000000000000, 0.000000000000000000, -1.000000000000000000 ) ) ;
#113 = SURFACE_SIDE_STYLE ('',( #270 ) ) ;
#114 = CIRCLE ( 'NONE', #357, 4.999999999999998224 ) ;
#115 = FILL_AREA_STYLE ('',( #174 ) ) ;
#116 = DIRECTION ( 'NONE',  ( 0.000000000000000000, 0.000000000000000000, -1.000000000000000000 ) ) ;
#117 = DIRECTION ( 'NONE',  ( -1.000000000000000000, 0.000000000000000000, 0.000000000000000000 ) ) ;
#118 = DIRECTION ( 'NONE',  ( -0.000000000000000000, -1.000000000000000000, -0.000000000000000000 ) ) ;
#119 = FACE_OUTER_BOUND ( 'NONE', #130, .T. ) ;
#120 = SURFACE_SIDE_STYLE ('',( #45 ) ) ;
#121 = DIRECTION ( 'NONE',  ( -9.135657442593541248E-17, 1.000000000000000000, 0.000000000000000000 ) ) ;
#122 = DIRECTION ( 'NONE',  ( -1.000000000000000000, 0.000000000000000000, 0.000000000000000000 ) ) ;
#123 = AXIS2_PLACEMENT_3D ( 'NONE', #233, #213, #350 ) ;
#124 = SURFACE_STYLE_FILL_AREA ( #13 ) ;
#125 = VERTEX_POINT ( 'NONE', #208 ) ;
#126 = PRESENTATION_LAYER_ASSIGNMENT (  '', '', ( #353 ) ) ;
#127 = ADVANCED_FACE ( 'NONE', ( #274 ), #230, .T. ) ;
#128 = UNCERTAINTY_MEASURE_WITH_UNIT (LENGTH_MEASURE( 1.000000000000000082E-05 ), #68, 'distance_accuracy_value', 'NONE');
#129 = VERTEX_POINT ( 'NONE', #29 ) ;
#130 = EDGE_LOOP ( 'NONE', ( #107, #343, #195, #292 ) ) ;
#131 = ORIENTED_EDGE ( 'NONE', *, *, #25, .T. ) ;
#132 = ORIENTED_EDGE ( 'NONE', *, *, #271, .F. ) ;
#133 = COLOUR_RGB ( '',0.7921568627450980005, 0.8196078431372548767, 0.9333333333333333481 ) ;
#134 = EDGE_LOOP ( 'NONE', ( #140, #362, #59, #312 ) ) ;
#135 = STYLED_ITEM ( 'NONE', ( #234 ), #302 ) ;
#136 = CARTESIAN_POINT ( 'NONE',  ( 6.123233995736766282E-16, 0.000000000000000000, 5.000000000000000000 ) ) ;
#137 = ORIENTED_EDGE ( 'NONE', *, *, #364, .T. ) ;
#138 = FILL_AREA_STYLE_COLOUR ( '', #133 ) ;
#139 = COLOUR_RGB ( '',1.000000000000000000, 0.000000000000000000, 0.000000000000000000 ) ;
#140 = ORIENTED_EDGE ( 'NONE', *, *, #354, .T. ) ;
#141 = DIRECTION ( 'NONE',  ( 0.000000000000000000, -0.000000000000000000, 1.000000000000000000 ) ) ;
#142 = FILL_AREA_STYLE ('',( #60 ) ) ;
#143 =( NAMED_UNIT ( * ) SI_UNIT ( $, .STERADIAN. ) SOLID_ANGLE_UNIT ( ) );
#144 = TOROIDAL_SURFACE ( 'NONE', #359, 4.000000000000000000, 1.000000000000000000 ) ;
#145 = SURFACE_STYLE_FILL_AREA ( #148 ) ;
#146 =( NAMED_UNIT ( * ) SI_UNIT ( $, .STERADIAN. ) SOLID_ANGLE_UNIT ( ) );
#147 =( LENGTH_UNIT ( ) NAMED_UNIT ( * ) SI_UNIT ( .MILLI., .METRE. ) );
#148 = FILL_AREA_STYLE ('',( #325 ) ) ;
#149 = PRESENTATION_STYLE_ASSIGNMENT (( #167 ) ) ;
#150 = CARTESIAN_POINT ( 'NONE',  ( 0.000000000000000000, 0.000000000000000000, 0.000000000000000000 ) ) ;
#151 =( LENGTH_UNIT ( ) NAMED_UNIT ( * ) SI_UNIT ( .MILLI., .METRE. ) );
#152 = DIRECTION ( 'NONE',  ( 0.000000000000000000, 0.000000000000000000, -1.000000000000000000 ) ) ;
#153 = EDGE_CURVE ( 'NONE', #125, #340, #3, .T. ) ;
#154 = MECHANICAL_DESIGN_GEOMETRIC_PRESENTATION_REPRESENTATION (  '', ( #26 ), #57 ) ;
#155 = EDGE_CURVE ( 'NONE', #77, #262, #314, .T. ) ;
#156 =( NAMED_UNIT ( * ) PLANE_ANGLE_UNIT ( ) SI_UNIT ( $, .RADIAN. ) );
#157 = PRODUCT_DEFINITION_CONTEXT ( 'detailed design', #23, 'design' ) ;
#158 = ORIENTED_EDGE ( 'NONE', *, *, #2, .F. ) ;
#159 = CARTESIAN_POINT ( 'NONE',  ( 5.000000000000000000, 63.00000000000000000, 6.123233995736762338E-16 ) ) ;
#160 = AXIS2_PLACEMENT_3D ( 'NONE', #38, #178, #243 ) ;
#161 = PRODUCT_DEFINITION_SHAPE ( 'NONE', 'NONE',  #50 ) ;
#162 =( NAMED_UNIT ( * ) PLANE_ANGLE_UNIT ( ) SI_UNIT ( $, .RADIAN. ) );
#163 = ORIENTED_EDGE ( 'NONE', *, *, #181, .F. ) ;
#164 = PRESENTATION_STYLE_ASSIGNMENT (( #228 ) ) ;
#165 = PLANE ( 'NONE',  #363 ) ;
#166 = VECTOR ( 'NONE', #188, 1000.000000000000000 ) ;
#167 = SURFACE_STYLE_USAGE ( .BOTH. , #294 ) ;
#168 = PRESENTATION_LAYER_ASSIGNMENT (  '', '', ( #236 ) ) ;
#169 = CIRCLE ( 'NONE', #17, 4.000000000000000000 ) ;
#170 = DIRECTION ( 'NONE',  ( 0.000000000000000000, 0.000000000000000000, -1.000000000000000000 ) ) ;
#171 = DIRECTION ( 'NONE',  ( 1.000000000000000000, 0.000000000000000000, -1.224646799147353207E-16 ) ) ;
#172 = FILL_AREA_STYLE_COLOUR ( '', #91 ) ;
#173 = DIRECTION ( 'NONE',  ( -9.135657442593541248E-17, 1.000000000000000000, -0.000000000000000000 ) ) ;
#174 = FILL_AREA_STYLE_COLOUR ( '', #62 ) ;
#175 =( NAMED_UNIT ( * ) SI_UNIT ( $, .STERADIAN. ) SOLID_ANGLE_UNIT ( ) );
#176 = COLOUR_RGB ( '',0.7921568627450980005, 0.8196078431372548767, 0.9333333333333333481 ) ;
#177 = MANIFOLD_SOLID_BREP ( 'Revolve - Cutting Edge', #46 ) ;
#178 = DIRECTION ( 'NONE',  ( -0.000000000000000000, -1.000000000000000000, -0.000000000000000000 ) ) ;
#179 =( GEOMETRIC_REPRESENTATION_CONTEXT ( 3 ) GLOBAL_UNCERTAINTY_ASSIGNED_CONTEXT ( ( #128 ) ) GLOBAL_UNIT_ASSIGNED_CONTEXT ( ( #68, #297, #330 ) ) REPRESENTATION_CONTEXT ( 'NONE', 'WORKASPACE' ) );
#180 = SURFACE_STYLE_FILL_AREA ( #64 ) ;
#181 = EDGE_CURVE ( 'NONE', #287, #129, #56, .T. ) ;
#182 = EDGE_CURVE ( 'NONE', #340, #315, #278, .T. ) ;
#183 = DIRECTION ( 'NONE',  ( 0.000000000000000000, 0.000000000000000000, 1.000000000000000000 ) ) ;
#184 = STYLED_ITEM ( 'NONE', ( #191 ), #177 ) ;
#185 =( NAMED_UNIT ( * ) SI_UNIT ( $, .STERADIAN. ) SOLID_ANGLE_UNIT ( ) );
#186 =( NAMED_UNIT ( * ) PLANE_ANGLE_UNIT ( ) SI_UNIT ( $, .RADIAN. ) );
#187 = MECHANICAL_DESIGN_GEOMETRIC_PRESENTATION_REPRESENTATION (  '', ( #353 ), #369 ) ;
#188 = DIRECTION ( 'NONE',  ( -9.135657442593541248E-17, 1.000000000000000000, -0.000000000000000000 ) ) ;
#189 = UNCERTAINTY_MEASURE_WITH_UNIT (LENGTH_MEASURE( 1.000000000000000082E-05 ), #95, 'distance_accuracy_value', 'NONE');
#190 = ORIENTED_EDGE ( 'NONE', *, *, #285, .F. ) ;
#191 = PRESENTATION_STYLE_ASSIGNMENT (( #229 ) ) ;
#192 = SURFACE_SIDE_STYLE ('',( #79 ) ) ;
#193 = ORIENTED_EDGE ( 'NONE', *, *, #92, .F. ) ;
#194 = PRODUCT_RELATED_PRODUCT_CATEGORY ( 'part', '', ( #360 ) ) ;
#195 = ORIENTED_EDGE ( 'NONE', *, *, #231, .F. ) ;
#196 = CARTESIAN_POINT ( 'NONE',  ( 1.469576158976823750E-15, 63.00000000000000000, 0.000000000000000000 ) ) ;
#197 = AXIS2_PLACEMENT_3D ( 'NONE', #226, #367, #289 ) ;
#198 = EDGE_LOOP ( 'NONE', ( #223, #131 ) ) ;
#199 = CARTESIAN_POINT ( 'NONE',  ( 0.000000000000000000, 0.000000000000000000, 0.000000000000000000 ) ) ;
#200 = ORIENTED_EDGE ( 'NONE', *, *, #364, .F. ) ;
#201 = DIRECTION ( 'NONE',  ( -9.135657442593541248E-17, 1.000000000000000000, -0.000000000000000000 ) ) ;
#202 = CARTESIAN_POINT ( 'NONE',  ( 0.000000000000000000, 0.000000000000000000, 0.000000000000000000 ) ) ;
#203 = DIRECTION ( 'NONE',  ( -9.135657442593541248E-17, 1.000000000000000000, -0.000000000000000000 ) ) ;
#204 = SURFACE_SIDE_STYLE ('',( #242 ) ) ;
#205 = AXIS2_PLACEMENT_3D ( 'NONE', #300, #301, #40 ) ;
#206 = SURFACE_STYLE_USAGE ( .BOTH. , #120 ) ;
#207 = DIRECTION ( 'NONE',  ( -9.135657442593541248E-17, 1.000000000000000000, -0.000000000000000000 ) ) ;
#208 = CARTESIAN_POINT ( 'NONE',  ( 6.123233995736766282E-16, 15.00000000000000000, 5.000000000000000000 ) ) ;
#209 = ADVANCED_FACE ( 'NONE', ( #296 ), #81, .T. ) ;
#210 =( LENGTH_UNIT ( ) NAMED_UNIT ( * ) SI_UNIT ( .MILLI., .METRE. ) );
#211 = DIRECTION ( 'NONE',  ( -0.000000000000000000, -1.000000000000000000, -0.000000000000000000 ) ) ;
#212 = CIRCLE ( 'NONE', #248, 5.000000000000000000 ) ;
#213 = DIRECTION ( 'NONE',  ( -0.000000000000000000, -1.000000000000000000, -0.000000000000000000 ) ) ;
#214 = PRESENTATION_STYLE_ASSIGNMENT (( #99 ) ) ;
#215 = PRESENTATION_LAYER_ASSIGNMENT (  '', '', ( #26 ) ) ;
#216 = UNCERTAINTY_MEASURE_WITH_UNIT (LENGTH_MEASURE( 1.000000000000000082E-05 ), #52, 'distance_accuracy_value', 'NONE');
#217 = STYLED_ITEM ( 'NONE', ( #149 ), #47 ) ;
#218 = CARTESIAN_POINT ( 'NONE',  ( 6.123233995736766282E-16, 1.000000000000000000, 5.000000000000000000 ) ) ;
#219 = UNCERTAINTY_MEASURE_WITH_UNIT (LENGTH_MEASURE( 1.000000000000000082E-05 ), #19, 'distance_accuracy_value', 'NONE');
#220 = PRODUCT_CONTEXT ( 'NONE', #30, 'mechanical' ) ;
#221 =( GEOMETRIC_REPRESENTATION_CONTEXT ( 3 ) GLOBAL_UNCERTAINTY_ASSIGNED_CONTEXT ( ( #34 ) ) GLOBAL_UNIT_ASSIGNED_CONTEXT ( ( #44, #351, #146 ) ) REPRESENTATION_CONTEXT ( 'NONE', 'WORKASPACE' ) );
#222 = ORIENTED_EDGE ( 'NONE', *, *, #92, .T. ) ;
#223 = ORIENTED_EDGE ( 'NONE', *, *, #231, .T. ) ;
#224 = AXIS2_PLACEMENT_3D ( 'NONE', #247, #361, #333 ) ;
#225 = DIRECTION ( 'NONE',  ( -0.000000000000000000, -1.000000000000000000, -0.000000000000000000 ) ) ;
#226 = CARTESIAN_POINT ( 'NONE',  ( 0.000000000000000000, 0.000000000000000000, 0.000000000000000000 ) ) ;
#227 = ORIENTED_EDGE ( 'NONE', *, *, #354, .F. ) ;
#228 = SURFACE_STYLE_USAGE ( .BOTH. , #192 ) ;
#229 = SURFACE_STYLE_USAGE ( .BOTH. , #85 ) ;
#230 = PLANE ( 'NONE',  #72 ) ;
#231 = EDGE_CURVE ( 'NONE', #55, #368, #265, .T. ) ;
#232 = MECHANICAL_DESIGN_GEOMETRIC_PRESENTATION_REPRESENTATION (  '', ( #217 ), #311 ) ;
#233 = CARTESIAN_POINT ( 'NONE',  ( 0.000000000000000000, 1.000000000000000000, 0.000000000000000000 ) ) ;
#234 = PRESENTATION_STYLE_ASSIGNMENT (( #206 ) ) ;
#235 = SURFACE_STYLE_USAGE ( .BOTH. , #113 ) ;
#236 = STYLED_ITEM ( 'NONE', ( #93 ), #127 ) ;
#237 = STYLED_ITEM ( 'NONE', ( #164 ), #255 ) ;
#238 = PRESENTATION_LAYER_ASSIGNMENT (  '', '', ( #135 ) ) ;
#239 = FILL_AREA_STYLE_COLOUR ( '', #43 ) ;
#240 = PRESENTATION_STYLE_ASSIGNMENT (( #4 ) ) ;
#241 = DIRECTION ( 'NONE',  ( -0.000000000000000000, -1.000000000000000000, -0.000000000000000000 ) ) ;
#242 = SURFACE_STYLE_FILL_AREA ( #115 ) ;
#243 = DIRECTION ( 'NONE',  ( 0.000000000000000000, 0.000000000000000000, -1.000000000000000000 ) ) ;
#244 =( GEOMETRIC_REPRESENTATION_CONTEXT ( 3 ) GLOBAL_UNCERTAINTY_ASSIGNED_CONTEXT ( ( #69 ) ) GLOBAL_UNIT_ASSIGNED_CONTEXT ( ( #147, #94, #175 ) ) REPRESENTATION_CONTEXT ( 'NONE', 'WORKASPACE' ) );
#245 = CARTESIAN_POINT ( 'NONE',  ( -4.999999999999993783, 63.00000000000000000, 0.000000000000000000 ) ) ;
#246 = ORIENTED_EDGE ( 'NONE', *, *, #275, .T. ) ;
#247 = CARTESIAN_POINT ( 'NONE',  ( 1.469576158976823750E-15, 63.00000000000000000, 0.000000000000000000 ) ) ;
#248 = AXIS2_PLACEMENT_3D ( 'NONE', #71, #310, #152 ) ;
#249 = ORIENTED_EDGE ( 'NONE', *, *, #275, .F. ) ;
#250 = CYLINDRICAL_SURFACE ( 'NONE', #224, 4.999999999999995559 ) ;
#251 = CIRCLE ( 'NONE', #9, 4.999999999999993783 ) ;
#252 = AXIS2_PLACEMENT_3D ( 'NONE', #202, #298, #116 ) ;
#253 = ORIENTED_EDGE ( 'NONE', *, *, #22, .T. ) ;
#254 = DIRECTION ( 'NONE',  ( -1.000000000000000000, 0.000000000000000000, 0.000000000000000000 ) ) ;
#255 = ADVANCED_FACE ( 'NONE', ( #318 ), #58, .T. ) ;
#256 = CIRCLE ( 'NONE', #123, 5.000000000000000000 ) ;
#257 = ORIENTED_EDGE ( 'NONE', *, *, #153, .F. ) ;
#258 = AXIS2_PLACEMENT_3D ( 'NONE', #331, #283, #74 ) ;
#259 = CIRCLE ( 'NONE', #160, 5.000000000000000000 ) ;
#260 = ORIENTED_EDGE ( 'NONE', *, *, #104, .F. ) ;
#261 =( NAMED_UNIT ( * ) PLANE_ANGLE_UNIT ( ) SI_UNIT ( $, .RADIAN. ) );
#262 = VERTEX_POINT ( 'NONE', #42 ) ;
#263 =( NAMED_UNIT ( * ) SI_UNIT ( $, .STERADIAN. ) SOLID_ANGLE_UNIT ( ) );
#264 = AXIS2_PLACEMENT_3D ( 'NONE', #8, #211, #327 ) ;
#265 = CIRCLE ( 'NONE', #67, 4.999999999999998224 ) ;
#266 = DIRECTION ( 'NONE',  ( 0.000000000000000000, 0.000000000000000000, -1.000000000000000000 ) ) ;
#267 = UNCERTAINTY_MEASURE_WITH_UNIT (LENGTH_MEASURE( 1.000000000000000082E-05 ), #210, 'distance_accuracy_value', 'NONE');
#268 = CARTESIAN_POINT ( 'NONE',  ( 0.000000000000000000, 15.00000000000000000, 0.000000000000000000 ) ) ;
#269 = FACE_OUTER_BOUND ( 'NONE', #7, .T. ) ;
#270 = SURFACE_STYLE_FILL_AREA ( #36 ) ;
#271 = EDGE_CURVE ( 'NONE', #86, #315, #169, .T. ) ;
#272 = CARTESIAN_POINT ( 'NONE',  ( 4.898587196589412829E-16, 1.000000000000000000, 4.000000000000000000 ) ) ;
#273 = CARTESIAN_POINT ( 'NONE',  ( -4.999999999999987566, 15.00000000000000000, 0.000000000000000000 ) ) ;
#274 = FACE_OUTER_BOUND ( 'NONE', #105, .T. ) ;
#275 = EDGE_CURVE ( 'NONE', #340, #262, #365, .T. ) ;
#276 = CYLINDRICAL_SURFACE ( 'NONE', #252, 5.000000000000000000 ) ;
#277 = CYLINDRICAL_SURFACE ( 'NONE', #14, 4.999999999999995559 ) ;
#278 = CIRCLE ( 'NONE', #103, 1.000000000000000000 ) ;
#279 = SURFACE_STYLE_USAGE ( .BOTH. , #204 ) ;
#280 = FILL_AREA_STYLE_COLOUR ( '', #176 ) ;
#281 = CARTESIAN_POINT ( 'NONE',  ( 5.000000000000000000, 63.00000000000000000, 0.000000000000000000 ) ) ;
#282 =( NAMED_UNIT ( * ) SI_UNIT ( $, .STERADIAN. ) SOLID_ANGLE_UNIT ( ) );
#283 = DIRECTION ( 'NONE',  ( 0.000000000000000000, 0.000000000000000000, 1.000000000000000000 ) ) ;
#284 = CARTESIAN_POINT ( 'NONE',  ( 5.510910596163088569E-16, 0.000000000000000000, 4.000000000000000000 ) ) ;
#285 = EDGE_CURVE ( 'NONE', #125, #77, #259, .T. ) ;
#286 = MECHANICAL_DESIGN_GEOMETRIC_PRESENTATION_REPRESENTATION (  '', ( #237 ), #338 ) ;
#287 = VERTEX_POINT ( 'NONE', #273 ) ;
#288 = EDGE_LOOP ( 'NONE', ( #163, #260 ) ) ;
#289 = DIRECTION ( 'NONE',  ( 0.000000000000000000, 0.000000000000000000, -1.000000000000000000 ) ) ;
#290 = ORIENTED_EDGE ( 'NONE', *, *, #25, .F. ) ;
#291 = MECHANICAL_DESIGN_GEOMETRIC_PRESENTATION_REPRESENTATION (  '', ( #184 ), #221 ) ;
#292 = ORIENTED_EDGE ( 'NONE', *, *, #334, .F. ) ;
#293 = COLOUR_RGB ( '',1.000000000000000000, 0.000000000000000000, 0.000000000000000000 ) ;
#294 = SURFACE_SIDE_STYLE ('',( #145 ) ) ;
#295 = CARTESIAN_POINT ( 'NONE',  ( 0.000000000000000000, 0.000000000000000000, -4.000000000000000000 ) ) ;
#296 = FACE_OUTER_BOUND ( 'NONE', #20, .T. ) ;
#297 =( NAMED_UNIT ( * ) PLANE_ANGLE_UNIT ( ) SI_UNIT ( $, .RADIAN. ) );
#298 = DIRECTION ( 'NONE',  ( -0.000000000000000000, -1.000000000000000000, -0.000000000000000000 ) ) ;
#299 = FACE_OUTER_BOUND ( 'NONE', #100, .T. ) ;
#300 = CARTESIAN_POINT ( 'NONE',  ( 0.000000000000000000, 1.000000000000000000, 0.000000000000000000 ) ) ;
#301 = DIRECTION ( 'NONE',  ( -0.000000000000000000, -1.000000000000000000, -0.000000000000000000 ) ) ;
#302 = ADVANCED_FACE ( 'NONE', ( #66 ), #276, .T. ) ;
#303 = TOROIDAL_SURFACE ( 'NONE', #264, 4.000000000000000000, 1.000000000000000000 ) ;
#304 = ADVANCED_FACE ( 'NONE', ( #269 ), #303, .T. ) ;
#305 = VECTOR ( 'NONE', #336, 1000.000000000000000 ) ;
#306 = SHAPE_DEFINITION_REPRESENTATION ( #161, #106 ) ;
#307 = ORIENTED_EDGE ( 'NONE', *, *, #285, .T. ) ;
#308 = MANIFOLD_SOLID_BREP ( 'Revolve - Tool Body (Straight Shanked)', #96 ) ;
#309 = VECTOR ( 'NONE', #203, 1000.000000000000000 ) ;
#310 = DIRECTION ( 'NONE',  ( -0.000000000000000000, -1.000000000000000000, -0.000000000000000000 ) ) ;
#311 =( GEOMETRIC_REPRESENTATION_CONTEXT ( 3 ) GLOBAL_UNCERTAINTY_ASSIGNED_CONTEXT ( ( #189 ) ) GLOBAL_UNIT_ASSIGNED_CONTEXT ( ( #95, #63, #143 ) ) REPRESENTATION_CONTEXT ( 'NONE', 'WORKASPACE' ) );
#312 = ORIENTED_EDGE ( 'NONE', *, *, #155, .F. ) ;
#313 = PRESENTATION_LAYER_ASSIGNMENT (  '', '', ( #217 ) ) ;
#314 = LINE ( 'NONE', #341, #305 ) ;
#315 = VERTEX_POINT ( 'NONE', #284 ) ;
#316 = AXIS2_PLACEMENT_3D ( 'NONE', #281, #355, #18 ) ;
#317 = DIRECTION ( 'NONE',  ( 0.000000000000000000, 1.000000000000000000, 0.000000000000000000 ) ) ;
#318 = FACE_OUTER_BOUND ( 'NONE', #31, .T. ) ;
#319 =( NAMED_UNIT ( * ) PLANE_ANGLE_UNIT ( ) SI_UNIT ( $, .RADIAN. ) );
#320 = UNCERTAINTY_MEASURE_WITH_UNIT (LENGTH_MEASURE( 1.000000000000000082E-05 ), #151, 'distance_accuracy_value', 'NONE');
#321 = CARTESIAN_POINT ( 'NONE',  ( 5.854691731421723944E-15, 15.00000000000000000, 0.000000000000000000 ) ) ;
#322 = AXIS2_PLACEMENT_3D ( 'NONE', #49, #254, #183 ) ;
#323 = FILL_AREA_STYLE ('',( #172 ) ) ;
#324 =( GEOMETRIC_REPRESENTATION_CONTEXT ( 3 ) GLOBAL_UNCERTAINTY_ASSIGNED_CONTEXT ( ( #320 ) ) GLOBAL_UNIT_ASSIGNED_CONTEXT ( ( #151, #261, #32 ) ) REPRESENTATION_CONTEXT ( 'NONE', 'WORKASPACE' ) );
#325 = FILL_AREA_STYLE_COLOUR ( '', #139 ) ;
#326 = CARTESIAN_POINT ( 'NONE',  ( 4.999999999999997335, 63.00000000000000000, 6.123233995736761352E-16 ) ) ;
#327 = DIRECTION ( 'NONE',  ( 0.000000000000000000, 0.000000000000000000, -1.000000000000000000 ) ) ;
#328 = PRODUCT_DEFINITION_FORMATION_WITH_SPECIFIED_SOURCE ( 'ANY', '', #360, .NOT_KNOWN. ) ;
#329 = FACE_OUTER_BOUND ( 'NONE', #288, .T. ) ;
#330 =( NAMED_UNIT ( * ) SI_UNIT ( $, .STERADIAN. ) SOLID_ANGLE_UNIT ( ) );
#331 = CARTESIAN_POINT ( 'NONE',  ( 0.000000000000000000, 0.000000000000000000, 0.000000000000000000 ) ) ;
#332 = ADVANCED_FACE ( 'NONE', ( #48 ), #97, .F. ) ;
#333 = DIRECTION ( 'NONE',  ( -1.000000000000000000, 0.000000000000000000, 0.000000000000000000 ) ) ;
#334 = EDGE_CURVE ( 'NONE', #287, #55, #101, .T. ) ;
#335 =( LENGTH_UNIT ( ) NAMED_UNIT ( * ) SI_UNIT ( .MILLI., .METRE. ) );
#336 = DIRECTION ( 'NONE',  ( -0.000000000000000000, -1.000000000000000000, -0.000000000000000000 ) ) ;
#337 = CIRCLE ( 'NONE', #35, 4.000000000000000000 ) ;
#338 =( GEOMETRIC_REPRESENTATION_CONTEXT ( 3 ) GLOBAL_UNCERTAINTY_ASSIGNED_CONTEXT ( ( #216 ) ) GLOBAL_UNIT_ASSIGNED_CONTEXT ( ( #52, #162, #263 ) ) REPRESENTATION_CONTEXT ( 'NONE', 'WORKASPACE' ) );
#339 = DIRECTION ( 'NONE',  ( -9.135657442593541248E-17, 1.000000000000000000, -0.000000000000000000 ) ) ;
#340 = VERTEX_POINT ( 'NONE', #218 ) ;
#341 = CARTESIAN_POINT ( 'NONE',  ( 0.000000000000000000, 0.000000000000000000, -5.000000000000000000 ) ) ;
#342 = ORIENTED_EDGE ( 'NONE', *, *, #155, .T. ) ;
#343 = ORIENTED_EDGE ( 'NONE', *, *, #2, .T. ) ;
#344 = DIRECTION ( 'NONE',  ( -1.000000000000000000, 0.000000000000000000, 0.000000000000000000 ) ) ;
#345 = ADVANCED_FACE ( 'NONE', ( #75 ), #250, .T. ) ;
#346 = DIRECTION ( 'NONE',  ( -1.000000000000000000, 0.000000000000000000, 0.000000000000000000 ) ) ;
#347 = SURFACE_SIDE_STYLE ('',( #180 ) ) ;
#348 = PRESENTATION_LAYER_ASSIGNMENT (  '', '', ( #184 ) ) ;
#349 = LINE ( 'NONE', #326, #309 ) ;
#350 = DIRECTION ( 'NONE',  ( 0.000000000000000000, 0.000000000000000000, -1.000000000000000000 ) ) ;
#351 =( NAMED_UNIT ( * ) PLANE_ANGLE_UNIT ( ) SI_UNIT ( $, .RADIAN. ) );
#352 = SURFACE_SIDE_STYLE ('',( #124 ) ) ;
#353 = STYLED_ITEM ( 'NONE', ( #214 ), #308 ) ;
#354 = EDGE_CURVE ( 'NONE', #77, #125, #212, .T. ) ;
#355 = DIRECTION ( 'NONE',  ( 9.135657442593541248E-17, -1.000000000000000000, 0.000000000000000000 ) ) ;
#356 = UNCERTAINTY_MEASURE_WITH_UNIT (LENGTH_MEASURE( 1.000000000000000082E-05 ), #335, 'distance_accuracy_value', 'NONE');
#357 = AXIS2_PLACEMENT_3D ( 'NONE', #33, #201, #344 ) ;
#358 = APPLICATION_PROTOCOL_DEFINITION ( 'draft international standard', 'automotive_design', 1998, #30 ) ;
#359 = AXIS2_PLACEMENT_3D ( 'NONE', #87, #241, #266 ) ;
#360 = PRODUCT ( '59524', '59524', '', ( #220 ) ) ;
#361 = DIRECTION ( 'NONE',  ( -9.135657442593541248E-17, 1.000000000000000000, -0.000000000000000000 ) ) ;
#362 = ORIENTED_EDGE ( 'NONE', *, *, #153, .T. ) ;
#363 = AXIS2_PLACEMENT_3D ( 'NONE', #89, #121, #5 ) ;
#364 = EDGE_CURVE ( 'NONE', #262, #86, #76, .T. ) ;
#365 = CIRCLE ( 'NONE', #205, 5.000000000000000000 ) ;
#366 = ORIENTED_EDGE ( 'NONE', *, *, #182, .F. ) ;
#367 = DIRECTION ( 'NONE',  ( -0.000000000000000000, -1.000000000000000000, -0.000000000000000000 ) ) ;
#368 = VERTEX_POINT ( 'NONE', #159 ) ;
#369 =( GEOMETRIC_REPRESENTATION_CONTEXT ( 3 ) GLOBAL_UNCERTAINTY_ASSIGNED_CONTEXT ( ( #356 ) ) GLOBAL_UNIT_ASSIGNED_CONTEXT ( ( #335, #186, #282 ) ) REPRESENTATION_CONTEXT ( 'NONE', 'WORKASPACE' ) );
#370 = DIRECTION ( 'NONE',  ( 0.000000000000000000, -1.000000000000000000, -0.000000000000000000 ) ) ;
ENDSEC;
END-ISO-10303-21;
