ISO-10303-21;
HEADER;
FILE_DESCRIPTION (( 'STEP AP214' ),
    '1' );
FILE_NAME ('Micro_SEM-500-03.STEP',
    '2021-09-02T03:25:21',
    ( '' ),
    ( '' ),
    'SwSTEP 2.0',
    'SolidWorks 2020',
    '' );
FILE_SCHEMA (( 'AUTOMOTIVE_DESIGN' ));
ENDSEC;

DATA;
#1 = CARTESIAN_POINT ( 'NONE',  ( 0.0000000000000000000, 0.0000000000000000000, 2.500000000000000000 ) ) ;
#2 = FACE_OUTER_BOUND ( 'NONE', #64, .T. ) ;
#3 = CIRCLE ( 'NONE', #254, 0.2500000000000000000 ) ;
#4 = CARTESIAN_POINT ( 'NONE',  ( 0.0000000000000000000, 0.0000000000000000000, 2.484999999999999876 ) ) ;
#5 = DIRECTION ( 'NONE',  ( 1.000000000000000000, 0.0000000000000000000, 0.0000000000000000000 ) ) ;
#6 = DIMENSIONAL_EXPONENTS ( 1.000000000000000000, 0.0000000000000000000, 0.0000000000000000000, 0.0000000000000000000, 0.0000000000000000000, 0.0000000000000000000, 0.0000000000000000000 ) ;
#7 = EDGE_CURVE ( 'NONE', #153, #250, #200, .T. ) ;
#8 =( GEOMETRIC_REPRESENTATION_CONTEXT ( 3 ) GLOBAL_UNCERTAINTY_ASSIGNED_CONTEXT ( ( #286 ) ) GLOBAL_UNIT_ASSIGNED_CONTEXT ( ( #235, #170, #100 ) ) REPRESENTATION_CONTEXT ( 'NONE', 'WORKASPACE' ) );
#9 = AXIS2_PLACEMENT_3D ( 'NONE', #162, #80, #135 ) ;
#10 = SURFACE_SIDE_STYLE ('',( #218 ) ) ;
#11 = ORIENTED_EDGE ( 'NONE', *, *, #7, .F. ) ;
#12 = EDGE_LOOP ( 'NONE', ( #171, #144, #85, #240 ) ) ;
#13 = ORIENTED_EDGE ( 'NONE', *, *, #239, .T. ) ;
#14 = ORIENTED_EDGE ( 'NONE', *, *, #84, .T. ) ;
#15 = AXIS2_PLACEMENT_3D ( 'NONE', #176, #130, #125 ) ;
#16 = DIRECTION ( 'NONE',  ( -1.224646799147353207E-16, -0.0000000000000000000, -1.000000000000000000 ) ) ;
#17 = CARTESIAN_POINT ( 'NONE',  ( 0.2497500000000000830, 0.0000000000000000000, 0.6250000000000000000 ) ) ;
#18 = FACE_OUTER_BOUND ( 'NONE', #67, .T. ) ;
#19 = ORIENTED_EDGE ( 'NONE', *, *, #99, .T. ) ;
#20 = AXIS2_PLACEMENT_3D ( 'NONE', #24, #230, #22 ) ;
#21 = AXIS2_PLACEMENT_3D ( 'NONE', #4, #172, #121 ) ;
#22 = DIRECTION ( 'NONE',  ( 1.000000000000000000, 0.0000000000000000000, 0.0000000000000000000 ) ) ;
#23 = DIRECTION ( 'NONE',  ( -1.224646799147353207E-16, -0.0000000000000000000, -1.000000000000000000 ) ) ;
#24 = CARTESIAN_POINT ( 'NONE',  ( 7.654042494670957853E-17, 0.0000000000000000000, 0.6250000000000000000 ) ) ;
#25 = CARTESIAN_POINT ( 'NONE',  ( -0.2497499999999999998, 0.0000000000000000000, 6.117110761741029900E-17 ) ) ;
#26 = CARTESIAN_POINT ( 'NONE',  ( 0.0000000000000000000, 0.0000000000000000000, 0.0000000000000000000 ) ) ;
#27 = DIRECTION ( 'NONE',  ( 0.0000000000000000000, 0.0000000000000000000, -1.000000000000000000 ) ) ;
#28 =( LENGTH_UNIT ( ) NAMED_UNIT ( * ) SI_UNIT ( $, .METRE. ) );
#29 = EDGE_CURVE ( 'NONE', #179, #131, #205, .T. ) ;
#30 = EDGE_CURVE ( 'NONE', #131, #289, #222, .T. ) ;
#31 = LINE ( 'NONE', #257, #106 ) ;
#32 = PRODUCT_DEFINITION_CONTEXT ( 'detailed design', #266, 'design' ) ;
#33 = ORIENTED_EDGE ( 'NONE', *, *, #253, .T. ) ;
#34 = ORIENTED_EDGE ( 'NONE', *, *, #227, .F. ) ;
#35 = CONICAL_SURFACE ( 'NONE', #20, 0.2497499999999999998, 0.1745329251994339192 ) ;
#36 = EDGE_LOOP ( 'NONE', ( #82, #124, #196, #245 ) ) ;
#37 = EDGE_CURVE ( 'NONE', #182, #296, #290, .T. ) ;
#38 = CARTESIAN_POINT ( 'NONE',  ( 0.0000000000000000000, 0.0000000000000000000, 2.500000000000000000 ) ) ;
#39 = ORIENTED_EDGE ( 'NONE', *, *, #41, .F. ) ;
#40 = AXIS2_PLACEMENT_3D ( 'NONE', #51, #78, #5 ) ;
#41 = EDGE_CURVE ( 'NONE', #131, #203, #295, .T. ) ;
#42 = DIRECTION ( 'NONE',  ( -0.1736481776669312194, 2.126576849575783625E-17, 0.9848077530122080203 ) ) ;
#43 = EDGE_LOOP ( 'NONE', ( #39, #108, #293, #270 ) ) ;
#44 = DIRECTION ( 'NONE',  ( 0.0000000000000000000, 0.0000000000000000000, 1.000000000000000000 ) ) ;
#45 = CARTESIAN_POINT ( 'NONE',  ( 7.671405787489599085E-17, 0.0000000000000000000, 0.6264178204549043505 ) ) ;
#46 = CARTESIAN_POINT ( 'NONE',  ( 0.0000000000000000000, 0.0000000000000000000, 2.500000000000000000 ) ) ;
#47 = ADVANCED_FACE ( 'NONE', ( #18 ), #204, .T. ) ;
#48 = ADVANCED_FACE ( 'NONE', ( #177 ), #105, .T. ) ;
#49 = DIRECTION ( 'NONE',  ( -0.0000000000000000000, -0.0000000000000000000, -1.000000000000000000 ) ) ;
#50 = CLOSED_SHELL ( 'NONE', ( #47, #137, #48, #285, #79, #107, #299, #65, #116, #58 ) ) ;
#51 = CARTESIAN_POINT ( 'NONE',  ( 7.654042494670957853E-17, 0.0000000000000000000, 0.6250000000000000000 ) ) ;
#52 = SURFACE_STYLE_USAGE ( .BOTH. , #10 ) ;
#53 = VECTOR ( 'NONE', #42, 39.37007874015747433 ) ;
#54 = CIRCLE ( 'NONE', #217, 0.2350000000000003753 ) ;
#55 = PRODUCT_RELATED_PRODUCT_CATEGORY ( 'part', '', ( #294 ) ) ;
#56 = ORIENTED_EDGE ( 'NONE', *, *, #128, .T. ) ;
#57 = SHAPE_DEFINITION_REPRESENTATION ( #154, #234 ) ;
#58 = ADVANCED_FACE ( 'NONE', ( #69 ), #202, .F. ) ;
#59 = ORIENTED_EDGE ( 'NONE', *, *, #242, .F. ) ;
#60 = VECTOR ( 'NONE', #16, 39.37007874015748143 ) ;
#61 = CIRCLE ( 'NONE', #9, 0.2500000000000000000 ) ;
#62 = DIRECTION ( 'NONE',  ( -1.224646799147353207E-16, -0.0000000000000000000, -1.000000000000000000 ) ) ;
#63 = CARTESIAN_POINT ( 'NONE',  ( -0.2499999999999999167, 0.0000000000000000000, 0.6264178204549043505 ) ) ;
#64 = EDGE_LOOP ( 'NONE', ( #19, #168, #91, #147 ) ) ;
#65 = ADVANCED_FACE ( 'NONE', ( #278 ), #288, .T. ) ;
#66 = CARTESIAN_POINT ( 'NONE',  ( 7.654042494670957853E-17, 0.0000000000000000000, 0.6250000000000000000 ) ) ;
#67 = EDGE_LOOP ( 'NONE', ( #13, #221, #145, #148 ) ) ;
#68 = AXIS2_PLACEMENT_3D ( 'NONE', #152, #274, #192 ) ;
#69 = FACE_OUTER_BOUND ( 'NONE', #149, .T. ) ;
#70 = CARTESIAN_POINT ( 'NONE',  ( -0.2497499999999999443, 3.060086189369449292E-17, 0.6250000000000000000 ) ) ;
#71 = DIRECTION ( 'NONE',  ( -1.224646799147353207E-16, -0.0000000000000000000, -1.000000000000000000 ) ) ;
#72 = CARTESIAN_POINT ( 'NONE',  ( 0.0000000000000000000, 0.0000000000000000000, 2.484999999999999876 ) ) ;
#73 =( NAMED_UNIT ( * ) PLANE_ANGLE_UNIT ( ) SI_UNIT ( $, .RADIAN. ) );
#74 = CARTESIAN_POINT ( 'NONE',  ( -0.2350000000000003753, 0.0000000000000000000, 2.500000000000000000 ) ) ;
#75 =( NAMED_UNIT ( * ) SI_UNIT ( $, .STERADIAN. ) SOLID_ANGLE_UNIT ( ) );
#76 = DIRECTION ( 'NONE',  ( 1.000000000000000000, 0.0000000000000000000, 0.0000000000000000000 ) ) ;
#77 = CYLINDRICAL_SURFACE ( 'NONE', #213, 0.2500000000000000000 ) ;
#78 = DIRECTION ( 'NONE',  ( 1.224646799147353207E-16, 0.0000000000000000000, 1.000000000000000000 ) ) ;
#79 = ADVANCED_FACE ( 'NONE', ( #183 ), #132, .T. ) ;
#80 = DIRECTION ( 'NONE',  ( -1.224646799147353207E-16, -0.0000000000000000000, -1.000000000000000000 ) ) ;
#81 = EDGE_LOOP ( 'NONE', ( #89, #287, #113, #11 ) ) ;
#82 = ORIENTED_EDGE ( 'NONE', *, *, #90, .F. ) ;
#83 = AXIS2_PLACEMENT_3D ( 'NONE', #86, #62, #248 ) ;
#84 = EDGE_CURVE ( 'NONE', #182, #153, #225, .T. ) ;
#85 = ORIENTED_EDGE ( 'NONE', *, *, #7, .T. ) ;
#86 = CARTESIAN_POINT ( 'NONE',  ( 0.0000000000000000000, 0.0000000000000000000, 0.0000000000000000000 ) ) ;
#87 = CIRCLE ( 'NONE', #21, 0.2500000000000000000 ) ;
#88 = DIRECTION ( 'NONE',  ( 0.0000000000000000000, 0.0000000000000000000, -1.000000000000000000 ) ) ;
#89 = ORIENTED_EDGE ( 'NONE', *, *, #84, .F. ) ;
#90 = EDGE_CURVE ( 'NONE', #179, #272, #255, .T. ) ;
#91 = ORIENTED_EDGE ( 'NONE', *, *, #253, .F. ) ;
#92 = VECTOR ( 'NONE', #49, 39.37007874015748143 ) ;
#93 = VECTOR ( 'NONE', #112, 39.37007874015748143 ) ;
#94 = CARTESIAN_POINT ( 'NONE',  ( 0.0000000000000000000, 0.0000000000000000000, 2.500000000000000000 ) ) ;
#95 = DIRECTION ( 'NONE',  ( 0.0000000000000000000, 0.0000000000000000000, 1.000000000000000000 ) ) ;
#96 = COLOUR_RGB ( '',0.7921568627450980005, 0.8196078431372548767, 0.9333333333333333481 ) ;
#97 = CARTESIAN_POINT ( 'NONE',  ( 0.0000000000000000000, 0.0000000000000000000, 2.500000000000000000 ) ) ;
#98 = SURFACE_SIDE_STYLE ('',( #208 ) ) ;
#99 = EDGE_CURVE ( 'NONE', #250, #296, #104, .T. ) ;
#100 =( NAMED_UNIT ( * ) SI_UNIT ( $, .STERADIAN. ) SOLID_ANGLE_UNIT ( ) );
#101 = UNCERTAINTY_MEASURE_WITH_UNIT (LENGTH_MEASURE( 1.000000000000000082E-05 ), #155, 'distance_accuracy_value', 'NONE');
#102 =( GEOMETRIC_REPRESENTATION_CONTEXT ( 3 ) GLOBAL_UNCERTAINTY_ASSIGNED_CONTEXT ( ( #101 ) ) GLOBAL_UNIT_ASSIGNED_CONTEXT ( ( #155, #237, #206 ) ) REPRESENTATION_CONTEXT ( 'NONE', 'WORKASPACE' ) );
#103 = PRESENTATION_STYLE_ASSIGNMENT (( #52 ) ) ;
#104 = CIRCLE ( 'NONE', #243, 0.2500000000000000000 ) ;
#105 = CONICAL_SURFACE ( 'NONE', #197, 0.2350000000000003753, 0.7853981633974278509 ) ;
#106 = VECTOR ( 'NONE', #190, 39.37007874015748143 ) ;
#107 = ADVANCED_FACE ( 'NONE', ( #189 ), #191, .T. ) ;
#108 = ORIENTED_EDGE ( 'NONE', *, *, #29, .F. ) ;
#109 = AXIS2_PLACEMENT_3D ( 'NONE', #26, #165, #163 ) ;
#110 = ORIENTED_EDGE ( 'NONE', *, *, #251, .T. ) ;
#111 = DIRECTION ( 'NONE',  ( 0.7071067811865330288, 8.659560562354755364E-17, -0.7071067811865618946 ) ) ;
#112 = DIRECTION ( 'NONE',  ( 0.1736481776669314137, 0.0000000000000000000, 0.9848077530122077983 ) ) ;
#113 = ORIENTED_EDGE ( 'NONE', *, *, #99, .F. ) ;
#114 = FACE_OUTER_BOUND ( 'NONE', #224, .T. ) ;
#115 = CIRCLE ( 'NONE', #68, 0.2497499999999999998 ) ;
#116 = ADVANCED_FACE ( 'NONE', ( #118 ), #184, .T. ) ;
#117 = SURFACE_STYLE_USAGE ( .BOTH. , #98 ) ;
#118 = FACE_OUTER_BOUND ( 'NONE', #36, .T. ) ;
#119 = PRODUCT_DEFINITION ( 'UNKNOWN', '', #146, #32 ) ;
#120 = LENGTH_MEASURE_WITH_UNIT ( LENGTH_MEASURE( 0.02539999999999999897 ), #28 );
#121 = DIRECTION ( 'NONE',  ( 1.000000000000000000, 0.0000000000000000000, 0.0000000000000000000 ) ) ;
#122 = CONICAL_SURFACE ( 'NONE', #194, 0.2350000000000003753, 0.7853981633974278509 ) ;
#123 = PRODUCT_CONTEXT ( 'NONE', #249, 'mechanical' ) ;
#124 = ORIENTED_EDGE ( 'NONE', *, *, #29, .T. ) ;
#125 = DIRECTION ( 'NONE',  ( -1.000000000000000000, 0.0000000000000000000, 0.0000000000000000000 ) ) ;
#126 = CARTESIAN_POINT ( 'NONE',  ( 0.0000000000000000000, 0.0000000000000000000, 0.0000000000000000000 ) ) ;
#127 = EDGE_LOOP ( 'NONE', ( #267, #14 ) ) ;
#128 = EDGE_CURVE ( 'NONE', #250, #203, #212, .T. ) ;
#129 = VERTEX_POINT ( 'NONE', #231 ) ;
#130 = DIRECTION ( 'NONE',  ( -1.224646799147353207E-16, -0.0000000000000000000, -1.000000000000000000 ) ) ;
#131 = VERTEX_POINT ( 'NONE', #70 ) ;
#132 = CYLINDRICAL_SURFACE ( 'NONE', #273, 0.2500000000000000000 ) ;
#133 = AXIS2_PLACEMENT_3D ( 'NONE', #185, #209, #277 ) ;
#134 = CARTESIAN_POINT ( 'NONE',  ( -0.2500000000000000000, 0.0000000000000000000, 2.500000000000000000 ) ) ;
#135 = DIRECTION ( 'NONE',  ( 1.000000000000000000, 0.0000000000000000000, 0.0000000000000000000 ) ) ;
#136 = DIRECTION ( 'NONE',  ( -1.224646799147353207E-16, -0.0000000000000000000, -1.000000000000000000 ) ) ;
#137 = ADVANCED_FACE ( 'NONE', ( #114 ), #35, .T. ) ;
#138 = LENGTH_MEASURE_WITH_UNIT ( LENGTH_MEASURE( 0.02539999999999999897 ), #214 );
#139 = CARTESIAN_POINT ( 'NONE',  ( 0.2497499999999999998, 3.058555380870514950E-17, 0.0000000000000000000 ) ) ;
#140 = PRESENTATION_STYLE_ASSIGNMENT (( #117 ) ) ;
#141 = LENGTH_MEASURE_WITH_UNIT ( LENGTH_MEASURE( 0.02539999999999999897 ), #232 );
#142 = PRESENTATION_LAYER_ASSIGNMENT (  '', '', ( #262 ) ) ;
#143 = CIRCLE ( 'NONE', #207, 0.2497499999999999998 ) ;
#144 = ORIENTED_EDGE ( 'NONE', *, *, #180, .F. ) ;
#145 = ORIENTED_EDGE ( 'NONE', *, *, #186, .F. ) ;
#146 = PRODUCT_DEFINITION_FORMATION_WITH_SPECIFIED_SOURCE ( 'ANY', '', #294, .NOT_KNOWN. ) ;
#147 = ORIENTED_EDGE ( 'NONE', *, *, #128, .F. ) ;
#148 = ORIENTED_EDGE ( 'NONE', *, *, #30, .F. ) ;
#149 = EDGE_LOOP ( 'NONE', ( #178, #110 ) ) ;
#150 = DIRECTION ( 'NONE',  ( -1.000000000000000000, 0.0000000000000000000, 0.0000000000000000000 ) ) ;
#151 = CARTESIAN_POINT ( 'NONE',  ( -0.2497499999999999443, 3.058555380870514950E-17, 0.6250000000000000000 ) ) ;
#152 = CARTESIAN_POINT ( 'NONE',  ( 3.745650057197989622E-33, 0.0000000000000000000, 3.058555380870514950E-17 ) ) ;
#153 = VERTEX_POINT ( 'NONE', #74 ) ;
#154 = PRODUCT_DEFINITION_SHAPE ( 'NONE', 'NONE',  #119 ) ;
#155 =( CONVERSION_BASED_UNIT ( 'INCH', #138 ) LENGTH_UNIT ( ) NAMED_UNIT ( #164 ) );
#156 = DIRECTION ( 'NONE',  ( 1.000000000000000000, 0.0000000000000000000, 0.0000000000000000000 ) ) ;
#157 = DIRECTION ( 'NONE',  ( -0.0000000000000000000, -0.0000000000000000000, -1.000000000000000000 ) ) ;
#158 = MANIFOLD_SOLID_BREP ( 'Cut-Revolve1', #50 ) ;
#159 = AXIS2_PLACEMENT_3D ( 'NONE', #126, #199, #223 ) ;
#160 = DIRECTION ( 'NONE',  ( -1.000000000000000000, 0.0000000000000000000, 0.0000000000000000000 ) ) ;
#161 = FILL_AREA_STYLE ('',( #258 ) ) ;
#162 = CARTESIAN_POINT ( 'NONE',  ( 7.671405787489599085E-17, 0.0000000000000000000, 0.6264178204549043505 ) ) ;
#163 = DIRECTION ( 'NONE',  ( -1.000000000000000000, 0.0000000000000000000, 1.224646799147353454E-16 ) ) ;
#164 = DIMENSIONAL_EXPONENTS ( 1.000000000000000000, 0.0000000000000000000, 0.0000000000000000000, 0.0000000000000000000, 0.0000000000000000000, 0.0000000000000000000, 0.0000000000000000000 ) ;
#165 = DIRECTION ( 'NONE',  ( -1.224646799147353207E-16, -0.0000000000000000000, -1.000000000000000000 ) ) ;
#166 = CIRCLE ( 'NONE', #133, 0.2497499999999999998 ) ;
#167 = CARTESIAN_POINT ( 'NONE',  ( 0.0000000000000000000, 0.0000000000000000000, 2.500000000000000000 ) ) ;
#168 = ORIENTED_EDGE ( 'NONE', *, *, #292, .T. ) ;
#169 = UNCERTAINTY_MEASURE_WITH_UNIT (LENGTH_MEASURE( 1.000000000000000082E-05 ), #215, 'distance_accuracy_value', 'NONE');
#170 =( NAMED_UNIT ( * ) PLANE_ANGLE_UNIT ( ) SI_UNIT ( $, .RADIAN. ) );
#171 = ORIENTED_EDGE ( 'NONE', *, *, #37, .F. ) ;
#172 = DIRECTION ( 'NONE',  ( 0.0000000000000000000, 0.0000000000000000000, -1.000000000000000000 ) ) ;
#173 = STYLED_ITEM ( 'NONE', ( #103 ), #234 ) ;
#174 = EDGE_CURVE ( 'NONE', #296, #250, #87, .T. ) ;
#175 = VECTOR ( 'NONE', #244, 39.37007874015748854 ) ;
#176 = CARTESIAN_POINT ( 'NONE',  ( 7.654042494670957853E-17, 0.0000000000000000000, 0.6250000000000000000 ) ) ;
#177 = FACE_OUTER_BOUND ( 'NONE', #81, .T. ) ;
#178 = ORIENTED_EDGE ( 'NONE', *, *, #186, .T. ) ;
#179 = VERTEX_POINT ( 'NONE', #263 ) ;
#180 = EDGE_CURVE ( 'NONE', #153, #182, #54, .T. ) ;
#181 = CARTESIAN_POINT ( 'NONE',  ( -0.2500000000000000000, 0.0000000000000000000, 2.484999999999999876 ) ) ;
#182 = VERTEX_POINT ( 'NONE', #271 ) ;
#183 = FACE_OUTER_BOUND ( 'NONE', #228, .T. ) ;
#184 = CYLINDRICAL_SURFACE ( 'NONE', #109, 0.2497499999999999998 ) ;
#185 = CARTESIAN_POINT ( 'NONE',  ( 3.745650057197989622E-33, 0.0000000000000000000, 3.058555380870514950E-17 ) ) ;
#186 = EDGE_CURVE ( 'NONE', #289, #272, #166, .T. ) ;
#187 = DIRECTION ( 'NONE',  ( 0.0000000000000000000, 0.0000000000000000000, 1.000000000000000000 ) ) ;
#188 = DIRECTION ( 'NONE',  ( -0.0000000000000000000, -0.0000000000000000000, -1.000000000000000000 ) ) ;
#189 = FACE_OUTER_BOUND ( 'NONE', #127, .T. ) ;
#190 = DIRECTION ( 'NONE',  ( -0.0000000000000000000, -0.0000000000000000000, -1.000000000000000000 ) ) ;
#191 = PLANE ( 'NONE',  #279 ) ;
#192 = DIRECTION ( 'NONE',  ( -1.000000000000000000, 0.0000000000000000000, 1.224646799147353454E-16 ) ) ;
#193 = AXIS2_PLACEMENT_3D ( 'NONE', #236, #44, #210 ) ;
#194 = AXIS2_PLACEMENT_3D ( 'NONE', #97, #27, #160 ) ;
#195 = FACE_OUTER_BOUND ( 'NONE', #12, .T. ) ;
#196 = ORIENTED_EDGE ( 'NONE', *, *, #30, .T. ) ;
#197 = AXIS2_PLACEMENT_3D ( 'NONE', #38, #88, #275 ) ;
#198 = ORIENTED_EDGE ( 'NONE', *, *, #41, .T. ) ;
#199 = DIRECTION ( 'NONE',  ( 0.0000000000000000000, 0.0000000000000000000, 1.000000000000000000 ) ) ;
#200 = LINE ( 'NONE', #229, #175 ) ;
#201 = COLOUR_RGB ( '',0.7921568627450980005, 0.8196078431372548767, 0.9333333333333333481 ) ;
#202 = PLANE ( 'NONE',  #193 ) ;
#203 = VERTEX_POINT ( 'NONE', #63 ) ;
#204 = CYLINDRICAL_SURFACE ( 'NONE', #83, 0.2497499999999999998 ) ;
#205 = CIRCLE ( 'NONE', #15, 0.2497499999999999998 ) ;
#206 =( NAMED_UNIT ( * ) SI_UNIT ( $, .STERADIAN. ) SOLID_ANGLE_UNIT ( ) );
#207 = AXIS2_PLACEMENT_3D ( 'NONE', #66, #23, #150 ) ;
#208 = SURFACE_STYLE_FILL_AREA ( #161 ) ;
#209 = DIRECTION ( 'NONE',  ( -1.224646799147353207E-16, -0.0000000000000000000, -1.000000000000000000 ) ) ;
#210 = DIRECTION ( 'NONE',  ( 1.000000000000000000, 0.0000000000000000000, -0.0000000000000000000 ) ) ;
#211 = FILL_AREA_STYLE_COLOUR ( '', #201 ) ;
#212 = LINE ( 'NONE', #134, #92 ) ;
#213 = AXIS2_PLACEMENT_3D ( 'NONE', #167, #188, #284 ) ;
#214 =( LENGTH_UNIT ( ) NAMED_UNIT ( * ) SI_UNIT ( $, .METRE. ) );
#215 =( CONVERSION_BASED_UNIT ( 'INCH', #120 ) LENGTH_UNIT ( ) NAMED_UNIT ( #6 ) );
#216 = APPLICATION_PROTOCOL_DEFINITION ( 'draft international standard', 'automotive_design', 1998, #249 ) ;
#217 = AXIS2_PLACEMENT_3D ( 'NONE', #94, #283, #241 ) ;
#218 = SURFACE_STYLE_FILL_AREA ( #281 ) ;
#219 = APPLICATION_PROTOCOL_DEFINITION ( 'draft international standard', 'automotive_design', 1998, #266 ) ;
#220 = AXIS2_PLACEMENT_3D ( 'NONE', #298, #95, #233 ) ;
#221 = ORIENTED_EDGE ( 'NONE', *, *, #90, .T. ) ;
#222 = LINE ( 'NONE', #226, #60 ) ;
#223 = DIRECTION ( 'NONE',  ( 1.000000000000000000, 0.0000000000000000000, 0.0000000000000000000 ) ) ;
#224 = EDGE_LOOP ( 'NONE', ( #246, #198, #33, #59 ) ) ;
#225 = CIRCLE ( 'NONE', #220, 0.2350000000000003753 ) ;
#226 = CARTESIAN_POINT ( 'NONE',  ( -0.2497499999999999998, 0.0000000000000000000, 3.058555380870514950E-17 ) ) ;
#227 = EDGE_CURVE ( 'NONE', #129, #203, #3, .T. ) ;
#228 = EDGE_LOOP ( 'NONE', ( #265, #261, #56, #34 ) ) ;
#229 = CARTESIAN_POINT ( 'NONE',  ( -0.2350000000000003753, 0.0000000000000000000, 2.500000000000000000 ) ) ;
#230 = DIRECTION ( 'NONE',  ( 1.224646799147353207E-16, 0.0000000000000000000, 1.000000000000000000 ) ) ;
#231 = CARTESIAN_POINT ( 'NONE',  ( 0.2500000000000000555, 3.061616997868383634E-17, 0.6264178204549043505 ) ) ;
#232 =( LENGTH_UNIT ( ) NAMED_UNIT ( * ) SI_UNIT ( $, .METRE. ) );
#233 = DIRECTION ( 'NONE',  ( 1.000000000000000000, 0.0000000000000000000, 0.0000000000000000000 ) ) ;
#234 = ADVANCED_BREP_SHAPE_REPRESENTATION ( 'Micro_SEM-500-03', ( #158, #159 ), #8 ) ;
#235 =( CONVERSION_BASED_UNIT ( 'INCH', #141 ) LENGTH_UNIT ( ) NAMED_UNIT ( #264 ) );
#236 = CARTESIAN_POINT ( 'NONE',  ( 0.0000000000000000000, 0.0000000000000000000, 0.0000000000000000000 ) ) ;
#237 =( NAMED_UNIT ( * ) PLANE_ANGLE_UNIT ( ) SI_UNIT ( $, .RADIAN. ) );
#238 = VECTOR ( 'NONE', #111, 39.37007874015748854 ) ;
#239 = EDGE_CURVE ( 'NONE', #131, #179, #143, .T. ) ;
#240 = ORIENTED_EDGE ( 'NONE', *, *, #174, .F. ) ;
#241 = DIRECTION ( 'NONE',  ( 1.000000000000000000, 0.0000000000000000000, 0.0000000000000000000 ) ) ;
#242 = EDGE_CURVE ( 'NONE', #179, #129, #247, .T. ) ;
#243 = AXIS2_PLACEMENT_3D ( 'NONE', #72, #282, #76 ) ;
#244 = DIRECTION ( 'NONE',  ( -0.7071067811865330288, 0.0000000000000000000, -0.7071067811865618946 ) ) ;
#245 = ORIENTED_EDGE ( 'NONE', *, *, #251, .F. ) ;
#246 = ORIENTED_EDGE ( 'NONE', *, *, #239, .F. ) ;
#247 = LINE ( 'NONE', #17, #93 ) ;
#248 = DIRECTION ( 'NONE',  ( -1.000000000000000000, 0.0000000000000000000, 1.224646799147353454E-16 ) ) ;
#249 = APPLICATION_CONTEXT ( 'automotive_design' ) ;
#250 = VERTEX_POINT ( 'NONE', #181 ) ;
#251 = EDGE_CURVE ( 'NONE', #272, #289, #115, .T. ) ;
#252 = DIRECTION ( 'NONE',  ( -1.000000000000000000, 0.0000000000000000000, 0.0000000000000000000 ) ) ;
#253 = EDGE_CURVE ( 'NONE', #203, #129, #61, .T. ) ;
#254 = AXIS2_PLACEMENT_3D ( 'NONE', #45, #71, #156 ) ;
#255 = LINE ( 'NONE', #276, #268 ) ;
#256 = CARTESIAN_POINT ( 'NONE',  ( 0.2500000000000000000, 3.061616997868383018E-17, 2.484999999999999876 ) ) ;
#257 = CARTESIAN_POINT ( 'NONE',  ( 0.2500000000000000000, 3.061616997868383018E-17, 2.500000000000000000 ) ) ;
#258 = FILL_AREA_STYLE_COLOUR ( '', #96 ) ;
#259 = MECHANICAL_DESIGN_GEOMETRIC_PRESENTATION_REPRESENTATION (  '', ( #262 ), #102 ) ;
#260 =( GEOMETRIC_REPRESENTATION_CONTEXT ( 3 ) GLOBAL_UNCERTAINTY_ASSIGNED_CONTEXT ( ( #169 ) ) GLOBAL_UNIT_ASSIGNED_CONTEXT ( ( #215, #73, #75 ) ) REPRESENTATION_CONTEXT ( 'NONE', 'WORKASPACE' ) );
#261 = ORIENTED_EDGE ( 'NONE', *, *, #174, .T. ) ;
#262 = STYLED_ITEM ( 'NONE', ( #140 ), #158 ) ;
#263 = CARTESIAN_POINT ( 'NONE',  ( 0.2497500000000000830, 0.0000000000000000000, 0.6250000000000000000 ) ) ;
#264 = DIMENSIONAL_EXPONENTS ( 1.000000000000000000, 0.0000000000000000000, 0.0000000000000000000, 0.0000000000000000000, 0.0000000000000000000, 0.0000000000000000000, 0.0000000000000000000 ) ;
#265 = ORIENTED_EDGE ( 'NONE', *, *, #292, .F. ) ;
#266 = APPLICATION_CONTEXT ( 'automotive_design' ) ;
#267 = ORIENTED_EDGE ( 'NONE', *, *, #180, .T. ) ;
#268 = VECTOR ( 'NONE', #136, 39.37007874015748143 ) ;
#269 = CARTESIAN_POINT ( 'NONE',  ( 0.2350000000000003753, 2.877919977996284141E-17, 2.500000000000000000 ) ) ;
#270 = ORIENTED_EDGE ( 'NONE', *, *, #227, .T. ) ;
#271 = CARTESIAN_POINT ( 'NONE',  ( 0.2350000000000003753, 2.969768487932332963E-17, 2.500000000000000000 ) ) ;
#272 = VERTEX_POINT ( 'NONE', #139 ) ;
#273 = AXIS2_PLACEMENT_3D ( 'NONE', #1, #157, #252 ) ;
#274 = DIRECTION ( 'NONE',  ( -1.224646799147353207E-16, -0.0000000000000000000, -1.000000000000000000 ) ) ;
#275 = DIRECTION ( 'NONE',  ( -1.000000000000000000, 0.0000000000000000000, 0.0000000000000000000 ) ) ;
#276 = CARTESIAN_POINT ( 'NONE',  ( 0.2497499999999999998, 3.058555380870514950E-17, -3.058555380870514950E-17 ) ) ;
#277 = DIRECTION ( 'NONE',  ( -1.000000000000000000, 0.0000000000000000000, 1.224646799147353454E-16 ) ) ;
#278 = FACE_OUTER_BOUND ( 'NONE', #43, .T. ) ;
#279 = AXIS2_PLACEMENT_3D ( 'NONE', #46, #187, #280 ) ;
#280 = DIRECTION ( 'NONE',  ( 1.000000000000000000, 0.0000000000000000000, -0.0000000000000000000 ) ) ;
#281 = FILL_AREA_STYLE ('',( #211 ) ) ;
#282 = DIRECTION ( 'NONE',  ( 0.0000000000000000000, 0.0000000000000000000, -1.000000000000000000 ) ) ;
#283 = DIRECTION ( 'NONE',  ( 0.0000000000000000000, 0.0000000000000000000, 1.000000000000000000 ) ) ;
#284 = DIRECTION ( 'NONE',  ( -1.000000000000000000, 0.0000000000000000000, 0.0000000000000000000 ) ) ;
#285 = ADVANCED_FACE ( 'NONE', ( #2 ), #77, .T. ) ;
#286 = UNCERTAINTY_MEASURE_WITH_UNIT (LENGTH_MEASURE( 1.000000000000000082E-05 ), #235, 'distance_accuracy_value', 'NONE');
#287 = ORIENTED_EDGE ( 'NONE', *, *, #37, .T. ) ;
#288 = CONICAL_SURFACE ( 'NONE', #40, 0.2497499999999999998, 0.1745329251994339192 ) ;
#289 = VERTEX_POINT ( 'NONE', #25 ) ;
#290 = LINE ( 'NONE', #269, #238 ) ;
#291 = MECHANICAL_DESIGN_GEOMETRIC_PRESENTATION_REPRESENTATION (  '', ( #173 ), #260 ) ;
#292 = EDGE_CURVE ( 'NONE', #296, #129, #31, .T. ) ;
#293 = ORIENTED_EDGE ( 'NONE', *, *, #242, .T. ) ;
#294 = PRODUCT ( 'Micro_SEM-500-03', 'Micro_SEM-500-03', '', ( #123 ) ) ;
#295 = LINE ( 'NONE', #151, #53 ) ;
#296 = VERTEX_POINT ( 'NONE', #256 ) ;
#297 = PRESENTATION_LAYER_ASSIGNMENT (  '', '', ( #173 ) ) ;
#298 = CARTESIAN_POINT ( 'NONE',  ( 0.0000000000000000000, 0.0000000000000000000, 2.500000000000000000 ) ) ;
#299 = ADVANCED_FACE ( 'NONE', ( #195 ), #122, .T. ) ;
ENDSEC;
END-ISO-10303-21;
