ISO-10303-21;
HEADER;
FILE_DESCRIPTION (( 'STEP AP214' ),
    '1' );
FILE_NAME ('83361.STEP',
    '2023-06-30T23:04:25',
    ( '' ),
    ( '' ),
    'SwSTEP 2.0',
    'SolidWorks 2023',
    '' );
FILE_SCHEMA (( 'AUTOMOTIVE_DESIGN' ));
ENDSEC;

DATA;
#1 = DIRECTION ( 'NONE',  ( 0.000000000000000000, 0.000000000000000000, 1.000000000000000000 ) ) ;
#2 = CARTESIAN_POINT ( 'NONE',  ( -1.530808498934191509E-17, 0.1250000000000000000, 0.000000000000000000 ) ) ;
#3 = FACE_OUTER_BOUND ( 'NONE', #239, .T. ) ;
#4 = AXIS2_PLACEMENT_3D ( 'NONE', #37, #323, #181 ) ;
#5 = DIMENSIONAL_EXPONENTS ( 1.000000000000000000, 0.000000000000000000, 0.000000000000000000, 0.000000000000000000, 0.000000000000000000, 0.000000000000000000, 0.000000000000000000 ) ;
#6 = CARTESIAN_POINT ( 'NONE',  ( 1.224646799147352714E-16, 3.000000000000000444, 0.000000000000000000 ) ) ;
#7 = EDGE_LOOP ( 'NONE', ( #100, #50, #69, #272, #249 ) ) ;
#8 = DIRECTION ( 'NONE',  ( 0.000000000000000000, 0.000000000000000000, -1.000000000000000000 ) ) ;
#9 =( CONVERSION_BASED_UNIT ( 'INCH', #147 ) LENGTH_UNIT ( ) NAMED_UNIT ( #118 ) );
#10 = PRESENTATION_STYLE_ASSIGNMENT (( #195 ) ) ;
#11 = PRODUCT_DEFINITION_FORMATION_WITH_SPECIFIED_SOURCE ( 'ANY', '', #180, .NOT_KNOWN. ) ;
#12 = DIRECTION ( 'NONE',  ( 0.000000000000000000, 0.000000000000000000, -1.000000000000000000 ) ) ;
#13 = ORIENTED_EDGE ( 'NONE', *, *, #158, .F. ) ;
#14 = FILL_AREA_STYLE_COLOUR ( '', #341 ) ;
#15 = AXIS2_PLACEMENT_3D ( 'NONE', #259, #1, #344 ) ;
#16 = ORIENTED_EDGE ( 'NONE', *, *, #47, .F. ) ;
#17 = APPLICATION_PROTOCOL_DEFINITION ( 'draft international standard', 'automotive_design', 1998, #247 ) ;
#18 = EDGE_LOOP ( 'NONE', ( #334, #135, #265, #282 ) ) ;
#19 = AXIS2_PLACEMENT_3D ( 'NONE', #2, #113, #226 ) ;
#20 =( CONVERSION_BASED_UNIT ( 'INCH', #187 ) LENGTH_UNIT ( ) NAMED_UNIT ( #373 ) );
#21 = EDGE_LOOP ( 'NONE', ( #211, #200 ) ) ;
#22 = CIRCLE ( 'NONE', #146, 0.1249999999999998335 ) ;
#23 = UNCERTAINTY_MEASURE_WITH_UNIT (LENGTH_MEASURE( 1.000000000000000082E-05 ), #309, 'distance_accuracy_value', 'NONE');
#24 = SURFACE_STYLE_FILL_AREA ( #251 ) ;
#25 = AXIS2_PLACEMENT_3D ( 'NONE', #62, #8, #232 ) ;
#26 = PLANE ( 'NONE',  #32 ) ;
#27 = CLOSED_SHELL ( 'NONE', ( #91, #108, #222, #40 ) ) ;
#28 = DIRECTION ( 'NONE',  ( -0.000000000000000000, -1.000000000000000000, -0.000000000000000000 ) ) ;
#29 = AXIS2_PLACEMENT_3D ( 'NONE', #294, #324, #44 ) ;
#30 = SURFACE_SIDE_STYLE ('',( #356 ) ) ;
#31 = DIRECTION ( 'NONE',  ( 1.000000000000000000, 0.000000000000000000, 0.000000000000000000 ) ) ;
#32 = AXIS2_PLACEMENT_3D ( 'NONE', #339, #193, #338 ) ;
#33 = DIRECTION ( 'NONE',  ( -1.000000000000000000, 0.000000000000000000, 0.000000000000000000 ) ) ;
#34 = SURFACE_SIDE_STYLE ('',( #276 ) ) ;
#35 = DIMENSIONAL_EXPONENTS ( 1.000000000000000000, 0.000000000000000000, 0.000000000000000000, 0.000000000000000000, 0.000000000000000000, 0.000000000000000000, 0.000000000000000000 ) ;
#36 = SURFACE_STYLE_USAGE ( .BOTH. , #266 ) ;
#37 = CARTESIAN_POINT ( 'NONE',  ( 2.908536147974963713E-16, 1.500000000000000222, 0.000000000000000000 ) ) ;
#38 = PRESENTATION_LAYER_ASSIGNMENT (  '', '', ( #154 ) ) ;
#39 = CARTESIAN_POINT ( 'NONE',  ( 2.908536147974963713E-16, 1.500000000000000222, 0.000000000000000000 ) ) ;
#40 = ADVANCED_FACE ( 'NONE', ( #361 ), #210, .F. ) ;
#41 =( NAMED_UNIT ( * ) PLANE_ANGLE_UNIT ( ) SI_UNIT ( $, .RADIAN. ) );
#42 = STYLED_ITEM ( 'NONE', ( #51 ), #165 ) ;
#43 = VERTEX_POINT ( 'NONE', #332 ) ;
#44 = DIRECTION ( 'NONE',  ( 0.000000000000000000, 0.000000000000000000, -1.000000000000000000 ) ) ;
#45 = FILL_AREA_STYLE ('',( #326 ) ) ;
#46 = VERTEX_POINT ( 'NONE', #70 ) ;
#47 = EDGE_CURVE ( 'NONE', #46, #186, #94, .T. ) ;
#48 =( NAMED_UNIT ( * ) PLANE_ANGLE_UNIT ( ) SI_UNIT ( $, .RADIAN. ) );
#49 = ORIENTED_EDGE ( 'NONE', *, *, #102, .T. ) ;
#50 = ORIENTED_EDGE ( 'NONE', *, *, #47, .T. ) ;
#51 = PRESENTATION_STYLE_ASSIGNMENT (( #105 ) ) ;
#52 = ORIENTED_EDGE ( 'NONE', *, *, #167, .F. ) ;
#53 = FILL_AREA_STYLE ('',( #74 ) ) ;
#54 =( CONVERSION_BASED_UNIT ( 'INCH', #250 ) LENGTH_UNIT ( ) NAMED_UNIT ( #262 ) );
#55 =( NAMED_UNIT ( * ) SI_UNIT ( $, .STERADIAN. ) SOLID_ANGLE_UNIT ( ) );
#56 = DIMENSIONAL_EXPONENTS ( 1.000000000000000000, 0.000000000000000000, 0.000000000000000000, 0.000000000000000000, 0.000000000000000000, 0.000000000000000000, 0.000000000000000000 ) ;
#57 = COLOUR_RGB ( '',1.000000000000000000, 0.000000000000000000, 0.000000000000000000 ) ;
#58 = SURFACE_SIDE_STYLE ('',( #240 ) ) ;
#59 =( LENGTH_UNIT ( ) NAMED_UNIT ( * ) SI_UNIT ( $, .METRE. ) );
#60 = CIRCLE ( 'NONE', #337, 0.1249999999999999584 ) ;
#61 = EDGE_CURVE ( 'NONE', #144, #357, #336, .T. ) ;
#62 = CARTESIAN_POINT ( 'NONE',  ( -1.530808498934191509E-17, 0.1250000000000000000, 0.000000000000000000 ) ) ;
#63 = STYLED_ITEM ( 'NONE', ( #223 ), #120 ) ;
#64 =( LENGTH_UNIT ( ) NAMED_UNIT ( * ) SI_UNIT ( $, .METRE. ) );
#65 = SURFACE_STYLE_USAGE ( .BOTH. , #34 ) ;
#66 = CARTESIAN_POINT ( 'NONE',  ( 1.530808498934190276E-17, 0.000000000000000000, 0.1249999999999999029 ) ) ;
#67 =( LENGTH_UNIT ( ) NAMED_UNIT ( * ) SI_UNIT ( $, .METRE. ) );
#68 = CIRCLE ( 'NONE', #188, 0.1249999999999998335 ) ;
#69 = ORIENTED_EDGE ( 'NONE', *, *, #234, .F. ) ;
#70 = CARTESIAN_POINT ( 'NONE',  ( 1.530808498934189660E-17, 1.500000000000000222, 0.1249999999999998335 ) ) ;
#71 = VERTEX_POINT ( 'NONE', #162 ) ;
#72 = CARTESIAN_POINT ( 'NONE',  ( -0.1249999999999995004, 3.000000000000000444, 0.000000000000000000 ) ) ;
#73 = CIRCLE ( 'NONE', #292, 0.1249999999999997086 ) ;
#74 = FILL_AREA_STYLE_COLOUR ( '', #277 ) ;
#75 = MECHANICAL_DESIGN_GEOMETRIC_PRESENTATION_REPRESENTATION (  '', ( #325 ), #218 ) ;
#76 = EDGE_CURVE ( 'NONE', #184, #46, #22, .T. ) ;
#77 =( LENGTH_UNIT ( ) NAMED_UNIT ( * ) SI_UNIT ( $, .METRE. ) );
#78 = PRODUCT_RELATED_PRODUCT_CATEGORY ( 'part', '', ( #180 ) ) ;
#79 = AXIS2_PLACEMENT_3D ( 'NONE', #176, #152, #123 ) ;
#80 = DIRECTION ( 'NONE',  ( 0.000000000000000000, 0.000000000000000000, -1.000000000000000000 ) ) ;
#81 = CARTESIAN_POINT ( 'NONE',  ( 0.000000000000000000, 1.500000000000000222, 0.000000000000000000 ) ) ;
#82 = CLOSED_SHELL ( 'NONE', ( #120, #134, #165, #306, #142 ) ) ;
#83 = PRESENTATION_LAYER_ASSIGNMENT (  '', '', ( #325 ) ) ;
#84 = CARTESIAN_POINT ( 'NONE',  ( 0.1249999999999998335, 1.500000000000000222, 1.530808498934187195E-17 ) ) ;
#85 = FACE_OUTER_BOUND ( 'NONE', #300, .T. ) ;
#86 = DIRECTION ( 'NONE',  ( 0.000000000000000000, 0.000000000000000000, 1.000000000000000000 ) ) ;
#87 = CIRCLE ( 'NONE', #29, 0.1249999999999999584 ) ;
#88 = DIRECTION ( 'NONE',  ( -1.122592899218407497E-16, 1.000000000000000000, -0.000000000000000000 ) ) ;
#89 = FILL_AREA_STYLE ('',( #350 ) ) ;
#90 = FILL_AREA_STYLE ('',( #14 ) ) ;
#91 = ADVANCED_FACE ( 'NONE', ( #207 ), #133, .T. ) ;
#92 = CIRCLE ( 'NONE', #25, 0.1250000000000000000 ) ;
#93 = VECTOR ( 'NONE', #185, 39.37007874015748143 ) ;
#94 = LINE ( 'NONE', #66, #106 ) ;
#95 = FACE_OUTER_BOUND ( 'NONE', #99, .T. ) ;
#96 = DIRECTION ( 'NONE',  ( 1.122592899218407497E-16, -1.000000000000000000, 0.000000000000000000 ) ) ;
#97 = FILL_AREA_STYLE_COLOUR ( '', #192 ) ;
#98 = PRESENTATION_LAYER_ASSIGNMENT (  '', '', ( #42 ) ) ;
#99 = EDGE_LOOP ( 'NONE', ( #155, #354, #308, #127 ) ) ;
#100 = ORIENTED_EDGE ( 'NONE', *, *, #76, .T. ) ;
#101 = VERTEX_POINT ( 'NONE', #371 ) ;
#102 = EDGE_CURVE ( 'NONE', #184, #278, #286, .T. ) ;
#103 = FILL_AREA_STYLE_COLOUR ( '', #359 ) ;
#104 = CIRCLE ( 'NONE', #111, 0.1249999999999999584 ) ;
#105 = SURFACE_STYLE_USAGE ( .BOTH. , #213 ) ;
#106 = VECTOR ( 'NONE', #215, 39.37007874015748143 ) ;
#107 = COLOUR_RGB ( '',1.000000000000000000, 0.000000000000000000, 0.000000000000000000 ) ;
#108 = ADVANCED_FACE ( 'NONE', ( #372 ), #26, .F. ) ;
#109 = PRESENTATION_STYLE_ASSIGNMENT (( #288 ) ) ;
#110 = APPLICATION_CONTEXT ( 'automotive_design' ) ;
#111 = AXIS2_PLACEMENT_3D ( 'NONE', #291, #328, #174 ) ;
#112 = CARTESIAN_POINT ( 'NONE',  ( -0.1250000000000000000, 0.1250000000000000278, 1.530808498934191201E-17 ) ) ;
#113 = DIRECTION ( 'NONE',  ( 1.224646799147353207E-16, -0.000000000000000000, 1.000000000000000000 ) ) ;
#114 = SPHERICAL_SURFACE ( 'NONE', #261, 0.1250000000000000000 ) ;
#115 = MANIFOLD_SOLID_BREP ( 'Revolve - Cutting Edge', #82 ) ;
#116 = PLANE ( 'NONE',  #191 ) ;
#117 =( GEOMETRIC_REPRESENTATION_CONTEXT ( 3 ) GLOBAL_UNCERTAINTY_ASSIGNED_CONTEXT ( ( #307 ) ) GLOBAL_UNIT_ASSIGNED_CONTEXT ( ( #9, #41, #264 ) ) REPRESENTATION_CONTEXT ( 'NONE', 'WORKASPACE' ) );
#118 = DIMENSIONAL_EXPONENTS ( 1.000000000000000000, 0.000000000000000000, 0.000000000000000000, 0.000000000000000000, 0.000000000000000000, 0.000000000000000000, 0.000000000000000000 ) ;
#119 = DIRECTION ( 'NONE',  ( -1.122592899218407497E-16, 1.000000000000000000, -0.000000000000000000 ) ) ;
#120 = ADVANCED_FACE ( 'NONE', ( #316 ), #315, .T. ) ;
#121 = DIRECTION ( 'NONE',  ( 0.000000000000000000, 0.000000000000000000, -1.000000000000000000 ) ) ;
#122 = VERTEX_POINT ( 'NONE', #112 ) ;
#123 = DIRECTION ( 'NONE',  ( 0.000000000000000000, 0.000000000000000000, -1.000000000000000000 ) ) ;
#124 = ORIENTED_EDGE ( 'NONE', *, *, #284, .F. ) ;
#125 = LINE ( 'NONE', #355, #258 ) ;
#126 = PRODUCT_DEFINITION_SHAPE ( 'NONE', 'NONE',  #267 ) ;
#127 = ORIENTED_EDGE ( 'NONE', *, *, #273, .T. ) ;
#128 = CARTESIAN_POINT ( 'NONE',  ( 0.000000000000000000, 0.000000000000000000, 0.000000000000000000 ) ) ;
#129 =( NAMED_UNIT ( * ) SI_UNIT ( $, .STERADIAN. ) SOLID_ANGLE_UNIT ( ) );
#130 = UNCERTAINTY_MEASURE_WITH_UNIT (LENGTH_MEASURE( 1.000000000000000082E-05 ), #228, 'distance_accuracy_value', 'NONE');
#131 = VERTEX_POINT ( 'NONE', #84 ) ;
#132 =( LENGTH_UNIT ( ) NAMED_UNIT ( * ) SI_UNIT ( $, .METRE. ) );
#133 = CYLINDRICAL_SURFACE ( 'NONE', #295, 0.1249999999999996253 ) ;
#134 = ADVANCED_FACE ( 'NONE', ( #168 ), #178, .T. ) ;
#135 = ORIENTED_EDGE ( 'NONE', *, *, #366, .T. ) ;
#136 = PRESENTATION_LAYER_ASSIGNMENT (  '', '', ( #63 ) ) ;
#137 =( NAMED_UNIT ( * ) SI_UNIT ( $, .STERADIAN. ) SOLID_ANGLE_UNIT ( ) );
#138 = CIRCLE ( 'NONE', #19, 0.1250000000000000000 ) ;
#139 =( CONVERSION_BASED_UNIT ( 'INCH', #290 ) LENGTH_UNIT ( ) NAMED_UNIT ( #56 ) );
#140 = CARTESIAN_POINT ( 'NONE',  ( 1.530808498934190893E-17, 0.1250000000000000278, 0.1249999999999999445 ) ) ;
#141 = CARTESIAN_POINT ( 'NONE',  ( -0.1249999999999992506, 1.500000000000000222, 0.000000000000000000 ) ) ;
#142 = ADVANCED_FACE ( 'NONE', ( #95 ), #114, .T. ) ;
#143 = PRESENTATION_STYLE_ASSIGNMENT (( #36 ) ) ;
#144 = VERTEX_POINT ( 'NONE', #141 ) ;
#145 = CYLINDRICAL_SURFACE ( 'NONE', #79, 0.1249999999999999029 ) ;
#146 = AXIS2_PLACEMENT_3D ( 'NONE', #302, #157, #12 ) ;
#147 = LENGTH_MEASURE_WITH_UNIT ( LENGTH_MEASURE( 0.02539999999999999897 ), #64 );
#148 = CARTESIAN_POINT ( 'NONE',  ( -0.1249999999999995837, 3.000000000000000444, 0.000000000000000000 ) ) ;
#149 = DIRECTION ( 'NONE',  ( 0.000000000000000000, 0.000000000000000000, -1.000000000000000000 ) ) ;
#150 = PRESENTATION_LAYER_ASSIGNMENT (  '', '', ( #159 ) ) ;
#151 = ORIENTED_EDGE ( 'NONE', *, *, #61, .T. ) ;
#152 = DIRECTION ( 'NONE',  ( -0.000000000000000000, -1.000000000000000000, -0.000000000000000000 ) ) ;
#153 =( NAMED_UNIT ( * ) PLANE_ANGLE_UNIT ( ) SI_UNIT ( $, .RADIAN. ) );
#154 = STYLED_ITEM ( 'NONE', ( #206 ), #142 ) ;
#155 = ORIENTED_EDGE ( 'NONE', *, *, #209, .F. ) ;
#156 = PRODUCT_CONTEXT ( 'NONE', #110, 'mechanical' ) ;
#157 = DIRECTION ( 'NONE',  ( -0.000000000000000000, -1.000000000000000000, -0.000000000000000000 ) ) ;
#158 = EDGE_CURVE ( 'NONE', #43, #357, #73, .T. ) ;
#159 = STYLED_ITEM ( 'NONE', ( #352 ), #368 ) ;
#160 = EDGE_LOOP ( 'NONE', ( #16, #364, #49, #124, #52 ) ) ;
#161 = UNCERTAINTY_MEASURE_WITH_UNIT (LENGTH_MEASURE( 1.000000000000000082E-05 ), #217, 'distance_accuracy_value', 'NONE');
#162 = CARTESIAN_POINT ( 'NONE',  ( -7.654042494670957545E-18, 0.000000000000000000, 0.000000000000000000 ) ) ;
#163 = MECHANICAL_DESIGN_GEOMETRIC_PRESENTATION_REPRESENTATION (  '', ( #172 ), #203 ) ;
#164 = APPLICATION_PROTOCOL_DEFINITION ( 'draft international standard', 'automotive_design', 1998, #110 ) ;
#165 = ADVANCED_FACE ( 'NONE', ( #3 ), #116, .T. ) ;
#166 =( CONVERSION_BASED_UNIT ( 'INCH', #216 ) LENGTH_UNIT ( ) NAMED_UNIT ( #35 ) );
#167 = EDGE_CURVE ( 'NONE', #186, #122, #208, .T. ) ;
#168 = FACE_OUTER_BOUND ( 'NONE', #7, .T. ) ;
#169 = AXIS2_PLACEMENT_3D ( 'NONE', #128, #212, #301 ) ;
#170 =( NAMED_UNIT ( * ) SI_UNIT ( $, .STERADIAN. ) SOLID_ANGLE_UNIT ( ) );
#171 = DIRECTION ( 'NONE',  ( 0.000000000000000000, -0.000000000000000000, 1.000000000000000000 ) ) ;
#172 = STYLED_ITEM ( 'NONE', ( #109 ), #115 ) ;
#173 = EDGE_CURVE ( 'NONE', #46, #184, #68, .T. ) ;
#174 = DIRECTION ( 'NONE',  ( 0.000000000000000000, 0.000000000000000000, -1.000000000000000000 ) ) ;
#175 = MECHANICAL_DESIGN_GEOMETRIC_PRESENTATION_REPRESENTATION (  '', ( #331 ), #117 ) ;
#176 = CARTESIAN_POINT ( 'NONE',  ( 0.000000000000000000, 0.000000000000000000, 0.000000000000000000 ) ) ;
#177 = ORIENTED_EDGE ( 'NONE', *, *, #234, .T. ) ;
#178 = CYLINDRICAL_SURFACE ( 'NONE', #321, 0.1249999999999999029 ) ;
#179 = CARTESIAN_POINT ( 'NONE',  ( 1.224646799147352714E-16, 3.000000000000000444, 0.000000000000000000 ) ) ;
#180 = PRODUCT ( '83361', '83361', '', ( #156 ) ) ;
#181 = DIRECTION ( 'NONE',  ( -1.000000000000000000, 0.000000000000000000, 0.000000000000000000 ) ) ;
#182 = AXIS2_PLACEMENT_3D ( 'NONE', #318, #88, #33 ) ;
#183 = LENGTH_MEASURE_WITH_UNIT ( LENGTH_MEASURE( 0.02539999999999999897 ), #67 );
#184 = VERTEX_POINT ( 'NONE', #343 ) ;
#185 = DIRECTION ( 'NONE',  ( -1.122592899218407497E-16, 1.000000000000000000, -0.000000000000000000 ) ) ;
#186 = VERTEX_POINT ( 'NONE', #140 ) ;
#187 = LENGTH_MEASURE_WITH_UNIT ( LENGTH_MEASURE( 0.02539999999999999897 ), #132 );
#188 = AXIS2_PLACEMENT_3D ( 'NONE', #196, #220, #80 ) ;
#189 = ORIENTED_EDGE ( 'NONE', *, *, #273, .F. ) ;
#190 = SURFACE_STYLE_USAGE ( .BOTH. , #253 ) ;
#191 = AXIS2_PLACEMENT_3D ( 'NONE', #81, #260, #171 ) ;
#192 = COLOUR_RGB ( '',1.000000000000000000, 0.000000000000000000, 0.000000000000000000 ) ;
#193 = DIRECTION ( 'NONE',  ( -1.122592899218407497E-16, 1.000000000000000000, 0.000000000000000000 ) ) ;
#194 = CYLINDRICAL_SURFACE ( 'NONE', #182, 0.1249999999999996253 ) ;
#195 = SURFACE_STYLE_USAGE ( .BOTH. , #30 ) ;
#196 = CARTESIAN_POINT ( 'NONE',  ( 0.000000000000000000, 1.500000000000000222, 0.000000000000000000 ) ) ;
#197 = SURFACE_STYLE_FILL_AREA ( #89 ) ;
#198 = DIMENSIONAL_EXPONENTS ( 1.000000000000000000, 0.000000000000000000, 0.000000000000000000, 0.000000000000000000, 0.000000000000000000, 0.000000000000000000, 0.000000000000000000 ) ;
#199 = SURFACE_STYLE_FILL_AREA ( #90 ) ;
#200 = ORIENTED_EDGE ( 'NONE', *, *, #243, .F. ) ;
#201 = FILL_AREA_STYLE ('',( #274 ) ) ;
#202 = UNCERTAINTY_MEASURE_WITH_UNIT (LENGTH_MEASURE( 1.000000000000000082E-05 ), #54, 'distance_accuracy_value', 'NONE');
#203 =( GEOMETRIC_REPRESENTATION_CONTEXT ( 3 ) GLOBAL_UNCERTAINTY_ASSIGNED_CONTEXT ( ( #161 ) ) GLOBAL_UNIT_ASSIGNED_CONTEXT ( ( #217, #340, #55 ) ) REPRESENTATION_CONTEXT ( 'NONE', 'WORKASPACE' ) );
#204 = ORIENTED_EDGE ( 'NONE', *, *, #173, .F. ) ;
#205 = DIRECTION ( 'NONE',  ( -1.000000000000000000, 0.000000000000000000, 0.000000000000000000 ) ) ;
#206 = PRESENTATION_STYLE_ASSIGNMENT (( #65 ) ) ;
#207 = FACE_OUTER_BOUND ( 'NONE', #18, .T. ) ;
#208 = CIRCLE ( 'NONE', #230, 0.1249999999999999584 ) ;
#209 = EDGE_CURVE ( 'NONE', #122, #71, #138, .T. ) ;
#210 = PLANE ( 'NONE',  #275 ) ;
#211 = ORIENTED_EDGE ( 'NONE', *, *, #293, .F. ) ;
#212 = DIRECTION ( 'NONE',  ( 0.000000000000000000, 0.000000000000000000, 1.000000000000000000 ) ) ;
#213 = SURFACE_SIDE_STYLE ('',( #197 ) ) ;
#214 = PRODUCT_DEFINITION_CONTEXT ( 'detailed design', #247, 'design' ) ;
#215 = DIRECTION ( 'NONE',  ( -0.000000000000000000, -1.000000000000000000, -0.000000000000000000 ) ) ;
#216 = LENGTH_MEASURE_WITH_UNIT ( LENGTH_MEASURE( 0.02539999999999999897 ), #313 );
#217 =( CONVERSION_BASED_UNIT ( 'INCH', #219 ) LENGTH_UNIT ( ) NAMED_UNIT ( #5 ) );
#218 =( GEOMETRIC_REPRESENTATION_CONTEXT ( 3 ) GLOBAL_UNCERTAINTY_ASSIGNED_CONTEXT ( ( #333 ) ) GLOBAL_UNIT_ASSIGNED_CONTEXT ( ( #139, #362, #170 ) ) REPRESENTATION_CONTEXT ( 'NONE', 'WORKASPACE' ) );
#219 = LENGTH_MEASURE_WITH_UNIT ( LENGTH_MEASURE( 0.02539999999999999897 ), #77 );
#220 = DIRECTION ( 'NONE',  ( -0.000000000000000000, -1.000000000000000000, -0.000000000000000000 ) ) ;
#221 = CIRCLE ( 'NONE', #353, 0.1249999999999997086 ) ;
#222 = ADVANCED_FACE ( 'NONE', ( #85 ), #194, .T. ) ;
#223 = PRESENTATION_STYLE_ASSIGNMENT (( #190 ) ) ;
#224 = CARTESIAN_POINT ( 'NONE',  ( 0.000000000000000000, 0.000000000000000000, -0.1249999999999999029 ) ) ;
#225 = PRESENTATION_LAYER_ASSIGNMENT (  '', '', ( #172 ) ) ;
#226 = DIRECTION ( 'NONE',  ( 1.000000000000000000, 0.000000000000000000, -1.224646799147353207E-16 ) ) ;
#227 = DIMENSIONAL_EXPONENTS ( 1.000000000000000000, 0.000000000000000000, 0.000000000000000000, 0.000000000000000000, 0.000000000000000000, 0.000000000000000000, 0.000000000000000000 ) ;
#228 =( CONVERSION_BASED_UNIT ( 'INCH', #183 ) LENGTH_UNIT ( ) NAMED_UNIT ( #198 ) );
#229 = CARTESIAN_POINT ( 'NONE',  ( 0.000000000000000000, 0.1250000000000000278, 0.000000000000000000 ) ) ;
#230 = AXIS2_PLACEMENT_3D ( 'NONE', #346, #320, #257 ) ;
#231 =( GEOMETRIC_REPRESENTATION_CONTEXT ( 3 ) GLOBAL_UNCERTAINTY_ASSIGNED_CONTEXT ( ( #130 ) ) GLOBAL_UNIT_ASSIGNED_CONTEXT ( ( #228, #153, #129 ) ) REPRESENTATION_CONTEXT ( 'NONE', 'WORKASPACE' ) );
#232 = DIRECTION ( 'NONE',  ( -1.000000000000000000, 0.000000000000000000, 0.000000000000000000 ) ) ;
#233 = DIRECTION ( 'NONE',  ( -1.000000000000000000, 0.000000000000000000, 0.000000000000000000 ) ) ;
#234 = EDGE_CURVE ( 'NONE', #101, #186, #60, .T. ) ;
#235 = ORIENTED_EDGE ( 'NONE', *, *, #209, .T. ) ;
#236 =( GEOMETRIC_REPRESENTATION_CONTEXT ( 3 ) GLOBAL_UNCERTAINTY_ASSIGNED_CONTEXT ( ( #363 ) ) GLOBAL_UNIT_ASSIGNED_CONTEXT ( ( #20, #287, #285 ) ) REPRESENTATION_CONTEXT ( 'NONE', 'WORKASPACE' ) );
#237 = FACE_OUTER_BOUND ( 'NONE', #160, .T. ) ;
#238 =( LENGTH_UNIT ( ) NAMED_UNIT ( * ) SI_UNIT ( $, .METRE. ) );
#239 = EDGE_LOOP ( 'NONE', ( #246, #204 ) ) ;
#240 = SURFACE_STYLE_FILL_AREA ( #201 ) ;
#241 = UNCERTAINTY_MEASURE_WITH_UNIT (LENGTH_MEASURE( 1.000000000000000082E-05 ), #166, 'distance_accuracy_value', 'NONE');
#242 = ORIENTED_EDGE ( 'NONE', *, *, #366, .F. ) ;
#243 = EDGE_CURVE ( 'NONE', #131, #144, #349, .T. ) ;
#244 = ORIENTED_EDGE ( 'NONE', *, *, #243, .T. ) ;
#245 =( GEOMETRIC_REPRESENTATION_CONTEXT ( 3 ) GLOBAL_UNCERTAINTY_ASSIGNED_CONTEXT ( ( #202 ) ) GLOBAL_UNIT_ASSIGNED_CONTEXT ( ( #54, #280, #305 ) ) REPRESENTATION_CONTEXT ( 'NONE', 'WORKASPACE' ) );
#246 = ORIENTED_EDGE ( 'NONE', *, *, #76, .F. ) ;
#247 = APPLICATION_CONTEXT ( 'automotive_design' ) ;
#248 = MECHANICAL_DESIGN_GEOMETRIC_PRESENTATION_REPRESENTATION (  '', ( #154 ), #231 ) ;
#249 = ORIENTED_EDGE ( 'NONE', *, *, #102, .F. ) ;
#250 = LENGTH_MEASURE_WITH_UNIT ( LENGTH_MEASURE( 0.02539999999999999897 ), #312 );
#251 = FILL_AREA_STYLE ('',( #103 ) ) ;
#252 = PRESENTATION_LAYER_ASSIGNMENT (  '', '', ( #331 ) ) ;
#253 = SURFACE_SIDE_STYLE ('',( #24 ) ) ;
#254 = EDGE_CURVE ( 'NONE', #278, #101, #87, .T. ) ;
#255 =( NAMED_UNIT ( * ) SI_UNIT ( $, .STERADIAN. ) SOLID_ANGLE_UNIT ( ) );
#256 =( NAMED_UNIT ( * ) PLANE_ANGLE_UNIT ( ) SI_UNIT ( $, .RADIAN. ) );
#257 = DIRECTION ( 'NONE',  ( 0.000000000000000000, 0.000000000000000000, -1.000000000000000000 ) ) ;
#258 = VECTOR ( 'NONE', #299, 39.37007874015748143 ) ;
#259 = CARTESIAN_POINT ( 'NONE',  ( -1.530808498934191509E-17, 0.1250000000000000000, 0.000000000000000000 ) ) ;
#260 = DIRECTION ( 'NONE',  ( 0.000000000000000000, 1.000000000000000000, 0.000000000000000000 ) ) ;
#261 = AXIS2_PLACEMENT_3D ( 'NONE', #347, #86, #31 ) ;
#262 = DIMENSIONAL_EXPONENTS ( 1.000000000000000000, 0.000000000000000000, 0.000000000000000000, 0.000000000000000000, 0.000000000000000000, 0.000000000000000000, 0.000000000000000000 ) ;
#263 = CARTESIAN_POINT ( 'NONE',  ( 1.224646799147352714E-16, 3.000000000000000444, 0.000000000000000000 ) ) ;
#264 =( NAMED_UNIT ( * ) SI_UNIT ( $, .STERADIAN. ) SOLID_ANGLE_UNIT ( ) );
#265 = ORIENTED_EDGE ( 'NONE', *, *, #345, .F. ) ;
#266 = SURFACE_SIDE_STYLE ('',( #199 ) ) ;
#267 = PRODUCT_DEFINITION ( 'UNKNOWN', '', #11, #214 ) ;
#268 = DIRECTION ( 'NONE',  ( -0.000000000000000000, -1.000000000000000000, -0.000000000000000000 ) ) ;
#269 = DIRECTION ( 'NONE',  ( -1.000000000000000000, 0.000000000000000000, 0.000000000000000000 ) ) ;
#270 = DIRECTION ( 'NONE',  ( -1.122592899218407497E-16, 1.000000000000000000, -0.000000000000000000 ) ) ;
#271 = FILL_AREA_STYLE ('',( #97 ) ) ;
#272 = ORIENTED_EDGE ( 'NONE', *, *, #254, .F. ) ;
#273 = EDGE_CURVE ( 'NONE', #101, #71, #92, .T. ) ;
#274 = FILL_AREA_STYLE_COLOUR ( '', #281 ) ;
#275 = AXIS2_PLACEMENT_3D ( 'NONE', #327, #96, #279 ) ;
#276 = SURFACE_STYLE_FILL_AREA ( #45 ) ;
#277 = COLOUR_RGB ( '',0.7921568627450980005, 0.8196078431372548767, 0.9333333333333333481 ) ;
#278 = VERTEX_POINT ( 'NONE', #351 ) ;
#279 = DIRECTION ( 'NONE',  ( 1.000000000000000000, 1.122592899218407497E-16, 0.000000000000000000 ) ) ;
#280 =( NAMED_UNIT ( * ) PLANE_ANGLE_UNIT ( ) SI_UNIT ( $, .RADIAN. ) );
#281 = COLOUR_RGB ( '',0.7921568627450980005, 0.8196078431372548767, 0.9333333333333333481 ) ;
#282 = ORIENTED_EDGE ( 'NONE', *, *, #61, .F. ) ;
#283 = MECHANICAL_DESIGN_GEOMETRIC_PRESENTATION_REPRESENTATION (  '', ( #63 ), #369 ) ;
#284 = EDGE_CURVE ( 'NONE', #122, #278, #104, .T. ) ;
#285 =( NAMED_UNIT ( * ) SI_UNIT ( $, .STERADIAN. ) SOLID_ANGLE_UNIT ( ) );
#286 = LINE ( 'NONE', #224, #310 ) ;
#287 =( NAMED_UNIT ( * ) PLANE_ANGLE_UNIT ( ) SI_UNIT ( $, .RADIAN. ) );
#288 = SURFACE_STYLE_USAGE ( .BOTH. , #317 ) ;
#289 = CIRCLE ( 'NONE', #322, 0.1249999999999995420 ) ;
#290 = LENGTH_MEASURE_WITH_UNIT ( LENGTH_MEASURE( 0.02539999999999999897 ), #238 );
#291 = CARTESIAN_POINT ( 'NONE',  ( 0.000000000000000000, 0.1250000000000000278, 0.000000000000000000 ) ) ;
#292 = AXIS2_PLACEMENT_3D ( 'NONE', #263, #329, #269 ) ;
#293 = EDGE_CURVE ( 'NONE', #144, #131, #289, .T. ) ;
#294 = CARTESIAN_POINT ( 'NONE',  ( 0.000000000000000000, 0.1250000000000000278, 0.000000000000000000 ) ) ;
#295 = AXIS2_PLACEMENT_3D ( 'NONE', #179, #330, #342 ) ;
#296 = ORIENTED_EDGE ( 'NONE', *, *, #345, .T. ) ;
#297 = CARTESIAN_POINT ( 'NONE',  ( 0.000000000000000000, 0.000000000000000000, 0.000000000000000000 ) ) ;
#298 = MECHANICAL_DESIGN_GEOMETRIC_PRESENTATION_REPRESENTATION (  '', ( #42 ), #236 ) ;
#299 = DIRECTION ( 'NONE',  ( -1.122592899218407497E-16, 1.000000000000000000, -0.000000000000000000 ) ) ;
#300 = EDGE_LOOP ( 'NONE', ( #242, #244, #151, #13 ) ) ;
#301 = DIRECTION ( 'NONE',  ( 1.000000000000000000, 0.000000000000000000, 0.000000000000000000 ) ) ;
#302 = CARTESIAN_POINT ( 'NONE',  ( 0.000000000000000000, 1.500000000000000222, 0.000000000000000000 ) ) ;
#303 = LENGTH_MEASURE_WITH_UNIT ( LENGTH_MEASURE( 0.02539999999999999897 ), #59 );
#304 = EDGE_LOOP ( 'NONE', ( #296, #319 ) ) ;
#305 =( NAMED_UNIT ( * ) SI_UNIT ( $, .STERADIAN. ) SOLID_ANGLE_UNIT ( ) );
#306 = ADVANCED_FACE ( 'NONE', ( #237 ), #145, .T. ) ;
#307 = UNCERTAINTY_MEASURE_WITH_UNIT (LENGTH_MEASURE( 1.000000000000000082E-05 ), #9, 'distance_accuracy_value', 'NONE');
#308 = ORIENTED_EDGE ( 'NONE', *, *, #254, .T. ) ;
#309 =( CONVERSION_BASED_UNIT ( 'INCH', #303 ) LENGTH_UNIT ( ) NAMED_UNIT ( #227 ) );
#310 = VECTOR ( 'NONE', #28, 39.37007874015748143 ) ;
#311 = SURFACE_STYLE_FILL_AREA ( #53 ) ;
#312 =( LENGTH_UNIT ( ) NAMED_UNIT ( * ) SI_UNIT ( $, .METRE. ) );
#313 =( LENGTH_UNIT ( ) NAMED_UNIT ( * ) SI_UNIT ( $, .METRE. ) );
#314 = MECHANICAL_DESIGN_GEOMETRIC_PRESENTATION_REPRESENTATION (  '', ( #159 ), #365 ) ;
#315 = SPHERICAL_SURFACE ( 'NONE', #15, 0.1250000000000000000 ) ;
#316 = FACE_OUTER_BOUND ( 'NONE', #367, .T. ) ;
#317 = SURFACE_SIDE_STYLE ('',( #311 ) ) ;
#318 = CARTESIAN_POINT ( 'NONE',  ( 1.224646799147352714E-16, 3.000000000000000444, 0.000000000000000000 ) ) ;
#319 = ORIENTED_EDGE ( 'NONE', *, *, #158, .T. ) ;
#320 = DIRECTION ( 'NONE',  ( -0.000000000000000000, -1.000000000000000000, -0.000000000000000000 ) ) ;
#321 = AXIS2_PLACEMENT_3D ( 'NONE', #297, #360, #149 ) ;
#322 = AXIS2_PLACEMENT_3D ( 'NONE', #39, #270, #233 ) ;
#323 = DIRECTION ( 'NONE',  ( -1.122592899218407497E-16, 1.000000000000000000, -0.000000000000000000 ) ) ;
#324 = DIRECTION ( 'NONE',  ( -0.000000000000000000, -1.000000000000000000, -0.000000000000000000 ) ) ;
#325 = STYLED_ITEM ( 'NONE', ( #10 ), #134 ) ;
#326 = FILL_AREA_STYLE_COLOUR ( '', #107 ) ;
#327 = CARTESIAN_POINT ( 'NONE',  ( 0.1249999999999998335, 3.000000000000000444, 0.000000000000000000 ) ) ;
#328 = DIRECTION ( 'NONE',  ( -0.000000000000000000, -1.000000000000000000, -0.000000000000000000 ) ) ;
#329 = DIRECTION ( 'NONE',  ( -1.122592899218407497E-16, 1.000000000000000000, -0.000000000000000000 ) ) ;
#330 = DIRECTION ( 'NONE',  ( -1.122592899218407497E-16, 1.000000000000000000, -0.000000000000000000 ) ) ;
#331 = STYLED_ITEM ( 'NONE', ( #143 ), #306 ) ;
#332 = CARTESIAN_POINT ( 'NONE',  ( 0.1249999999999998335, 3.000000000000000444, 1.530808498934187195E-17 ) ) ;
#333 = UNCERTAINTY_MEASURE_WITH_UNIT (LENGTH_MEASURE( 1.000000000000000082E-05 ), #139, 'distance_accuracy_value', 'NONE');
#334 = ORIENTED_EDGE ( 'NONE', *, *, #293, .T. ) ;
#335 = SHAPE_DEFINITION_REPRESENTATION ( #126, #348 ) ;
#336 = LINE ( 'NONE', #72, #93 ) ;
#337 = AXIS2_PLACEMENT_3D ( 'NONE', #229, #268, #121 ) ;
#338 = DIRECTION ( 'NONE',  ( -1.000000000000000000, -1.122592899218407497E-16, 0.000000000000000000 ) ) ;
#339 = CARTESIAN_POINT ( 'NONE',  ( 2.908536147974963713E-16, 1.500000000000000222, 0.000000000000000000 ) ) ;
#340 =( NAMED_UNIT ( * ) PLANE_ANGLE_UNIT ( ) SI_UNIT ( $, .RADIAN. ) );
#341 = COLOUR_RGB ( '',1.000000000000000000, 0.000000000000000000, 0.000000000000000000 ) ;
#342 = DIRECTION ( 'NONE',  ( -1.000000000000000000, 0.000000000000000000, 0.000000000000000000 ) ) ;
#343 = CARTESIAN_POINT ( 'NONE',  ( 0.000000000000000000, 1.500000000000000222, -0.1249999999999998335 ) ) ;
#344 = DIRECTION ( 'NONE',  ( 1.000000000000000000, 0.000000000000000000, 0.000000000000000000 ) ) ;
#345 = EDGE_CURVE ( 'NONE', #357, #43, #221, .T. ) ;
#346 = CARTESIAN_POINT ( 'NONE',  ( 0.000000000000000000, 0.1250000000000000278, 0.000000000000000000 ) ) ;
#347 = CARTESIAN_POINT ( 'NONE',  ( -1.530808498934191509E-17, 0.1250000000000000000, 0.000000000000000000 ) ) ;
#348 = ADVANCED_BREP_SHAPE_REPRESENTATION ( '83361', ( #115, #368, #169 ), #245 ) ;
#349 = CIRCLE ( 'NONE', #4, 0.1249999999999995420 ) ;
#350 = FILL_AREA_STYLE_COLOUR ( '', #57 ) ;
#351 = CARTESIAN_POINT ( 'NONE',  ( 0.000000000000000000, 0.1250000000000000278, -0.1249999999999999584 ) ) ;
#352 = PRESENTATION_STYLE_ASSIGNMENT (( #358 ) ) ;
#353 = AXIS2_PLACEMENT_3D ( 'NONE', #6, #119, #205 ) ;
#354 = ORIENTED_EDGE ( 'NONE', *, *, #284, .T. ) ;
#355 = CARTESIAN_POINT ( 'NONE',  ( 0.1249999999999997363, 3.000000000000000444, 1.530808498934186887E-17 ) ) ;
#356 = SURFACE_STYLE_FILL_AREA ( #271 ) ;
#357 = VERTEX_POINT ( 'NONE', #148 ) ;
#358 = SURFACE_STYLE_USAGE ( .BOTH. , #58 ) ;
#359 = COLOUR_RGB ( '',1.000000000000000000, 0.000000000000000000, 0.000000000000000000 ) ;
#360 = DIRECTION ( 'NONE',  ( -0.000000000000000000, -1.000000000000000000, -0.000000000000000000 ) ) ;
#361 = FACE_OUTER_BOUND ( 'NONE', #304, .T. ) ;
#362 =( NAMED_UNIT ( * ) PLANE_ANGLE_UNIT ( ) SI_UNIT ( $, .RADIAN. ) );
#363 = UNCERTAINTY_MEASURE_WITH_UNIT (LENGTH_MEASURE( 1.000000000000000082E-05 ), #20, 'distance_accuracy_value', 'NONE');
#364 = ORIENTED_EDGE ( 'NONE', *, *, #173, .T. ) ;
#365 =( GEOMETRIC_REPRESENTATION_CONTEXT ( 3 ) GLOBAL_UNCERTAINTY_ASSIGNED_CONTEXT ( ( #23 ) ) GLOBAL_UNIT_ASSIGNED_CONTEXT ( ( #309, #48, #137 ) ) REPRESENTATION_CONTEXT ( 'NONE', 'WORKASPACE' ) );
#366 = EDGE_CURVE ( 'NONE', #131, #43, #125, .T. ) ;
#367 = EDGE_LOOP ( 'NONE', ( #370, #235, #189, #177 ) ) ;
#368 = MANIFOLD_SOLID_BREP ( 'Revolve - Tool Body (Straight Shanked)', #27 ) ;
#369 =( GEOMETRIC_REPRESENTATION_CONTEXT ( 3 ) GLOBAL_UNCERTAINTY_ASSIGNED_CONTEXT ( ( #241 ) ) GLOBAL_UNIT_ASSIGNED_CONTEXT ( ( #166, #256, #255 ) ) REPRESENTATION_CONTEXT ( 'NONE', 'WORKASPACE' ) );
#370 = ORIENTED_EDGE ( 'NONE', *, *, #167, .T. ) ;
#371 = CARTESIAN_POINT ( 'NONE',  ( 0.1249999999999999584, 0.1250000000000000278, 0.000000000000000000 ) ) ;
#372 = FACE_OUTER_BOUND ( 'NONE', #21, .T. ) ;
#373 = DIMENSIONAL_EXPONENTS ( 1.000000000000000000, 0.000000000000000000, 0.000000000000000000, 0.000000000000000000, 0.000000000000000000, 0.000000000000000000, 0.000000000000000000 ) ;
ENDSEC;
END-ISO-10303-21;
