ISO-10303-21;
HEADER;
FILE_DESCRIPTION (( 'STEP AP214' ),
    '1' );
FILE_NAME ('84770.STEP',
    '2023-06-30T23:54:25',
    ( '' ),
    ( '' ),
    'SwSTEP 2.0',
    'SolidWorks 2023',
    '' );
FILE_SCHEMA (( 'AUTOMOTIVE_DESIGN' ));
ENDSEC;

DATA;
#1 = PRODUCT_CONTEXT ( 'NONE', #193, 'mechanical' ) ;
#2 = AXIS2_PLACEMENT_3D ( 'NONE', #327, #61, #295 ) ;
#3 = PRESENTATION_LAYER_ASSIGNMENT (  '', '', ( #119 ) ) ;
#4 = SURFACE_STYLE_FILL_AREA ( #142 ) ;
#5 = CARTESIAN_POINT ( 'NONE',  ( 0.4999999999999998335, 1.499999999999999778, 6.123233995736763571E-17 ) ) ;
#6 = VERTEX_POINT ( 'NONE', #354 ) ;
#7 = CARTESIAN_POINT ( 'NONE',  ( -3.061616997868383018E-17, 0.000000000000000000, 0.000000000000000000 ) ) ;
#8 = SURFACE_STYLE_USAGE ( .BOTH. , #89 ) ;
#9 = FACE_OUTER_BOUND ( 'NONE', #286, .T. ) ;
#10 = COLOUR_RGB ( '',1.000000000000000000, 0.000000000000000000, 0.000000000000000000 ) ;
#11 = APPLICATION_PROTOCOL_DEFINITION ( 'draft international standard', 'automotive_design', 1998, #17 ) ;
#12 = ORIENTED_EDGE ( 'NONE', *, *, #364, .T. ) ;
#13 = ORIENTED_EDGE ( 'NONE', *, *, #215, .T. ) ;
#14 = STYLED_ITEM ( 'NONE', ( #104 ), #196 ) ;
#15 = PLANE ( 'NONE',  #206 ) ;
#16 =( CONVERSION_BASED_UNIT ( 'INCH', #45 ) LENGTH_UNIT ( ) NAMED_UNIT ( #168 ) );
#17 = APPLICATION_CONTEXT ( 'automotive_design' ) ;
#18 = CARTESIAN_POINT ( 'NONE',  ( 3.202894195553160804E-16, 1.499999999999999778, 0.000000000000000000 ) ) ;
#19 = CARTESIAN_POINT ( 'NONE',  ( 0.5000000000000000000, 0.5000000000000001110, 0.000000000000000000 ) ) ;
#20 = CARTESIAN_POINT ( 'NONE',  ( 0.000000000000000000, 0.5000000000000001110, 0.000000000000000000 ) ) ;
#21 = DIRECTION ( 'NONE',  ( -1.526087038050735012E-16, 1.000000000000000000, -0.000000000000000000 ) ) ;
#22 =( NAMED_UNIT ( * ) SI_UNIT ( $, .STERADIAN. ) SOLID_ANGLE_UNIT ( ) );
#23 = ORIENTED_EDGE ( 'NONE', *, *, #373, .F. ) ;
#24 = ADVANCED_BREP_SHAPE_REPRESENTATION ( '84770', ( #196, #66, #342 ), #106 ) ;
#25 = CARTESIAN_POINT ( 'NONE',  ( 0.000000000000000000, 0.5000000000000001110, -0.5000000000000000000 ) ) ;
#26 = AXIS2_PLACEMENT_3D ( 'NONE', #73, #300, #227 ) ;
#27 = PRODUCT_DEFINITION ( 'UNKNOWN', '', #341, #265 ) ;
#28 = DIMENSIONAL_EXPONENTS ( 1.000000000000000000, 0.000000000000000000, 0.000000000000000000, 0.000000000000000000, 0.000000000000000000, 0.000000000000000000, 0.000000000000000000 ) ;
#29 = ORIENTED_EDGE ( 'NONE', *, *, #63, .T. ) ;
#30 = ADVANCED_FACE ( 'NONE', ( #9 ), #254, .T. ) ;
#31 = ORIENTED_EDGE ( 'NONE', *, *, #81, .T. ) ;
#32 =( GEOMETRIC_REPRESENTATION_CONTEXT ( 3 ) GLOBAL_UNCERTAINTY_ASSIGNED_CONTEXT ( ( #361 ) ) GLOBAL_UNIT_ASSIGNED_CONTEXT ( ( #356, #167, #22 ) ) REPRESENTATION_CONTEXT ( 'NONE', 'WORKASPACE' ) );
#33 = AXIS2_PLACEMENT_3D ( 'NONE', #112, #92, #293 ) ;
#34 =( NAMED_UNIT ( * ) PLANE_ANGLE_UNIT ( ) SI_UNIT ( $, .RADIAN. ) );
#35 = DIRECTION ( 'NONE',  ( 0.000000000000000000, 0.000000000000000000, -1.000000000000000000 ) ) ;
#36 =( LENGTH_UNIT ( ) NAMED_UNIT ( * ) SI_UNIT ( $, .METRE. ) );
#37 = CARTESIAN_POINT ( 'NONE',  ( 0.000000000000000000, 1.500000000000000222, 0.000000000000000000 ) ) ;
#38 =( LENGTH_UNIT ( ) NAMED_UNIT ( * ) SI_UNIT ( $, .METRE. ) );
#39 = ADVANCED_FACE ( 'NONE', ( #179 ), #324, .T. ) ;
#40 = DIRECTION ( 'NONE',  ( -0.000000000000000000, -1.000000000000000000, -0.000000000000000000 ) ) ;
#41 = SURFACE_STYLE_FILL_AREA ( #243 ) ;
#42 = STYLED_ITEM ( 'NONE', ( #312 ), #30 ) ;
#43 = CIRCLE ( 'NONE', #48, 0.5000000000000000000 ) ;
#44 =( LENGTH_UNIT ( ) NAMED_UNIT ( * ) SI_UNIT ( $, .METRE. ) );
#45 = LENGTH_MEASURE_WITH_UNIT ( LENGTH_MEASURE( 0.02539999999999999897 ), #190 );
#46 = VECTOR ( 'NONE', #131, 39.37007874015748143 ) ;
#47 = CARTESIAN_POINT ( 'NONE',  ( -6.123233995736766036E-17, 0.5000000000000000000, 0.000000000000000000 ) ) ;
#48 = AXIS2_PLACEMENT_3D ( 'NONE', #257, #141, #266 ) ;
#49 = CARTESIAN_POINT ( 'NONE',  ( -0.4999999999999991118, 1.499999999999999778, 0.000000000000000000 ) ) ;
#50 = SURFACE_STYLE_USAGE ( .BOTH. , #191 ) ;
#51 = AXIS2_PLACEMENT_3D ( 'NONE', #357, #40, #210 ) ;
#52 = VERTEX_POINT ( 'NONE', #7 ) ;
#53 = VERTEX_POINT ( 'NONE', #212 ) ;
#54 = PRESENTATION_LAYER_ASSIGNMENT (  '', '', ( #248 ) ) ;
#55 = EDGE_CURVE ( 'NONE', #170, #53, #340, .T. ) ;
#56 = DIRECTION ( 'NONE',  ( 0.000000000000000000, 0.000000000000000000, 1.000000000000000000 ) ) ;
#57 = CYLINDRICAL_SURFACE ( 'NONE', #33, 0.4999999999999996669 ) ;
#58 = CARTESIAN_POINT ( 'NONE',  ( 0.000000000000000000, 0.000000000000000000, 0.000000000000000000 ) ) ;
#59 = VECTOR ( 'NONE', #21, 39.37007874015748143 ) ;
#60 = CARTESIAN_POINT ( 'NONE',  ( 6.123233995736763571E-17, 1.500000000000000222, 0.4999999999999997780 ) ) ;
#61 = DIRECTION ( 'NONE',  ( -0.000000000000000000, -1.000000000000000000, -0.000000000000000000 ) ) ;
#62 = ORIENTED_EDGE ( 'NONE', *, *, #149, .T. ) ;
#63 = EDGE_CURVE ( 'NONE', #200, #126, #350, .T. ) ;
#64 = FILL_AREA_STYLE_COLOUR ( '', #133 ) ;
#65 = FILL_AREA_STYLE_COLOUR ( '', #329 ) ;
#66 = MANIFOLD_SOLID_BREP ( 'Revolve - Tool Body (Straight Shanked)', #150 ) ;
#67 = ORIENTED_EDGE ( 'NONE', *, *, #202, .F. ) ;
#68 = COLOUR_RGB ( '',1.000000000000000000, 0.000000000000000000, 0.000000000000000000 ) ;
#69 = LENGTH_MEASURE_WITH_UNIT ( LENGTH_MEASURE( 0.02539999999999999897 ), #44 );
#70 = DIRECTION ( 'NONE',  ( -1.526087038050735012E-16, 1.000000000000000000, -0.000000000000000000 ) ) ;
#71 = UNCERTAINTY_MEASURE_WITH_UNIT (LENGTH_MEASURE( 1.000000000000000082E-05 ), #78, 'distance_accuracy_value', 'NONE');
#72 = FILL_AREA_STYLE ('',( #331 ) ) ;
#73 = CARTESIAN_POINT ( 'NONE',  ( -6.123233995736766036E-17, 4.000000000000000000, 0.000000000000000000 ) ) ;
#74 =( GEOMETRIC_REPRESENTATION_CONTEXT ( 3 ) GLOBAL_UNCERTAINTY_ASSIGNED_CONTEXT ( ( #153 ) ) GLOBAL_UNIT_ASSIGNED_CONTEXT ( ( #177, #34, #351 ) ) REPRESENTATION_CONTEXT ( 'NONE', 'WORKASPACE' ) );
#75 = CARTESIAN_POINT ( 'NONE',  ( 0.4999999999999996114, 4.000000000000000000, 6.123233995736761105E-17 ) ) ;
#76 = COLOUR_RGB ( '',0.7921568627450980005, 0.8196078431372548767, 0.9333333333333333481 ) ;
#77 = EDGE_LOOP ( 'NONE', ( #80, #13 ) ) ;
#78 =( CONVERSION_BASED_UNIT ( 'INCH', #335 ) LENGTH_UNIT ( ) NAMED_UNIT ( #308 ) );
#79 = ORIENTED_EDGE ( 'NONE', *, *, #195, .F. ) ;
#80 = ORIENTED_EDGE ( 'NONE', *, *, #55, .T. ) ;
#81 = EDGE_CURVE ( 'NONE', #200, #349, #259, .T. ) ;
#82 = DIRECTION ( 'NONE',  ( 1.224646799147353207E-16, -0.000000000000000000, 1.000000000000000000 ) ) ;
#83 =( GEOMETRIC_REPRESENTATION_CONTEXT ( 3 ) GLOBAL_UNCERTAINTY_ASSIGNED_CONTEXT ( ( #71 ) ) GLOBAL_UNIT_ASSIGNED_CONTEXT ( ( #78, #137, #232 ) ) REPRESENTATION_CONTEXT ( 'NONE', 'WORKASPACE' ) );
#84 = ORIENTED_EDGE ( 'NONE', *, *, #63, .F. ) ;
#85 = FILL_AREA_STYLE_COLOUR ( '', #159 ) ;
#86 = DIRECTION ( 'NONE',  ( 0.000000000000000000, 0.000000000000000000, 1.000000000000000000 ) ) ;
#87 = ORIENTED_EDGE ( 'NONE', *, *, #81, .F. ) ;
#88 = AXIS2_PLACEMENT_3D ( 'NONE', #317, #313, #256 ) ;
#89 = SURFACE_SIDE_STYLE ('',( #115 ) ) ;
#90 = LENGTH_MEASURE_WITH_UNIT ( LENGTH_MEASURE( 0.02539999999999999897 ), #36 );
#91 = LENGTH_MEASURE_WITH_UNIT ( LENGTH_MEASURE( 0.02539999999999999897 ), #38 );
#92 = DIRECTION ( 'NONE',  ( -1.526087038050735012E-16, 1.000000000000000000, -0.000000000000000000 ) ) ;
#93 = FILL_AREA_STYLE ('',( #157 ) ) ;
#94 = AXIS2_PLACEMENT_3D ( 'NONE', #187, #276, #368 ) ;
#95 = FACE_OUTER_BOUND ( 'NONE', #309, .T. ) ;
#96 =( NAMED_UNIT ( * ) PLANE_ANGLE_UNIT ( ) SI_UNIT ( $, .RADIAN. ) );
#97 = CARTESIAN_POINT ( 'NONE',  ( 0.000000000000000000, 1.500000000000000222, -0.4999999999999997780 ) ) ;
#98 = PLANE ( 'NONE',  #352 ) ;
#99 = DIRECTION ( 'NONE',  ( -1.000000000000000000, 0.000000000000000000, 0.000000000000000000 ) ) ;
#100 = STYLED_ITEM ( 'NONE', ( #255 ), #209 ) ;
#101 = PRODUCT_DEFINITION_SHAPE ( 'NONE', 'NONE',  #27 ) ;
#102 = FACE_OUTER_BOUND ( 'NONE', #77, .T. ) ;
#103 =( GEOMETRIC_REPRESENTATION_CONTEXT ( 3 ) GLOBAL_UNCERTAINTY_ASSIGNED_CONTEXT ( ( #220 ) ) GLOBAL_UNIT_ASSIGNED_CONTEXT ( ( #288, #304, #154 ) ) REPRESENTATION_CONTEXT ( 'NONE', 'WORKASPACE' ) );
#104 = PRESENTATION_STYLE_ASSIGNMENT (( #174 ) ) ;
#105 = MECHANICAL_DESIGN_GEOMETRIC_PRESENTATION_REPRESENTATION (  '', ( #100 ), #263 ) ;
#106 =( GEOMETRIC_REPRESENTATION_CONTEXT ( 3 ) GLOBAL_UNCERTAINTY_ASSIGNED_CONTEXT ( ( #292 ) ) GLOBAL_UNIT_ASSIGNED_CONTEXT ( ( #360, #188, #121 ) ) REPRESENTATION_CONTEXT ( 'NONE', 'WORKASPACE' ) );
#107 =( LENGTH_UNIT ( ) NAMED_UNIT ( * ) SI_UNIT ( $, .METRE. ) );
#108 = SURFACE_STYLE_FILL_AREA ( #332 ) ;
#109 = PRESENTATION_LAYER_ASSIGNMENT (  '', '', ( #129 ) ) ;
#110 = CIRCLE ( 'NONE', #198, 0.4999999999999994449 ) ;
#111 = SHAPE_DEFINITION_REPRESENTATION ( #101, #24 ) ;
#112 = CARTESIAN_POINT ( 'NONE',  ( -6.123233995736766036E-17, 4.000000000000000000, 0.000000000000000000 ) ) ;
#113 = VERTEX_POINT ( 'NONE', #19 ) ;
#114 = SURFACE_SIDE_STYLE ('',( #41 ) ) ;
#115 = SURFACE_STYLE_FILL_AREA ( #316 ) ;
#116 = PRODUCT_RELATED_PRODUCT_CATEGORY ( 'part', '', ( #238 ) ) ;
#117 =( LENGTH_UNIT ( ) NAMED_UNIT ( * ) SI_UNIT ( $, .METRE. ) );
#118 = FILL_AREA_STYLE_COLOUR ( '', #204 ) ;
#119 = STYLED_ITEM ( 'NONE', ( #122 ), #326 ) ;
#120 = CARTESIAN_POINT ( 'NONE',  ( -6.123233995736764803E-17, 4.000000000000000000, 0.000000000000000000 ) ) ;
#121 =( NAMED_UNIT ( * ) SI_UNIT ( $, .STERADIAN. ) SOLID_ANGLE_UNIT ( ) );
#122 = PRESENTATION_STYLE_ASSIGNMENT (( #8 ) ) ;
#123 = EDGE_LOOP ( 'NONE', ( #169, #283, #240, #307 ) ) ;
#124 = ADVANCED_FACE ( 'NONE', ( #102 ), #15, .F. ) ;
#125 = LENGTH_MEASURE_WITH_UNIT ( LENGTH_MEASURE( 0.02539999999999999897 ), #228 );
#126 = VERTEX_POINT ( 'NONE', #97 ) ;
#127 =( NAMED_UNIT ( * ) SI_UNIT ( $, .STERADIAN. ) SOLID_ANGLE_UNIT ( ) );
#128 = UNCERTAINTY_MEASURE_WITH_UNIT (LENGTH_MEASURE( 1.000000000000000082E-05 ), #236, 'distance_accuracy_value', 'NONE');
#129 = STYLED_ITEM ( 'NONE', ( #189 ), #39 ) ;
#130 = AXIS2_PLACEMENT_3D ( 'NONE', #151, #143, #35 ) ;
#131 = DIRECTION ( 'NONE',  ( -0.000000000000000000, -1.000000000000000000, -0.000000000000000000 ) ) ;
#132 = EDGE_CURVE ( 'NONE', #344, #318, #158, .T. ) ;
#133 = COLOUR_RGB ( '',0.7921568627450980005, 0.8196078431372548767, 0.9333333333333333481 ) ;
#134 = SPHERICAL_SURFACE ( 'NONE', #322, 0.5000000000000000000 ) ;
#135 = CARTESIAN_POINT ( 'NONE',  ( -6.123233995736766036E-17, 0.5000000000000000000, 0.000000000000000000 ) ) ;
#136 = AXIS2_PLACEMENT_3D ( 'NONE', #120, #181, #291 ) ;
#137 =( NAMED_UNIT ( * ) PLANE_ANGLE_UNIT ( ) SI_UNIT ( $, .RADIAN. ) );
#138 = EDGE_LOOP ( 'NONE', ( #79, #147, #250, #62 ) ) ;
#139 = ADVANCED_FACE ( 'NONE', ( #95 ), #325, .T. ) ;
#140 = AXIS2_PLACEMENT_3D ( 'NONE', #162, #330, #275 ) ;
#141 = DIRECTION ( 'NONE',  ( -0.000000000000000000, -1.000000000000000000, -0.000000000000000000 ) ) ;
#142 = FILL_AREA_STYLE ('',( #65 ) ) ;
#143 = DIRECTION ( 'NONE',  ( -0.000000000000000000, -1.000000000000000000, -0.000000000000000000 ) ) ;
#144 =( NAMED_UNIT ( * ) PLANE_ANGLE_UNIT ( ) SI_UNIT ( $, .RADIAN. ) );
#145 = PRESENTATION_STYLE_ASSIGNMENT (( #294 ) ) ;
#146 = DIRECTION ( 'NONE',  ( 1.000000000000000000, 0.000000000000000000, 0.000000000000000000 ) ) ;
#147 = ORIENTED_EDGE ( 'NONE', *, *, #373, .T. ) ;
#148 = CARTESIAN_POINT ( 'NONE',  ( 0.000000000000000000, 0.000000000000000000, 0.000000000000000000 ) ) ;
#149 = EDGE_CURVE ( 'NONE', #113, #52, #333, .T. ) ;
#150 = CLOSED_SHELL ( 'NONE', ( #285, #355, #139, #124 ) ) ;
#151 = CARTESIAN_POINT ( 'NONE',  ( 0.000000000000000000, 0.5000000000000001110, 0.000000000000000000 ) ) ;
#152 = SURFACE_SIDE_STYLE ('',( #320 ) ) ;
#153 = UNCERTAINTY_MEASURE_WITH_UNIT (LENGTH_MEASURE( 1.000000000000000082E-05 ), #177, 'distance_accuracy_value', 'NONE');
#154 =( NAMED_UNIT ( * ) SI_UNIT ( $, .STERADIAN. ) SOLID_ANGLE_UNIT ( ) );
#155 = ORIENTED_EDGE ( 'NONE', *, *, #132, .F. ) ;
#156 = CARTESIAN_POINT ( 'NONE',  ( 0.000000000000000000, 0.000000000000000000, -0.4999999999999998335 ) ) ;
#157 = FILL_AREA_STYLE_COLOUR ( '', #68 ) ;
#158 = CIRCLE ( 'NONE', #301, 0.4999999999999994449 ) ;
#159 = COLOUR_RGB ( '',1.000000000000000000, 0.000000000000000000, 0.000000000000000000 ) ;
#160 = EDGE_CURVE ( 'NONE', #318, #53, #274, .T. ) ;
#161 = DIRECTION ( 'NONE',  ( 0.000000000000000000, 0.000000000000000000, -1.000000000000000000 ) ) ;
#162 = CARTESIAN_POINT ( 'NONE',  ( 0.000000000000000000, 1.500000000000000222, 0.000000000000000000 ) ) ;
#163 = UNCERTAINTY_MEASURE_WITH_UNIT (LENGTH_MEASURE( 1.000000000000000082E-05 ), #214, 'distance_accuracy_value', 'NONE');
#164 = LINE ( 'NONE', #299, #244 ) ;
#165 = MECHANICAL_DESIGN_GEOMETRIC_PRESENTATION_REPRESENTATION (  '', ( #129 ), #234 ) ;
#166 = CIRCLE ( 'NONE', #2, 0.4999999999999997780 ) ;
#167 =( NAMED_UNIT ( * ) PLANE_ANGLE_UNIT ( ) SI_UNIT ( $, .RADIAN. ) );
#168 = DIMENSIONAL_EXPONENTS ( 1.000000000000000000, 0.000000000000000000, 0.000000000000000000, 0.000000000000000000, 0.000000000000000000, 0.000000000000000000, 0.000000000000000000 ) ;
#169 = ORIENTED_EDGE ( 'NONE', *, *, #132, .T. ) ;
#170 = VERTEX_POINT ( 'NONE', #194 ) ;
#171 = PRESENTATION_STYLE_ASSIGNMENT (( #50 ) ) ;
#172 = VERTEX_POINT ( 'NONE', #25 ) ;
#173 = PRESENTATION_LAYER_ASSIGNMENT (  '', '', ( #14 ) ) ;
#174 = SURFACE_STYLE_USAGE ( .BOTH. , #205 ) ;
#175 = DIRECTION ( 'NONE',  ( 1.000000000000000000, 0.000000000000000000, -1.224646799147353207E-16 ) ) ;
#176 = LENGTH_MEASURE_WITH_UNIT ( LENGTH_MEASURE( 0.02539999999999999897 ), #117 );
#177 =( CONVERSION_BASED_UNIT ( 'INCH', #69 ) LENGTH_UNIT ( ) NAMED_UNIT ( #229 ) );
#178 = AXIS2_PLACEMENT_3D ( 'NONE', #135, #82, #175 ) ;
#179 = FACE_OUTER_BOUND ( 'NONE', #235, .T. ) ;
#180 = SURFACE_STYLE_USAGE ( .BOTH. , #186 ) ;
#181 = DIRECTION ( 'NONE',  ( -1.526087038050735012E-16, 1.000000000000000000, -0.000000000000000000 ) ) ;
#182 = ORIENTED_EDGE ( 'NONE', *, *, #277, .T. ) ;
#183 = SPHERICAL_SURFACE ( 'NONE', #94, 0.5000000000000000000 ) ;
#184 = UNCERTAINTY_MEASURE_WITH_UNIT (LENGTH_MEASURE( 1.000000000000000082E-05 ), #16, 'distance_accuracy_value', 'NONE');
#185 =( NAMED_UNIT ( * ) SI_UNIT ( $, .STERADIAN. ) SOLID_ANGLE_UNIT ( ) );
#186 = SURFACE_SIDE_STYLE ('',( #4 ) ) ;
#187 = CARTESIAN_POINT ( 'NONE',  ( -6.123233995736766036E-17, 0.5000000000000000000, 0.000000000000000000 ) ) ;
#188 =( NAMED_UNIT ( * ) PLANE_ANGLE_UNIT ( ) SI_UNIT ( $, .RADIAN. ) );
#189 = PRESENTATION_STYLE_ASSIGNMENT (( #273 ) ) ;
#190 =( LENGTH_UNIT ( ) NAMED_UNIT ( * ) SI_UNIT ( $, .METRE. ) );
#191 = SURFACE_SIDE_STYLE ('',( #302 ) ) ;
#192 = PRESENTATION_LAYER_ASSIGNMENT (  '', '', ( #289 ) ) ;
#193 = APPLICATION_CONTEXT ( 'automotive_design' ) ;
#194 = CARTESIAN_POINT ( 'NONE',  ( -0.4999999999999999445, 4.000000000000000000, 0.000000000000000000 ) ) ;
#195 = EDGE_CURVE ( 'NONE', #6, #52, #372, .T. ) ;
#196 = MANIFOLD_SOLID_BREP ( 'Revolve - Cutting Edge', #296 ) ;
#197 = ORIENTED_EDGE ( 'NONE', *, *, #215, .F. ) ;
#198 = AXIS2_PLACEMENT_3D ( 'NONE', #18, #371, #306 ) ;
#199 = CIRCLE ( 'NONE', #226, 0.5000000000000000000 ) ;
#200 = VERTEX_POINT ( 'NONE', #60 ) ;
#201 = DIMENSIONAL_EXPONENTS ( 1.000000000000000000, 0.000000000000000000, 0.000000000000000000, 0.000000000000000000, 0.000000000000000000, 0.000000000000000000, 0.000000000000000000 ) ;
#202 = EDGE_CURVE ( 'NONE', #126, #172, #287, .T. ) ;
#203 = EDGE_LOOP ( 'NONE', ( #267, #282, #207, #182 ) ) ;
#204 = COLOUR_RGB ( '',1.000000000000000000, 0.000000000000000000, 0.000000000000000000 ) ;
#205 = SURFACE_SIDE_STYLE ('',( #108 ) ) ;
#206 = AXIS2_PLACEMENT_3D ( 'NONE', #222, #271, #363 ) ;
#207 = ORIENTED_EDGE ( 'NONE', *, *, #149, .F. ) ;
#208 = ORIENTED_EDGE ( 'NONE', *, *, #277, .F. ) ;
#209 = ADVANCED_FACE ( 'NONE', ( #319 ), #183, .T. ) ;
#210 = DIRECTION ( 'NONE',  ( 0.000000000000000000, 0.000000000000000000, -1.000000000000000000 ) ) ;
#211 = DIRECTION ( 'NONE',  ( 0.000000000000000000, 0.000000000000000000, -1.000000000000000000 ) ) ;
#212 = CARTESIAN_POINT ( 'NONE',  ( 0.4999999999999998335, 4.000000000000000000, 6.123233995736763571E-17 ) ) ;
#213 = MECHANICAL_DESIGN_GEOMETRIC_PRESENTATION_REPRESENTATION (  '', ( #119 ), #103 ) ;
#214 =( CONVERSION_BASED_UNIT ( 'INCH', #90 ) LENGTH_UNIT ( ) NAMED_UNIT ( #201 ) );
#215 = EDGE_CURVE ( 'NONE', #53, #170, #281, .T. ) ;
#216 =( NAMED_UNIT ( * ) PLANE_ANGLE_UNIT ( ) SI_UNIT ( $, .RADIAN. ) );
#217 = DIRECTION ( 'NONE',  ( -0.000000000000000000, -1.000000000000000000, -0.000000000000000000 ) ) ;
#218 = CIRCLE ( 'NONE', #51, 0.5000000000000000000 ) ;
#219 = DIRECTION ( 'NONE',  ( -1.526087038050735012E-16, 1.000000000000000000, 0.000000000000000000 ) ) ;
#220 = UNCERTAINTY_MEASURE_WITH_UNIT (LENGTH_MEASURE( 1.000000000000000082E-05 ), #288, 'distance_accuracy_value', 'NONE');
#221 = CARTESIAN_POINT ( 'NONE',  ( 6.123233995736764803E-17, 0.000000000000000000, 0.4999999999999998335 ) ) ;
#222 = CARTESIAN_POINT ( 'NONE',  ( 0.4999999999999997780, 4.000000000000000000, 0.000000000000000000 ) ) ;
#223 = CARTESIAN_POINT ( 'NONE',  ( 3.202894195553160804E-16, 1.500000000000000222, 0.000000000000000000 ) ) ;
#224 = AXIS2_PLACEMENT_3D ( 'NONE', #37, #217, #353 ) ;
#225 = EDGE_CURVE ( 'NONE', #318, #344, #110, .T. ) ;
#226 = AXIS2_PLACEMENT_3D ( 'NONE', #20, #370, #323 ) ;
#227 = DIRECTION ( 'NONE',  ( -1.000000000000000000, 0.000000000000000000, 0.000000000000000000 ) ) ;
#228 =( LENGTH_UNIT ( ) NAMED_UNIT ( * ) SI_UNIT ( $, .METRE. ) );
#229 = DIMENSIONAL_EXPONENTS ( 1.000000000000000000, 0.000000000000000000, 0.000000000000000000, 0.000000000000000000, 0.000000000000000000, 0.000000000000000000, 0.000000000000000000 ) ;
#230 = FILL_AREA_STYLE_COLOUR ( '', #76 ) ;
#231 = ORIENTED_EDGE ( 'NONE', *, *, #225, .F. ) ;
#232 =( NAMED_UNIT ( * ) SI_UNIT ( $, .STERADIAN. ) SOLID_ANGLE_UNIT ( ) );
#233 = MECHANICAL_DESIGN_GEOMETRIC_PRESENTATION_REPRESENTATION (  '', ( #42 ), #338 ) ;
#234 =( GEOMETRIC_REPRESENTATION_CONTEXT ( 3 ) GLOBAL_UNCERTAINTY_ASSIGNED_CONTEXT ( ( #184 ) ) GLOBAL_UNIT_ASSIGNED_CONTEXT ( ( #16, #96, #127 ) ) REPRESENTATION_CONTEXT ( 'NONE', 'WORKASPACE' ) );
#235 = EDGE_LOOP ( 'NONE', ( #261, #31, #208, #337, #67 ) ) ;
#236 =( CONVERSION_BASED_UNIT ( 'INCH', #91 ) LENGTH_UNIT ( ) NAMED_UNIT ( #249 ) );
#237 = ORIENTED_EDGE ( 'NONE', *, *, #270, .F. ) ;
#238 = PRODUCT ( '84770', '84770', '', ( #1 ) ) ;
#239 = AXIS2_PLACEMENT_3D ( 'NONE', #47, #161, #305 ) ;
#240 = ORIENTED_EDGE ( 'NONE', *, *, #55, .F. ) ;
#241 = ORIENTED_EDGE ( 'NONE', *, *, #202, .T. ) ;
#242 =( LENGTH_UNIT ( ) NAMED_UNIT ( * ) SI_UNIT ( $, .METRE. ) );
#243 = FILL_AREA_STYLE ('',( #118 ) ) ;
#244 = VECTOR ( 'NONE', #279, 39.37007874015748143 ) ;
#245 = DIRECTION ( 'NONE',  ( -1.000000000000000000, 0.000000000000000000, 0.000000000000000000 ) ) ;
#246 = SURFACE_STYLE_FILL_AREA ( #93 ) ;
#247 = CARTESIAN_POINT ( 'NONE',  ( 6.123233995736766036E-17, 0.5000000000000001110, 0.5000000000000000000 ) ) ;
#248 = STYLED_ITEM ( 'NONE', ( #171 ), #251 ) ;
#249 = DIMENSIONAL_EXPONENTS ( 1.000000000000000000, 0.000000000000000000, 0.000000000000000000, 0.000000000000000000, 0.000000000000000000, 0.000000000000000000, 0.000000000000000000 ) ;
#250 = ORIENTED_EDGE ( 'NONE', *, *, #303, .T. ) ;
#251 = ADVANCED_FACE ( 'NONE', ( #366 ), #134, .T. ) ;
#252 = CIRCLE ( 'NONE', #130, 0.5000000000000000000 ) ;
#253 = DIRECTION ( 'NONE',  ( 1.000000000000000000, 0.000000000000000000, 0.000000000000000000 ) ) ;
#254 = CYLINDRICAL_SURFACE ( 'NONE', #280, 0.4999999999999998335 ) ;
#255 = PRESENTATION_STYLE_ASSIGNMENT (( #180 ) ) ;
#256 = DIRECTION ( 'NONE',  ( 0.000000000000000000, 0.000000000000000000, -1.000000000000000000 ) ) ;
#257 = CARTESIAN_POINT ( 'NONE',  ( 0.000000000000000000, 0.5000000000000001110, 0.000000000000000000 ) ) ;
#258 = EDGE_CURVE ( 'NONE', #126, #200, #166, .T. ) ;
#259 = LINE ( 'NONE', #221, #46 ) ;
#260 = PLANE ( 'NONE',  #140 ) ;
#261 = ORIENTED_EDGE ( 'NONE', *, *, #258, .T. ) ;
#262 =( NAMED_UNIT ( * ) SI_UNIT ( $, .STERADIAN. ) SOLID_ANGLE_UNIT ( ) );
#263 =( GEOMETRIC_REPRESENTATION_CONTEXT ( 3 ) GLOBAL_UNCERTAINTY_ASSIGNED_CONTEXT ( ( #128 ) ) GLOBAL_UNIT_ASSIGNED_CONTEXT ( ( #236, #216, #262 ) ) REPRESENTATION_CONTEXT ( 'NONE', 'WORKASPACE' ) );
#264 = APPLICATION_PROTOCOL_DEFINITION ( 'draft international standard', 'automotive_design', 1998, #193 ) ;
#265 = PRODUCT_DEFINITION_CONTEXT ( 'detailed design', #17, 'design' ) ;
#266 = DIRECTION ( 'NONE',  ( 0.000000000000000000, 0.000000000000000000, -1.000000000000000000 ) ) ;
#267 = ORIENTED_EDGE ( 'NONE', *, *, #270, .T. ) ;
#268 = DIRECTION ( 'NONE',  ( -1.000000000000000000, -1.526087038050735012E-16, 0.000000000000000000 ) ) ;
#269 = EDGE_LOOP ( 'NONE', ( #155, #231 ) ) ;
#270 = EDGE_CURVE ( 'NONE', #349, #6, #218, .T. ) ;
#271 = DIRECTION ( 'NONE',  ( 1.526087038050735012E-16, -1.000000000000000000, 0.000000000000000000 ) ) ;
#272 = PRESENTATION_LAYER_ASSIGNMENT (  '', '', ( #100 ) ) ;
#273 = SURFACE_STYLE_USAGE ( .BOTH. , #365 ) ;
#274 = LINE ( 'NONE', #75, #59 ) ;
#275 = DIRECTION ( 'NONE',  ( 0.000000000000000000, -0.000000000000000000, 1.000000000000000000 ) ) ;
#276 = DIRECTION ( 'NONE',  ( 0.000000000000000000, 0.000000000000000000, 1.000000000000000000 ) ) ;
#277 = EDGE_CURVE ( 'NONE', #113, #349, #252, .T. ) ;
#278 = DIMENSIONAL_EXPONENTS ( 1.000000000000000000, 0.000000000000000000, 0.000000000000000000, 0.000000000000000000, 0.000000000000000000, 0.000000000000000000, 0.000000000000000000 ) ;
#279 = DIRECTION ( 'NONE',  ( -1.526087038050735012E-16, 1.000000000000000000, -0.000000000000000000 ) ) ;
#280 = AXIS2_PLACEMENT_3D ( 'NONE', #58, #346, #211 ) ;
#281 = CIRCLE ( 'NONE', #315, 0.4999999999999998335 ) ;
#282 = ORIENTED_EDGE ( 'NONE', *, *, #195, .T. ) ;
#283 = ORIENTED_EDGE ( 'NONE', *, *, #160, .T. ) ;
#284 = VECTOR ( 'NONE', #347, 39.37007874015748143 ) ;
#285 = ADVANCED_FACE ( 'NONE', ( #348 ), #57, .T. ) ;
#286 = EDGE_LOOP ( 'NONE', ( #87, #29, #241, #23, #237 ) ) ;
#287 = LINE ( 'NONE', #156, #284 ) ;
#288 =( CONVERSION_BASED_UNIT ( 'INCH', #176 ) LENGTH_UNIT ( ) NAMED_UNIT ( #336 ) );
#289 = STYLED_ITEM ( 'NONE', ( #145 ), #66 ) ;
#290 = ORIENTED_EDGE ( 'NONE', *, *, #160, .F. ) ;
#291 = DIRECTION ( 'NONE',  ( -1.000000000000000000, 0.000000000000000000, 0.000000000000000000 ) ) ;
#292 = UNCERTAINTY_MEASURE_WITH_UNIT (LENGTH_MEASURE( 1.000000000000000082E-05 ), #360, 'distance_accuracy_value', 'NONE');
#293 = DIRECTION ( 'NONE',  ( -1.000000000000000000, 0.000000000000000000, 0.000000000000000000 ) ) ;
#294 = SURFACE_STYLE_USAGE ( .BOTH. , #152 ) ;
#295 = DIRECTION ( 'NONE',  ( 0.000000000000000000, 0.000000000000000000, -1.000000000000000000 ) ) ;
#296 = CLOSED_SHELL ( 'NONE', ( #209, #39, #326, #30, #251 ) ) ;
#297 = LENGTH_MEASURE_WITH_UNIT ( LENGTH_MEASURE( 0.02539999999999999897 ), #242 );
#298 = MECHANICAL_DESIGN_GEOMETRIC_PRESENTATION_REPRESENTATION (  '', ( #289 ), #32 ) ;
#299 = CARTESIAN_POINT ( 'NONE',  ( -0.4999999999999997224, 4.000000000000000000, 0.000000000000000000 ) ) ;
#300 = DIRECTION ( 'NONE',  ( -1.526087038050735012E-16, 1.000000000000000000, -0.000000000000000000 ) ) ;
#301 = AXIS2_PLACEMENT_3D ( 'NONE', #328, #70, #245 ) ;
#302 = SURFACE_STYLE_FILL_AREA ( #72 ) ;
#303 = EDGE_CURVE ( 'NONE', #172, #113, #43, .T. ) ;
#304 =( NAMED_UNIT ( * ) PLANE_ANGLE_UNIT ( ) SI_UNIT ( $, .RADIAN. ) );
#305 = DIRECTION ( 'NONE',  ( -1.000000000000000000, 0.000000000000000000, 0.000000000000000000 ) ) ;
#306 = DIRECTION ( 'NONE',  ( -1.000000000000000000, 0.000000000000000000, 0.000000000000000000 ) ) ;
#307 = ORIENTED_EDGE ( 'NONE', *, *, #364, .F. ) ;
#308 = DIMENSIONAL_EXPONENTS ( 1.000000000000000000, 0.000000000000000000, 0.000000000000000000, 0.000000000000000000, 0.000000000000000000, 0.000000000000000000, 0.000000000000000000 ) ;
#309 = EDGE_LOOP ( 'NONE', ( #290, #339, #12, #197 ) ) ;
#310 = MECHANICAL_DESIGN_GEOMETRIC_PRESENTATION_REPRESENTATION (  '', ( #248 ), #83 ) ;
#311 = EDGE_LOOP ( 'NONE', ( #334, #84 ) ) ;
#312 = PRESENTATION_STYLE_ASSIGNMENT (( #358 ) ) ;
#313 = DIRECTION ( 'NONE',  ( -0.000000000000000000, -1.000000000000000000, -0.000000000000000000 ) ) ;
#314 = PRESENTATION_LAYER_ASSIGNMENT (  '', '', ( #42 ) ) ;
#315 = AXIS2_PLACEMENT_3D ( 'NONE', #321, #362, #99 ) ;
#316 = FILL_AREA_STYLE ('',( #85 ) ) ;
#317 = CARTESIAN_POINT ( 'NONE',  ( 0.000000000000000000, 0.000000000000000000, 0.000000000000000000 ) ) ;
#318 = VERTEX_POINT ( 'NONE', #5 ) ;
#319 = FACE_OUTER_BOUND ( 'NONE', #203, .T. ) ;
#320 = SURFACE_STYLE_FILL_AREA ( #359 ) ;
#321 = CARTESIAN_POINT ( 'NONE',  ( -6.123233995736764803E-17, 4.000000000000000000, 0.000000000000000000 ) ) ;
#322 = AXIS2_PLACEMENT_3D ( 'NONE', #345, #86, #146 ) ;
#323 = DIRECTION ( 'NONE',  ( 0.000000000000000000, 0.000000000000000000, -1.000000000000000000 ) ) ;
#324 = CYLINDRICAL_SURFACE ( 'NONE', #88, 0.4999999999999998335 ) ;
#325 = CYLINDRICAL_SURFACE ( 'NONE', #26, 0.4999999999999996669 ) ;
#326 = ADVANCED_FACE ( 'NONE', ( #343 ), #260, .T. ) ;
#327 = CARTESIAN_POINT ( 'NONE',  ( 0.000000000000000000, 1.500000000000000222, 0.000000000000000000 ) ) ;
#328 = CARTESIAN_POINT ( 'NONE',  ( 3.202894195553160804E-16, 1.499999999999999778, 0.000000000000000000 ) ) ;
#329 = COLOUR_RGB ( '',1.000000000000000000, 0.000000000000000000, 0.000000000000000000 ) ;
#330 = DIRECTION ( 'NONE',  ( 0.000000000000000000, 1.000000000000000000, 0.000000000000000000 ) ) ;
#331 = FILL_AREA_STYLE_COLOUR ( '', #10 ) ;
#332 = FILL_AREA_STYLE ('',( #230 ) ) ;
#333 = CIRCLE ( 'NONE', #239, 0.5000000000000000000 ) ;
#334 = ORIENTED_EDGE ( 'NONE', *, *, #258, .F. ) ;
#335 = LENGTH_MEASURE_WITH_UNIT ( LENGTH_MEASURE( 0.02539999999999999897 ), #107 );
#336 = DIMENSIONAL_EXPONENTS ( 1.000000000000000000, 0.000000000000000000, 0.000000000000000000, 0.000000000000000000, 0.000000000000000000, 0.000000000000000000, 0.000000000000000000 ) ;
#337 = ORIENTED_EDGE ( 'NONE', *, *, #303, .F. ) ;
#338 =( GEOMETRIC_REPRESENTATION_CONTEXT ( 3 ) GLOBAL_UNCERTAINTY_ASSIGNED_CONTEXT ( ( #163 ) ) GLOBAL_UNIT_ASSIGNED_CONTEXT ( ( #214, #144, #185 ) ) REPRESENTATION_CONTEXT ( 'NONE', 'WORKASPACE' ) );
#339 = ORIENTED_EDGE ( 'NONE', *, *, #225, .T. ) ;
#340 = CIRCLE ( 'NONE', #136, 0.4999999999999998335 ) ;
#341 = PRODUCT_DEFINITION_FORMATION_WITH_SPECIFIED_SOURCE ( 'ANY', '', #238, .NOT_KNOWN. ) ;
#342 = AXIS2_PLACEMENT_3D ( 'NONE', #148, #56, #253 ) ;
#343 = FACE_OUTER_BOUND ( 'NONE', #311, .T. ) ;
#344 = VERTEX_POINT ( 'NONE', #49 ) ;
#345 = CARTESIAN_POINT ( 'NONE',  ( -6.123233995736766036E-17, 0.5000000000000000000, 0.000000000000000000 ) ) ;
#346 = DIRECTION ( 'NONE',  ( -0.000000000000000000, -1.000000000000000000, -0.000000000000000000 ) ) ;
#347 = DIRECTION ( 'NONE',  ( -0.000000000000000000, -1.000000000000000000, -0.000000000000000000 ) ) ;
#348 = FACE_OUTER_BOUND ( 'NONE', #123, .T. ) ;
#349 = VERTEX_POINT ( 'NONE', #247 ) ;
#350 = CIRCLE ( 'NONE', #224, 0.4999999999999997780 ) ;
#351 =( NAMED_UNIT ( * ) SI_UNIT ( $, .STERADIAN. ) SOLID_ANGLE_UNIT ( ) );
#352 = AXIS2_PLACEMENT_3D ( 'NONE', #223, #219, #268 ) ;
#353 = DIRECTION ( 'NONE',  ( 0.000000000000000000, 0.000000000000000000, -1.000000000000000000 ) ) ;
#354 = CARTESIAN_POINT ( 'NONE',  ( -0.5000000000000000000, 0.5000000000000001110, 6.123233995736764803E-17 ) ) ;
#355 = ADVANCED_FACE ( 'NONE', ( #367 ), #98, .F. ) ;
#356 =( CONVERSION_BASED_UNIT ( 'INCH', #297 ) LENGTH_UNIT ( ) NAMED_UNIT ( #278 ) );
#357 = CARTESIAN_POINT ( 'NONE',  ( 0.000000000000000000, 0.5000000000000001110, 0.000000000000000000 ) ) ;
#358 = SURFACE_STYLE_USAGE ( .BOTH. , #114 ) ;
#359 = FILL_AREA_STYLE ('',( #64 ) ) ;
#360 =( CONVERSION_BASED_UNIT ( 'INCH', #125 ) LENGTH_UNIT ( ) NAMED_UNIT ( #28 ) );
#361 = UNCERTAINTY_MEASURE_WITH_UNIT (LENGTH_MEASURE( 1.000000000000000082E-05 ), #356, 'distance_accuracy_value', 'NONE');
#362 = DIRECTION ( 'NONE',  ( -1.526087038050735012E-16, 1.000000000000000000, -0.000000000000000000 ) ) ;
#363 = DIRECTION ( 'NONE',  ( 1.000000000000000000, 1.526087038050735012E-16, 0.000000000000000000 ) ) ;
#364 = EDGE_CURVE ( 'NONE', #344, #170, #164, .T. ) ;
#365 = SURFACE_SIDE_STYLE ('',( #246 ) ) ;
#366 = FACE_OUTER_BOUND ( 'NONE', #138, .T. ) ;
#367 = FACE_OUTER_BOUND ( 'NONE', #269, .T. ) ;
#368 = DIRECTION ( 'NONE',  ( 1.000000000000000000, 0.000000000000000000, 0.000000000000000000 ) ) ;
#369 = MECHANICAL_DESIGN_GEOMETRIC_PRESENTATION_REPRESENTATION (  '', ( #14 ), #74 ) ;
#370 = DIRECTION ( 'NONE',  ( -0.000000000000000000, -1.000000000000000000, -0.000000000000000000 ) ) ;
#371 = DIRECTION ( 'NONE',  ( -1.526087038050735012E-16, 1.000000000000000000, -0.000000000000000000 ) ) ;
#372 = CIRCLE ( 'NONE', #178, 0.5000000000000000000 ) ;
#373 = EDGE_CURVE ( 'NONE', #6, #172, #199, .T. ) ;
ENDSEC;
END-ISO-10303-21;
