ISO-10303-21;
HEADER;
FILE_DESCRIPTION (( 'STEP AP214' ),
    '1' );
FILE_NAME ('Micro_AEMM-010-3X.STEP',
    '2022-03-15T14:22:29',
    ( '' ),
    ( '' ),
    'SwSTEP 2.0',
    'SolidWorks 2022',
    '' );
FILE_SCHEMA (( 'AUTOMOTIVE_DESIGN' ));
ENDSEC;

DATA;
#1 = LINE ( 'NONE', #28, #198 ) ;
#2 =( NAMED_UNIT ( * ) PLANE_ANGLE_UNIT ( ) SI_UNIT ( $, .RADIAN. ) );
#3 = CARTESIAN_POINT ( 'NONE',  ( -0.01966531499999999225, 2.408306506897445027E-18, 0.1574800000000000366 ) ) ;
#4 = DIRECTION ( 'NONE',  ( 1.000000000000000000, 0.000000000000000000, 0.000000000000000000 ) ) ;
#5 = DIRECTION ( 'NONE',  ( 1.000000000000000000, 0.000000000000000000, 0.000000000000000000 ) ) ;
#6 = EDGE_CURVE ( 'NONE', #109, #19, #253, .T. ) ;
#7 =( CONVERSION_BASED_UNIT ( 'INCH', #52 ) LENGTH_UNIT ( ) NAMED_UNIT ( #230 ) );
#8 = ORIENTED_EDGE ( 'NONE', *, *, #293, .F. ) ;
#9 = AXIS2_PLACEMENT_3D ( 'NONE', #40, #59, #77 ) ;
#10 = CYLINDRICAL_SURFACE ( 'NONE', #252, 0.01966531500000000959 ) ;
#11 = APPLICATION_CONTEXT ( 'automotive_design' ) ;
#12 =( CONVERSION_BASED_UNIT ( 'INCH', #244 ) LENGTH_UNIT ( ) NAMED_UNIT ( #203 ) );
#13 = EDGE_CURVE ( 'NONE', #62, #275, #81, .T. ) ;
#14 = DIRECTION ( 'NONE',  ( -0.000000000000000000, -0.000000000000000000, -1.000000000000000000 ) ) ;
#15 =( GEOMETRIC_REPRESENTATION_CONTEXT ( 3 ) GLOBAL_UNCERTAINTY_ASSIGNED_CONTEXT ( ( #256 ) ) GLOBAL_UNIT_ASSIGNED_CONTEXT ( ( #7, #95, #73 ) ) REPRESENTATION_CONTEXT ( 'NONE', 'WORKASPACE' ) );
#16 = FACE_OUTER_BOUND ( 'NONE', #135, .T. ) ;
#17 = DIRECTION ( 'NONE',  ( -1.224646799147353207E-16, -0.000000000000000000, -1.000000000000000000 ) ) ;
#18 = DIRECTION ( 'NONE',  ( -0.7071067811865502373, 0.000000000000000000, -0.7071067811865446862 ) ) ;
#19 = VERTEX_POINT ( 'NONE', #161 ) ;
#20 = ORIENTED_EDGE ( 'NONE', *, *, #255, .F. ) ;
#21 = EDGE_CURVE ( 'NONE', #181, #158, #214, .T. ) ;
#22 = ORIENTED_EDGE ( 'NONE', *, *, #218, .T. ) ;
#23 = ORIENTED_EDGE ( 'NONE', *, *, #277, .T. ) ;
#24 = VECTOR ( 'NONE', #162, 39.37007874015747433 ) ;
#25 = DIRECTION ( 'NONE',  ( -1.000000000000000000, 0.000000000000000000, 0.000000000000000000 ) ) ;
#26 = EDGE_CURVE ( 'NONE', #159, #228, #1, .T. ) ;
#27 = DIRECTION ( 'NONE',  ( -1.224646799147353207E-16, -0.000000000000000000, -1.000000000000000000 ) ) ;
#28 = CARTESIAN_POINT ( 'NONE',  ( 0.01966531500000003735, 0.000000000000000000, 0.1574800000000000366 ) ) ;
#29 = CIRCLE ( 'NONE', #191, 0.01966531500000001306 ) ;
#30 = FACE_OUTER_BOUND ( 'NONE', #43, .T. ) ;
#31 = PRODUCT_DEFINITION ( 'UNKNOWN', '', #106, #38 ) ;
#32 = CARTESIAN_POINT ( 'NONE',  ( -0.01966531500000000959, 0.000000000000000000, 2.408306506897444257E-18 ) ) ;
#33 = CARTESIAN_POINT ( 'NONE',  ( 0.000000000000000000, 0.000000000000000000, 0.000000000000000000 ) ) ;
#34 = DIRECTION ( 'NONE',  ( -1.000000000000000000, 0.000000000000000000, 1.224646799147353207E-16 ) ) ;
#35 =( GEOMETRIC_REPRESENTATION_CONTEXT ( 3 ) GLOBAL_UNCERTAINTY_ASSIGNED_CONTEXT ( ( #215 ) ) GLOBAL_UNIT_ASSIGNED_CONTEXT ( ( #221, #2, #169 ) ) REPRESENTATION_CONTEXT ( 'NONE', 'WORKASPACE' ) );
#36 = FILL_AREA_STYLE ('',( #167 ) ) ;
#37 = FACE_OUTER_BOUND ( 'NONE', #105, .T. ) ;
#38 = PRODUCT_DEFINITION_CONTEXT ( 'detailed design', #11, 'design' ) ;
#39 = CIRCLE ( 'NONE', #46, 0.07874000000000000443 ) ;
#40 = CARTESIAN_POINT ( 'NONE',  ( 6.031497994593740586E-17, 0.000000000000000000, 0.4925091870401411831 ) ) ;
#41 = CARTESIAN_POINT ( 'NONE',  ( 0.07874000000000000443, 9.642868896486258509E-18, 1.968503999999999809 ) ) ;
#42 = ORIENTED_EDGE ( 'NONE', *, *, #13, .F. ) ;
#43 = EDGE_LOOP ( 'NONE', ( #44, #152, #66, #131 ) ) ;
#44 = ORIENTED_EDGE ( 'NONE', *, *, #68, .F. ) ;
#45 = VERTEX_POINT ( 'NONE', #96 ) ;
#46 = AXIS2_PLACEMENT_3D ( 'NONE', #298, #284, #90 ) ;
#47 = ORIENTED_EDGE ( 'NONE', *, *, #180, .F. ) ;
#48 = PRODUCT ( 'Micro_AEMM-010-3X', 'Micro_AEMM-010-3X', '', ( #238 ) ) ;
#49 = DIRECTION ( 'NONE',  ( 0.7071067811865502373, 8.659560562354966138E-17, -0.7071067811865446862 ) ) ;
#50 = CARTESIAN_POINT ( 'NONE',  ( 0.000000000000000000, 0.000000000000000000, 0.000000000000000000 ) ) ;
#51 = MECHANICAL_DESIGN_GEOMETRIC_PRESENTATION_REPRESENTATION (  '', ( #133 ), #35 ) ;
#52 = LENGTH_MEASURE_WITH_UNIT ( LENGTH_MEASURE( 0.02539999999999999897 ), #115 );
#53 = CARTESIAN_POINT ( 'NONE',  ( 0.000000000000000000, 0.000000000000000000, 1.953504000000000129 ) ) ;
#54 = EDGE_LOOP ( 'NONE', ( #156, #20, #23, #165 ) ) ;
#55 = DIRECTION ( 'NONE',  ( 1.000000000000000000, 0.000000000000000000, 0.000000000000000000 ) ) ;
#56 = EDGE_CURVE ( 'NONE', #62, #110, #72, .T. ) ;
#57 = AXIS2_PLACEMENT_3D ( 'NONE', #239, #14, #122 ) ;
#58 = DIRECTION ( 'NONE',  ( 0.000000000000000000, 0.000000000000000000, -1.000000000000000000 ) ) ;
#59 = DIRECTION ( 'NONE',  ( -1.224646799147353207E-16, -0.000000000000000000, -1.000000000000000000 ) ) ;
#60 = AXIS2_PLACEMENT_3D ( 'NONE', #234, #279, #69 ) ;
#61 = CYLINDRICAL_SURFACE ( 'NONE', #57, 0.07874000000000000443 ) ;
#62 = VERTEX_POINT ( 'NONE', #237 ) ;
#63 = ORIENTED_EDGE ( 'NONE', *, *, #299, .T. ) ;
#64 = EDGE_CURVE ( 'NONE', #45, #19, #219, .T. ) ;
#65 = STYLED_ITEM ( 'NONE', ( #194 ), #273 ) ;
#66 = ORIENTED_EDGE ( 'NONE', *, *, #180, .T. ) ;
#67 = ORIENTED_EDGE ( 'NONE', *, *, #299, .F. ) ;
#68 = EDGE_CURVE ( 'NONE', #109, #159, #296, .T. ) ;
#69 = DIRECTION ( 'NONE',  ( -1.000000000000000000, 0.000000000000000000, 0.000000000000000000 ) ) ;
#70 = AXIS2_PLACEMENT_3D ( 'NONE', #217, #240, #55 ) ;
#71 = DIRECTION ( 'NONE',  ( -1.224646799147353207E-16, -0.000000000000000000, -1.000000000000000000 ) ) ;
#72 = LINE ( 'NONE', #209, #143 ) ;
#73 =( NAMED_UNIT ( * ) SI_UNIT ( $, .STERADIAN. ) SOLID_ANGLE_UNIT ( ) );
#74 = CARTESIAN_POINT ( 'NONE',  ( 1.928573779297252010E-17, 0.000000000000000000, 0.1574800000000000366 ) ) ;
#75 = DIRECTION ( 'NONE',  ( -1.224646799147353207E-16, -0.000000000000000000, -1.000000000000000000 ) ) ;
#76 = DIRECTION ( 'NONE',  ( 1.224646799147353207E-16, 0.000000000000000000, 1.000000000000000000 ) ) ;
#77 = DIRECTION ( 'NONE',  ( 1.000000000000000000, 0.000000000000000000, 0.000000000000000000 ) ) ;
#78 = LINE ( 'NONE', #199, #245 ) ;
#79 = PRESENTATION_LAYER_ASSIGNMENT (  '', '', ( #65 ) ) ;
#80 = CARTESIAN_POINT ( 'NONE',  ( 2.949324855037697299E-34, 0.000000000000000000, 2.408306506897443486E-18 ) ) ;
#81 = CIRCLE ( 'NONE', #290, 0.06374000000000018540 ) ;
#82 = PLANE ( 'NONE',  #128 ) ;
#83 = CIRCLE ( 'NONE', #280, 0.01966531500000000265 ) ;
#84 = EDGE_LOOP ( 'NONE', ( #8, #67, #202, #201 ) ) ;
#85 = ORIENTED_EDGE ( 'NONE', *, *, #272, .F. ) ;
#86 = PRODUCT_DEFINITION_SHAPE ( 'NONE', 'NONE',  #31 ) ;
#87 = CONICAL_SURFACE ( 'NONE', #249, 0.01966531500000001306, 0.1745329251994338360 ) ;
#88 = ORIENTED_EDGE ( 'NONE', *, *, #281, .F. ) ;
#89 = ORIENTED_EDGE ( 'NONE', *, *, #21, .F. ) ;
#90 = DIRECTION ( 'NONE',  ( 1.000000000000000000, 0.000000000000000000, 0.000000000000000000 ) ) ;
#91 = CYLINDRICAL_SURFACE ( 'NONE', #98, 0.07874000000000000443 ) ;
#92 = SURFACE_SIDE_STYLE ('',( #264 ) ) ;
#93 = ADVANCED_FACE ( 'NONE', ( #140 ), #192, .F. ) ;
#94 = ORIENTED_EDGE ( 'NONE', *, *, #6, .T. ) ;
#95 =( NAMED_UNIT ( * ) PLANE_ANGLE_UNIT ( ) SI_UNIT ( $, .RADIAN. ) );
#96 = CARTESIAN_POINT ( 'NONE',  ( 0.01966531500000000265, 2.408306506897443871E-18, 4.739000847409537175E-34 ) ) ;
#97 = CARTESIAN_POINT ( 'NONE',  ( -0.07874000000000000443, 0.000000000000000000, 1.968503999999999809 ) ) ;
#98 = AXIS2_PLACEMENT_3D ( 'NONE', #185, #148, #241 ) ;
#99 = FILL_AREA_STYLE ('',( #170 ) ) ;
#100 = DIRECTION ( 'NONE',  ( -1.224646799147353207E-16, -0.000000000000000000, -1.000000000000000000 ) ) ;
#101 =( GEOMETRIC_REPRESENTATION_CONTEXT ( 3 ) GLOBAL_UNCERTAINTY_ASSIGNED_CONTEXT ( ( #125 ) ) GLOBAL_UNIT_ASSIGNED_CONTEXT ( ( #12, #174, #220 ) ) REPRESENTATION_CONTEXT ( 'NONE', 'WORKASPACE' ) );
#102 = FACE_OUTER_BOUND ( 'NONE', #176, .T. ) ;
#103 = EDGE_CURVE ( 'NONE', #228, #158, #266, .T. ) ;
#104 = CARTESIAN_POINT ( 'NONE',  ( 0.000000000000000000, 0.000000000000000000, 0.000000000000000000 ) ) ;
#105 = EDGE_LOOP ( 'NONE', ( #146, #248 ) ) ;
#106 = PRODUCT_DEFINITION_FORMATION_WITH_SPECIFIED_SOURCE ( 'ANY', '', #48, .NOT_KNOWN. ) ;
#107 = ORIENTED_EDGE ( 'NONE', *, *, #6, .F. ) ;
#108 = EDGE_CURVE ( 'NONE', #181, #110, #196, .T. ) ;
#109 = VERTEX_POINT ( 'NONE', #207 ) ;
#110 = VERTEX_POINT ( 'NONE', #235 ) ;
#111 = ADVANCED_FACE ( 'NONE', ( #187 ), #257, .T. ) ;
#112 = CARTESIAN_POINT ( 'NONE',  ( 0.000000000000000000, 0.000000000000000000, 0.000000000000000000 ) ) ;
#113 = DIRECTION ( 'NONE',  ( 0.000000000000000000, 0.000000000000000000, 1.000000000000000000 ) ) ;
#114 = ADVANCED_FACE ( 'NONE', ( #30 ), #141, .T. ) ;
#115 =( LENGTH_UNIT ( ) NAMED_UNIT ( * ) SI_UNIT ( $, .METRE. ) );
#116 = AXIS2_PLACEMENT_3D ( 'NONE', #222, #58, #168 ) ;
#117 = CARTESIAN_POINT ( 'NONE',  ( 6.031497994593740586E-17, 0.000000000000000000, 0.4925091870401411831 ) ) ;
#118 = DIRECTION ( 'NONE',  ( 1.000000000000000000, 0.000000000000000000, 0.000000000000000000 ) ) ;
#119 = APPLICATION_PROTOCOL_DEFINITION ( 'draft international standard', 'automotive_design', 1998, #178 ) ;
#120 = DIRECTION ( 'NONE',  ( 0.1736481776669313304, 0.000000000000000000, 0.9848077530122077983 ) ) ;
#121 = DIRECTION ( 'NONE',  ( 0.000000000000000000, 0.000000000000000000, 1.000000000000000000 ) ) ;
#122 = DIRECTION ( 'NONE',  ( -1.000000000000000000, 0.000000000000000000, 0.000000000000000000 ) ) ;
#123 = EDGE_CURVE ( 'NONE', #110, #181, #39, .T. ) ;
#124 = MECHANICAL_DESIGN_GEOMETRIC_PRESENTATION_REPRESENTATION (  '', ( #65 ), #101 ) ;
#125 = UNCERTAINTY_MEASURE_WITH_UNIT (LENGTH_MEASURE( 1.000000000000000082E-05 ), #12, 'distance_accuracy_value', 'NONE');
#126 = CARTESIAN_POINT ( 'NONE',  ( 1.928573779297252010E-17, 0.000000000000000000, 0.1574800000000000366 ) ) ;
#127 = DIRECTION ( 'NONE',  ( 0.000000000000000000, 0.000000000000000000, 1.000000000000000000 ) ) ;
#128 = AXIS2_PLACEMENT_3D ( 'NONE', #269, #127, #289 ) ;
#129 = DIRECTION ( 'NONE',  ( 1.000000000000000000, 0.000000000000000000, 0.000000000000000000 ) ) ;
#130 = DIRECTION ( 'NONE',  ( -0.000000000000000000, -0.000000000000000000, -1.000000000000000000 ) ) ;
#131 = ORIENTED_EDGE ( 'NONE', *, *, #26, .F. ) ;
#132 = AXIS2_PLACEMENT_3D ( 'NONE', #33, #121, #145 ) ;
#133 = STYLED_ITEM ( 'NONE', ( #186 ), #226 ) ;
#134 = ORIENTED_EDGE ( 'NONE', *, *, #108, .T. ) ;
#135 = EDGE_LOOP ( 'NONE', ( #134, #137, #47, #89 ) ) ;
#136 = CIRCLE ( 'NONE', #9, 0.07874000000000000443 ) ;
#137 = ORIENTED_EDGE ( 'NONE', *, *, #281, .T. ) ;
#138 = VECTOR ( 'NONE', #27, 39.37007874015748143 ) ;
#139 = FACE_OUTER_BOUND ( 'NONE', #182, .T. ) ;
#140 = FACE_OUTER_BOUND ( 'NONE', #231, .T. ) ;
#141 = CONICAL_SURFACE ( 'NONE', #164, 0.01966531500000001306, 0.1745329251994338360 ) ;
#142 = DIRECTION ( 'NONE',  ( 1.000000000000000000, 0.000000000000000000, -0.000000000000000000 ) ) ;
#143 = VECTOR ( 'NONE', #49, 39.37007874015748854 ) ;
#144 = DIRECTION ( 'NONE',  ( -0.000000000000000000, -0.000000000000000000, -1.000000000000000000 ) ) ;
#145 = DIRECTION ( 'NONE',  ( 1.000000000000000000, 0.000000000000000000, 0.000000000000000000 ) ) ;
#146 = ORIENTED_EDGE ( 'NONE', *, *, #255, .T. ) ;
#147 = ADVANCED_FACE ( 'NONE', ( #183 ), #175, .T. ) ;
#148 = DIRECTION ( 'NONE',  ( -0.000000000000000000, -0.000000000000000000, -1.000000000000000000 ) ) ;
#149 = VECTOR ( 'NONE', #18, 39.37007874015748854 ) ;
#150 = ADVANCED_FACE ( 'NONE', ( #139 ), #91, .T. ) ;
#151 = CARTESIAN_POINT ( 'NONE',  ( -0.06374000000000018540, 0.000000000000000000, 1.968503999999999809 ) ) ;
#152 = ORIENTED_EDGE ( 'NONE', *, *, #293, .T. ) ;
#153 = ORIENTED_EDGE ( 'NONE', *, *, #277, .F. ) ;
#154 = AXIS2_PLACEMENT_3D ( 'NONE', #112, #213, #142 ) ;
#155 = CIRCLE ( 'NONE', #70, 0.06374000000000018540 ) ;
#156 = ORIENTED_EDGE ( 'NONE', *, *, #56, .F. ) ;
#157 = VECTOR ( 'NONE', #144, 39.37007874015748143 ) ;
#158 = VERTEX_POINT ( 'NONE', #292 ) ;
#159 = VERTEX_POINT ( 'NONE', #195 ) ;
#160 = DIRECTION ( 'NONE',  ( 1.000000000000000000, 0.000000000000000000, 0.000000000000000000 ) ) ;
#161 = CARTESIAN_POINT ( 'NONE',  ( -0.01966531500000000265, 0.000000000000000000, 4.816613013794886973E-18 ) ) ;
#162 = DIRECTION ( 'NONE',  ( -0.1736481776669311639, 2.126576849575782392E-17, 0.9848077530122080203 ) ) ;
#163 = DIRECTION ( 'NONE',  ( 0.000000000000000000, 0.000000000000000000, -1.000000000000000000 ) ) ;
#164 = AXIS2_PLACEMENT_3D ( 'NONE', #74, #76, #118 ) ;
#165 = ORIENTED_EDGE ( 'NONE', *, *, #123, .F. ) ;
#166 = CARTESIAN_POINT ( 'NONE',  ( 2.949324855037697299E-34, 0.000000000000000000, 2.408306506897443486E-18 ) ) ;
#167 = FILL_AREA_STYLE_COLOUR ( '', #229 ) ;
#168 = DIRECTION ( 'NONE',  ( -1.000000000000000000, 0.000000000000000000, 0.000000000000000000 ) ) ;
#169 =( NAMED_UNIT ( * ) SI_UNIT ( $, .STERADIAN. ) SOLID_ANGLE_UNIT ( ) );
#170 = FILL_AREA_STYLE_COLOUR ( '', #259 ) ;
#171 = SURFACE_STYLE_FILL_AREA ( #99 ) ;
#172 = SURFACE_STYLE_USAGE ( .BOTH. , #291 ) ;
#173 = ADVANCED_FACE ( 'NONE', ( #37 ), #82, .T. ) ;
#174 =( NAMED_UNIT ( * ) PLANE_ANGLE_UNIT ( ) SI_UNIT ( $, .RADIAN. ) );
#175 = CONICAL_SURFACE ( 'NONE', #60, 0.06374000000000018540, 0.7853981633974522758 ) ;
#176 = EDGE_LOOP ( 'NONE', ( #42, #250, #177, #153 ) ) ;
#177 = ORIENTED_EDGE ( 'NONE', *, *, #108, .F. ) ;
#178 = APPLICATION_CONTEXT ( 'automotive_design' ) ;
#179 = AXIS2_PLACEMENT_3D ( 'NONE', #53, #163, #5 ) ;
#180 = EDGE_CURVE ( 'NONE', #158, #228, #136, .T. ) ;
#181 = VERTEX_POINT ( 'NONE', #225 ) ;
#182 = EDGE_LOOP ( 'NONE', ( #88, #205, #232, #278 ) ) ;
#183 = FACE_OUTER_BOUND ( 'NONE', #54, .T. ) ;
#184 =( LENGTH_UNIT ( ) NAMED_UNIT ( * ) SI_UNIT ( $, .METRE. ) );
#185 = CARTESIAN_POINT ( 'NONE',  ( 0.000000000000000000, 0.000000000000000000, 1.968503999999999809 ) ) ;
#186 = PRESENTATION_STYLE_ASSIGNMENT (( #193 ) ) ;
#187 = FACE_OUTER_BOUND ( 'NONE', #274, .T. ) ;
#188 = ADVANCED_FACE ( 'NONE', ( #102 ), #204, .T. ) ;
#189 = CARTESIAN_POINT ( 'NONE',  ( 0.000000000000000000, 0.000000000000000000, 1.968503999999999809 ) ) ;
#190 = CARTESIAN_POINT ( 'NONE',  ( 1.928573779297252010E-17, 0.000000000000000000, 0.1574800000000000366 ) ) ;
#191 = AXIS2_PLACEMENT_3D ( 'NONE', #190, #75, #260 ) ;
#192 = PLANE ( 'NONE',  #154 ) ;
#193 = SURFACE_STYLE_USAGE ( .BOTH. , #92 ) ;
#194 = PRESENTATION_STYLE_ASSIGNMENT (( #172 ) ) ;
#195 = CARTESIAN_POINT ( 'NONE',  ( 0.01966531500000003735, 0.000000000000000000, 0.1574800000000000366 ) ) ;
#196 = CIRCLE ( 'NONE', #179, 0.07874000000000000443 ) ;
#197 = LINE ( 'NONE', #151, #149 ) ;
#198 = VECTOR ( 'NONE', #120, 39.37007874015748143 ) ;
#199 = CARTESIAN_POINT ( 'NONE',  ( 0.01966531500000000959, 2.408306506897444257E-18, -2.408306506897444257E-18 ) ) ;
#200 =( LENGTH_UNIT ( ) NAMED_UNIT ( * ) SI_UNIT ( $, .METRE. ) );
#201 = ORIENTED_EDGE ( 'NONE', *, *, #103, .T. ) ;
#202 = ORIENTED_EDGE ( 'NONE', *, *, #26, .T. ) ;
#203 = DIMENSIONAL_EXPONENTS ( 1.000000000000000000, 0.000000000000000000, 0.000000000000000000, 0.000000000000000000, 0.000000000000000000, 0.000000000000000000, 0.000000000000000000 ) ;
#204 = CONICAL_SURFACE ( 'NONE', #116, 0.06374000000000018540, 0.7853981633974522758 ) ;
#205 = ORIENTED_EDGE ( 'NONE', *, *, #123, .T. ) ;
#206 = ADVANCED_FACE ( 'NONE', ( #243 ), #10, .T. ) ;
#207 = CARTESIAN_POINT ( 'NONE',  ( -0.01966531499999999225, 6.025587701691850612E-18, 0.1574800000000000366 ) ) ;
#208 = DIRECTION ( 'NONE',  ( -1.224646799147353207E-16, -0.000000000000000000, -1.000000000000000000 ) ) ;
#209 = CARTESIAN_POINT ( 'NONE',  ( 0.06374000000000018540, 7.805898697765251255E-18, 1.968503999999999809 ) ) ;
#210 = LINE ( 'NONE', #3, #24 ) ;
#211 = CLOSED_SHELL ( 'NONE', ( #111, #114, #188, #242, #150, #173, #147, #212, #206, #93 ) ) ;
#212 = ADVANCED_FACE ( 'NONE', ( #270 ), #87, .T. ) ;
#213 = DIRECTION ( 'NONE',  ( 0.000000000000000000, 0.000000000000000000, 1.000000000000000000 ) ) ;
#214 = LINE ( 'NONE', #97, #157 ) ;
#215 = UNCERTAINTY_MEASURE_WITH_UNIT (LENGTH_MEASURE( 1.000000000000000082E-05 ), #221, 'distance_accuracy_value', 'NONE');
#216 = SHAPE_DEFINITION_REPRESENTATION ( #86, #226 ) ;
#217 = CARTESIAN_POINT ( 'NONE',  ( 0.000000000000000000, 0.000000000000000000, 1.968503999999999809 ) ) ;
#218 = EDGE_CURVE ( 'NONE', #19, #45, #83, .T. ) ;
#219 = CIRCLE ( 'NONE', #224, 0.01966531500000000265 ) ;
#220 =( NAMED_UNIT ( * ) SI_UNIT ( $, .STERADIAN. ) SOLID_ANGLE_UNIT ( ) );
#221 =( CONVERSION_BASED_UNIT ( 'INCH', #262 ) LENGTH_UNIT ( ) NAMED_UNIT ( #294 ) );
#222 = CARTESIAN_POINT ( 'NONE',  ( 0.000000000000000000, 0.000000000000000000, 1.968503999999999809 ) ) ;
#223 = DIRECTION ( 'NONE',  ( 1.224646799147353207E-16, 0.000000000000000000, 1.000000000000000000 ) ) ;
#224 = AXIS2_PLACEMENT_3D ( 'NONE', #166, #208, #263 ) ;
#225 = CARTESIAN_POINT ( 'NONE',  ( -0.07874000000000000443, 0.000000000000000000, 1.953504000000000129 ) ) ;
#226 = ADVANCED_BREP_SHAPE_REPRESENTATION ( 'Micro_AEMM-010-3X', ( #273, #132 ), #15 ) ;
#227 = CARTESIAN_POINT ( 'NONE',  ( -0.06374000000000018540, 0.000000000000000000, 1.968503999999999809 ) ) ;
#228 = VERTEX_POINT ( 'NONE', #288 ) ;
#229 = COLOUR_RGB ( '',0.7921568627450980005, 0.8196078431372548767, 0.9333333333333333481 ) ;
#230 = DIMENSIONAL_EXPONENTS ( 1.000000000000000000, 0.000000000000000000, 0.000000000000000000, 0.000000000000000000, 0.000000000000000000, 0.000000000000000000, 0.000000000000000000 ) ;
#231 = EDGE_LOOP ( 'NONE', ( #22, #251 ) ) ;
#232 = ORIENTED_EDGE ( 'NONE', *, *, #21, .T. ) ;
#233 = VECTOR ( 'NONE', #130, 39.37007874015748143 ) ;
#234 = CARTESIAN_POINT ( 'NONE',  ( 0.000000000000000000, 0.000000000000000000, 1.968503999999999809 ) ) ;
#235 = CARTESIAN_POINT ( 'NONE',  ( 0.07874000000000000443, 9.642868896486258509E-18, 1.953504000000000129 ) ) ;
#236 = DIRECTION ( 'NONE',  ( -1.000000000000000000, 0.000000000000000000, 1.224646799147353207E-16 ) ) ;
#237 = CARTESIAN_POINT ( 'NONE',  ( 0.06374000000000018540, 8.724383797125754882E-18, 1.968503999999999809 ) ) ;
#238 = PRODUCT_CONTEXT ( 'NONE', #178, 'mechanical' ) ;
#239 = CARTESIAN_POINT ( 'NONE',  ( 0.000000000000000000, 0.000000000000000000, 1.968503999999999809 ) ) ;
#240 = DIRECTION ( 'NONE',  ( 0.000000000000000000, 0.000000000000000000, 1.000000000000000000 ) ) ;
#241 = DIRECTION ( 'NONE',  ( -1.000000000000000000, 0.000000000000000000, 0.000000000000000000 ) ) ;
#242 = ADVANCED_FACE ( 'NONE', ( #16 ), #61, .T. ) ;
#243 = FACE_OUTER_BOUND ( 'NONE', #247, .T. ) ;
#244 = LENGTH_MEASURE_WITH_UNIT ( LENGTH_MEASURE( 0.02539999999999999897 ), #200 );
#245 = VECTOR ( 'NONE', #100, 39.37007874015748143 ) ;
#246 = LINE ( 'NONE', #41, #233 ) ;
#247 = EDGE_LOOP ( 'NONE', ( #85, #63, #94, #285 ) ) ;
#248 = ORIENTED_EDGE ( 'NONE', *, *, #13, .T. ) ;
#249 = AXIS2_PLACEMENT_3D ( 'NONE', #126, #223, #129 ) ;
#250 = ORIENTED_EDGE ( 'NONE', *, *, #56, .T. ) ;
#251 = ORIENTED_EDGE ( 'NONE', *, *, #64, .T. ) ;
#252 = AXIS2_PLACEMENT_3D ( 'NONE', #104, #265, #34 ) ;
#253 = LINE ( 'NONE', #32, #138 ) ;
#254 = ORIENTED_EDGE ( 'NONE', *, *, #218, .F. ) ;
#255 = EDGE_CURVE ( 'NONE', #275, #62, #155, .T. ) ;
#256 = UNCERTAINTY_MEASURE_WITH_UNIT (LENGTH_MEASURE( 1.000000000000000082E-05 ), #7, 'distance_accuracy_value', 'NONE');
#257 = CYLINDRICAL_SURFACE ( 'NONE', #276, 0.01966531500000000959 ) ;
#258 = AXIS2_PLACEMENT_3D ( 'NONE', #117, #261, #4 ) ;
#259 = COLOUR_RGB ( '',0.7921568627450980005, 0.8196078431372548767, 0.9333333333333333481 ) ;
#260 = DIRECTION ( 'NONE',  ( -1.000000000000000000, 0.000000000000000000, 0.000000000000000000 ) ) ;
#261 = DIRECTION ( 'NONE',  ( -1.224646799147353207E-16, -0.000000000000000000, -1.000000000000000000 ) ) ;
#262 = LENGTH_MEASURE_WITH_UNIT ( LENGTH_MEASURE( 0.02539999999999999897 ), #184 );
#263 = DIRECTION ( 'NONE',  ( -1.000000000000000000, 0.000000000000000000, 1.224646799147353207E-16 ) ) ;
#264 = SURFACE_STYLE_FILL_AREA ( #36 ) ;
#265 = DIRECTION ( 'NONE',  ( -1.224646799147353207E-16, -0.000000000000000000, -1.000000000000000000 ) ) ;
#266 = CIRCLE ( 'NONE', #258, 0.07874000000000000443 ) ;
#267 = PRESENTATION_LAYER_ASSIGNMENT (  '', '', ( #133 ) ) ;
#268 = APPLICATION_PROTOCOL_DEFINITION ( 'draft international standard', 'automotive_design', 1998, #11 ) ;
#269 = CARTESIAN_POINT ( 'NONE',  ( 0.000000000000000000, 0.000000000000000000, 1.968503999999999809 ) ) ;
#270 = FACE_OUTER_BOUND ( 'NONE', #84, .T. ) ;
#271 = DIRECTION ( 'NONE',  ( -1.000000000000000000, 0.000000000000000000, 1.224646799147353207E-16 ) ) ;
#272 = EDGE_CURVE ( 'NONE', #159, #45, #78, .T. ) ;
#273 = MANIFOLD_SOLID_BREP ( 'Cut-Revolve1', #211 ) ;
#274 = EDGE_LOOP ( 'NONE', ( #295, #297, #254, #107 ) ) ;
#275 = VERTEX_POINT ( 'NONE', #227 ) ;
#276 = AXIS2_PLACEMENT_3D ( 'NONE', #50, #71, #236 ) ;
#277 = EDGE_CURVE ( 'NONE', #275, #181, #197, .T. ) ;
#278 = ORIENTED_EDGE ( 'NONE', *, *, #103, .F. ) ;
#279 = DIRECTION ( 'NONE',  ( 0.000000000000000000, 0.000000000000000000, -1.000000000000000000 ) ) ;
#280 = AXIS2_PLACEMENT_3D ( 'NONE', #80, #17, #271 ) ;
#281 = EDGE_CURVE ( 'NONE', #110, #228, #246, .T. ) ;
#282 = CARTESIAN_POINT ( 'NONE',  ( 1.928573779297252010E-17, 0.000000000000000000, 0.1574800000000000366 ) ) ;
#283 = DIRECTION ( 'NONE',  ( -1.224646799147353207E-16, -0.000000000000000000, -1.000000000000000000 ) ) ;
#284 = DIRECTION ( 'NONE',  ( 0.000000000000000000, 0.000000000000000000, -1.000000000000000000 ) ) ;
#285 = ORIENTED_EDGE ( 'NONE', *, *, #64, .F. ) ;
#286 = AXIS2_PLACEMENT_3D ( 'NONE', #282, #283, #25 ) ;
#287 = PRODUCT_RELATED_PRODUCT_CATEGORY ( 'part', '', ( #48 ) ) ;
#288 = CARTESIAN_POINT ( 'NONE',  ( 0.07874000000000007382, 9.642868896486267753E-18, 0.4925091870401411831 ) ) ;
#289 = DIRECTION ( 'NONE',  ( 1.000000000000000000, 0.000000000000000000, -0.000000000000000000 ) ) ;
#290 = AXIS2_PLACEMENT_3D ( 'NONE', #189, #113, #160 ) ;
#291 = SURFACE_SIDE_STYLE ('',( #171 ) ) ;
#292 = CARTESIAN_POINT ( 'NONE',  ( -0.07873999999999993504, 0.000000000000000000, 0.4925091870401411831 ) ) ;
#293 = EDGE_CURVE ( 'NONE', #109, #158, #210, .T. ) ;
#294 = DIMENSIONAL_EXPONENTS ( 1.000000000000000000, 0.000000000000000000, 0.000000000000000000, 0.000000000000000000, 0.000000000000000000, 0.000000000000000000, 0.000000000000000000 ) ;
#295 = ORIENTED_EDGE ( 'NONE', *, *, #68, .T. ) ;
#296 = CIRCLE ( 'NONE', #286, 0.01966531500000001306 ) ;
#297 = ORIENTED_EDGE ( 'NONE', *, *, #272, .T. ) ;
#298 = CARTESIAN_POINT ( 'NONE',  ( 0.000000000000000000, 0.000000000000000000, 1.953504000000000129 ) ) ;
#299 = EDGE_CURVE ( 'NONE', #159, #109, #29, .T. ) ;
ENDSEC;
END-ISO-10303-21;
