ISO-10303-21;
HEADER;
FILE_DESCRIPTION (( 'STEP AP214' ),
    '1' );
FILE_NAME ('Micro_MMBM-010-15X.STEP',
    '2021-09-03T16:26:01',
    ( '' ),
    ( '' ),
    'SwSTEP 2.0',
    'SolidWorks 2020',
    '' );
FILE_SCHEMA (( 'AUTOMOTIVE_DESIGN' ));
ENDSEC;

DATA;
#1 = EDGE_CURVE ( 'NONE', #30, #357, #318, .T. ) ;
#2 = EDGE_LOOP ( 'NONE', ( #27, #117, #84, #7 ) ) ;
#3 = CIRCLE ( 'NONE', #155, 0.1181100000000000066 ) ;
#4 = VECTOR ( 'NONE', #336, 39.37007874015748143 ) ;
#5 = EDGE_LOOP ( 'NONE', ( #54, #198, #225, #145 ) ) ;
#6 = ORIENTED_EDGE ( 'NONE', *, *, #245, .F. ) ;
#7 = ORIENTED_EDGE ( 'NONE', *, *, #100, .F. ) ;
#8 = PLANE ( 'NONE',  #143 ) ;
#9 =( CONVERSION_BASED_UNIT ( 'INCH', #59 ) LENGTH_UNIT ( ) NAMED_UNIT ( #195 ) );
#10 = FACE_OUTER_BOUND ( 'NONE', #296, .T. ) ;
#11 = DIRECTION ( 'NONE',  ( 0.0000000000000000000, 0.0000000000000000000, -1.000000000000000000 ) ) ;
#12 = FACE_OUTER_BOUND ( 'NONE', #5, .T. ) ;
#13 = CARTESIAN_POINT ( 'NONE',  ( 0.0000000000000000000, 0.0000000000000000000, 0.0000000000000000000 ) ) ;
#14 = AXIS2_PLACEMENT_3D ( 'NONE', #264, #89, #269 ) ;
#15 = DIRECTION ( 'NONE',  ( -0.0000000000000000000, -0.0000000000000000000, -1.000000000000000000 ) ) ;
#16 = DIRECTION ( 'NONE',  ( 0.7071067811865358044, 8.659560562354788645E-17, -0.7071067811865590080 ) ) ;
#17 = CARTESIAN_POINT ( 'NONE',  ( 0.0000000000000000000, 0.0000000000000000000, 2.244094000000000033 ) ) ;
#18 = ORIENTED_EDGE ( 'NONE', *, *, #266, .T. ) ;
#19 =( GEOMETRIC_REPRESENTATION_CONTEXT ( 3 ) GLOBAL_UNCERTAINTY_ASSIGNED_CONTEXT ( ( #346 ) ) GLOBAL_UNIT_ASSIGNED_CONTEXT ( ( #9, #214, #38 ) ) REPRESENTATION_CONTEXT ( 'NONE', 'WORKASPACE' ) );
#20 = DIRECTION ( 'NONE',  ( -0.0000000000000000000, -0.0000000000000000000, -1.000000000000000000 ) ) ;
#21 = FILL_AREA_STYLE ('',( #287 ) ) ;
#22 = PRESENTATION_LAYER_ASSIGNMENT (  '', '', ( #203 ) ) ;
#23 = AXIS2_PLACEMENT_3D ( 'NONE', #364, #93, #240 ) ;
#24 = ORIENTED_EDGE ( 'NONE', *, *, #270, .F. ) ;
#25 = ORIENTED_EDGE ( 'NONE', *, *, #121, .F. ) ;
#26 = CARTESIAN_POINT ( 'NONE',  ( 0.0000000000000000000, 0.0000000000000000000, 2.244094000000000033 ) ) ;
#27 = ORIENTED_EDGE ( 'NONE', *, *, #358, .T. ) ;
#28 = VERTEX_POINT ( 'NONE', #53 ) ;
#29 = EDGE_LOOP ( 'NONE', ( #222, #18 ) ) ;
#30 = VERTEX_POINT ( 'NONE', #230 ) ;
#31 = EDGE_CURVE ( 'NONE', #144, #146, #298, .T. ) ;
#32 = FACE_OUTER_BOUND ( 'NONE', #328, .T. ) ;
#33 = ADVANCED_FACE ( 'NONE', ( #300 ), #182, .T. ) ;
#34 = AXIS2_PLACEMENT_3D ( 'NONE', #91, #267, #124 ) ;
#35 = CARTESIAN_POINT ( 'NONE',  ( -0.01968303149999999294, 0.0000000000000000000, 0.03937000000000000222 ) ) ;
#36 = SURFACE_STYLE_FILL_AREA ( #299 ) ;
#37 = ADVANCED_FACE ( 'NONE', ( #152 ), #133, .T. ) ;
#38 =( NAMED_UNIT ( * ) SI_UNIT ( $, .STERADIAN. ) SOLID_ANGLE_UNIT ( ) );
#39 = CARTESIAN_POINT ( 'NONE',  ( 0.01968303149999999294, 2.410476152399151743E-18, 0.03937000000000000222 ) ) ;
#41 = ADVANCED_FACE ( 'NONE', ( #10 ), #147, .T. ) ;
#40 = LINE ( 'NONE', #169, #238 ) ;
#42 = PLANE ( 'NONE',  #105 ) ;
#43 = DIRECTION ( 'NONE',  ( 0.0000000000000000000, 0.0000000000000000000, 1.000000000000000000 ) ) ;
#44 = DIRECTION ( 'NONE',  ( -0.7071067811865358044, 0.0000000000000000000, -0.7071067811865590080 ) ) ;
#45 = EDGE_CURVE ( 'NONE', #146, #80, #125, .T. ) ;
#46 = AXIS2_PLACEMENT_3D ( 'NONE', #211, #331, #183 ) ;
#47 = APPLICATION_PROTOCOL_DEFINITION ( 'draft international standard', 'automotive_design', 1998, #199 ) ;
#48 =( NAMED_UNIT ( * ) SI_UNIT ( $, .STERADIAN. ) SOLID_ANGLE_UNIT ( ) );
#49 = EDGE_CURVE ( 'NONE', #350, #378, #116, .T. ) ;
#50 =( LENGTH_UNIT ( ) NAMED_UNIT ( * ) SI_UNIT ( $, .METRE. ) );
#51 = AXIS2_PLACEMENT_3D ( 'NONE', #314, #248, #370 ) ;
#52 = ORIENTED_EDGE ( 'NONE', *, *, #1, .T. ) ;
#53 = CARTESIAN_POINT ( 'NONE',  ( -0.01870100000000000581, 0.0000000000000000000, 0.04493937739224183880 ) ) ;
#54 = ORIENTED_EDGE ( 'NONE', *, *, #31, .T. ) ;
#55 = DIRECTION ( 'NONE',  ( -0.0000000000000000000, -0.0000000000000000000, -1.000000000000000000 ) ) ;
#56 = EDGE_CURVE ( 'NONE', #80, #28, #207, .T. ) ;
#57 = DIRECTION ( 'NONE',  ( -0.0000000000000000000, -0.0000000000000000000, -1.000000000000000000 ) ) ;
#58 = COLOUR_RGB ( '',0.7921568627450980005, 0.8196078431372548767, 0.9333333333333333481 ) ;
#59 = LENGTH_MEASURE_WITH_UNIT ( LENGTH_MEASURE( 0.02539999999999999897 ), #206 );
#60 = ADVANCED_FACE ( 'NONE', ( #32 ), #8, .T. ) ;
#61 = ORIENTED_EDGE ( 'NONE', *, *, #121, .T. ) ;
#62 = CARTESIAN_POINT ( 'NONE',  ( 0.0000000000000000000, 0.0000000000000000000, 2.244094000000000033 ) ) ;
#63 = DIRECTION ( 'NONE',  ( 0.0000000000000000000, 0.0000000000000000000, 1.000000000000000000 ) ) ;
#64 = CARTESIAN_POINT ( 'NONE',  ( 0.1181100000000000066, 1.446430334472939084E-17, 0.5905510000000000481 ) ) ;
#65 = ADVANCED_FACE ( 'NONE', ( #186 ), #127, .T. ) ;
#66 = AXIS2_PLACEMENT_3D ( 'NONE', #234, #325, #128 ) ;
#67 = AXIS2_PLACEMENT_3D ( 'NONE', #102, #191, #219 ) ;
#68 = CARTESIAN_POINT ( 'NONE',  ( 0.0000000000000000000, 0.0000000000000000000, 0.5905510000000000481 ) ) ;
#69 = LINE ( 'NONE', #94, #95 ) ;
#70 = DIRECTION ( 'NONE',  ( 0.1736481776669301647, 2.126576849575769450E-17, -0.9848077530122080203 ) ) ;
#71 = LINE ( 'NONE', #315, #362 ) ;
#72 = UNCERTAINTY_MEASURE_WITH_UNIT (LENGTH_MEASURE( 1.000000000000000082E-05 ), #78, 'distance_accuracy_value', 'NONE');
#73 = DIRECTION ( 'NONE',  ( -1.000000000000000000, 0.0000000000000000000, 0.0000000000000000000 ) ) ;
#74 = CARTESIAN_POINT ( 'NONE',  ( -0.1181100000000000066, 0.0000000000000000000, 2.229093999999999465 ) ) ;
#75 = PRODUCT_DEFINITION_SHAPE ( 'NONE', 'NONE',  #375 ) ;
#76 =( NAMED_UNIT ( * ) SI_UNIT ( $, .STERADIAN. ) SOLID_ANGLE_UNIT ( ) );
#77 = AXIS2_PLACEMENT_3D ( 'NONE', #323, #63, #172 ) ;
#78 =( CONVERSION_BASED_UNIT ( 'INCH', #345 ) LENGTH_UNIT ( ) NAMED_UNIT ( #170 ) );
#79 = VERTEX_POINT ( 'NONE', #303 ) ;
#80 = VERTEX_POINT ( 'NONE', #153 ) ;
#81 = VECTOR ( 'NONE', #55, 39.37007874015748143 ) ;
#82 = DIRECTION ( 'NONE',  ( -1.000000000000000000, 0.0000000000000000000, 0.0000000000000000000 ) ) ;
#83 = AXIS2_PLACEMENT_3D ( 'NONE', #368, #216, #99 ) ;
#84 = ORIENTED_EDGE ( 'NONE', *, *, #49, .F. ) ;
#85 = CARTESIAN_POINT ( 'NONE',  ( 0.01870100000000004051, 2.290211979085469955E-18, 0.0000000000000000000 ) ) ;
#86 = VERTEX_POINT ( 'NONE', #64 ) ;
#87 = EDGE_LOOP ( 'NONE', ( #360, #150, #120, #108 ) ) ;
#88 = PRESENTATION_STYLE_ASSIGNMENT (( #244 ) ) ;
#89 = DIRECTION ( 'NONE',  ( -0.0000000000000000000, -0.0000000000000000000, -1.000000000000000000 ) ) ;
#90 = EDGE_CURVE ( 'NONE', #146, #144, #311, .T. ) ;
#91 = CARTESIAN_POINT ( 'NONE',  ( 0.0000000000000000000, 0.0000000000000000000, 2.244094000000000033 ) ) ;
#92 = ORIENTED_EDGE ( 'NONE', *, *, #288, .F. ) ;
#93 = DIRECTION ( 'NONE',  ( -0.0000000000000000000, -0.0000000000000000000, -1.000000000000000000 ) ) ;
#94 = CARTESIAN_POINT ( 'NONE',  ( 0.1181100000000000066, 1.446430334472939084E-17, 2.244094000000000033 ) ) ;
#95 = VECTOR ( 'NONE', #236, 39.37007874015748143 ) ;
#96 = CIRCLE ( 'NONE', #83, 0.1181100000000000066 ) ;
#97 = FILL_AREA_STYLE_COLOUR ( '', #58 ) ;
#98 = DIRECTION ( 'NONE',  ( -0.0000000000000000000, -0.0000000000000000000, -1.000000000000000000 ) ) ;
#99 = DIRECTION ( 'NONE',  ( -1.000000000000000000, 0.0000000000000000000, 0.0000000000000000000 ) ) ;
#100 = EDGE_CURVE ( 'NONE', #28, #350, #329, .T. ) ;
#101 = AXIS2_PLACEMENT_3D ( 'NONE', #227, #291, #359 ) ;
#102 = CARTESIAN_POINT ( 'NONE',  ( 0.0000000000000000000, 0.0000000000000000000, 0.03937000000000000222 ) ) ;
#103 = CONICAL_SURFACE ( 'NONE', #333, 0.1031100000000002570, 0.7853981633974318477 ) ;
#104 = ADVANCED_FACE ( 'NONE', ( #12 ), #212, .T. ) ;
#105 = AXIS2_PLACEMENT_3D ( 'NONE', #138, #43, #278 ) ;
#106 = PLANE ( 'NONE',  #321 ) ;
#107 = DIRECTION ( 'NONE',  ( -1.000000000000000000, 0.0000000000000000000, 0.0000000000000000000 ) ) ;
#108 = ORIENTED_EDGE ( 'NONE', *, *, #56, .F. ) ;
#109 = ADVANCED_FACE ( 'NONE', ( #274 ), #103, .T. ) ;
#110 = SURFACE_STYLE_FILL_AREA ( #21 ) ;
#111 = PRESENTATION_LAYER_ASSIGNMENT (  '', '', ( #277 ) ) ;
#112 = ORIENTED_EDGE ( 'NONE', *, *, #245, .T. ) ;
#113 = VERTEX_POINT ( 'NONE', #185 ) ;
#114 = APPLICATION_PROTOCOL_DEFINITION ( 'draft international standard', 'automotive_design', 1998, #176 ) ;
#115 = ORIENTED_EDGE ( 'NONE', *, *, #335, .F. ) ;
#116 = CIRCLE ( 'NONE', #304, 0.01968303149999999294 ) ;
#117 = ORIENTED_EDGE ( 'NONE', *, *, #242, .T. ) ;
#118 = CONICAL_SURFACE ( 'NONE', #290, 0.01968303149999999294, 0.1745329251994327535 ) ;
#119 = EDGE_LOOP ( 'NONE', ( #112, #258, #353, #115 ) ) ;
#120 = ORIENTED_EDGE ( 'NONE', *, *, #158, .T. ) ;
#121 = EDGE_CURVE ( 'NONE', #79, #348, #271, .T. ) ;
#122 = ORIENTED_EDGE ( 'NONE', *, *, #31, .F. ) ;
#123 = PRODUCT_RELATED_PRODUCT_CATEGORY ( 'part', '', ( #312 ) ) ;
#124 = DIRECTION ( 'NONE',  ( -1.000000000000000000, 0.0000000000000000000, 0.0000000000000000000 ) ) ;
#125 = LINE ( 'NONE', #85, #81 ) ;
#126 = AXIS2_PLACEMENT_3D ( 'NONE', #160, #15, #135 ) ;
#127 = CYLINDRICAL_SURFACE ( 'NONE', #23, 0.01870100000000004051 ) ;
#128 = DIRECTION ( 'NONE',  ( -1.000000000000000000, 0.0000000000000000000, 0.0000000000000000000 ) ) ;
#129 = DIRECTION ( 'NONE',  ( 1.000000000000000000, 0.0000000000000000000, 0.0000000000000000000 ) ) ;
#130 = SURFACE_SIDE_STYLE ('',( #36 ) ) ;
#131 = EDGE_CURVE ( 'NONE', #86, #273, #3, .T. ) ;
#132 = UNCERTAINTY_MEASURE_WITH_UNIT (LENGTH_MEASURE( 1.000000000000000082E-05 ), #261, 'distance_accuracy_value', 'NONE');
#133 = CONICAL_SURFACE ( 'NONE', #284, 0.1031100000000002570, 0.7853981633974318477 ) ;
#134 = CARTESIAN_POINT ( 'NONE',  ( 0.0000000000000000000, 0.0000000000000000000, 2.229093999999999465 ) ) ;
#135 = DIRECTION ( 'NONE',  ( -1.000000000000000000, 0.0000000000000000000, 0.0000000000000000000 ) ) ;
#136 =( NAMED_UNIT ( * ) PLANE_ANGLE_UNIT ( ) SI_UNIT ( $, .RADIAN. ) );
#137 = EDGE_CURVE ( 'NONE', #79, #86, #69, .T. ) ;
#138 = CARTESIAN_POINT ( 'NONE',  ( 0.0000000000000000000, 0.0000000000000000000, 0.0000000000000000000 ) ) ;
#139 = PRESENTATION_STYLE_ASSIGNMENT (( #376 ) ) ;
#140 = DIRECTION ( 'NONE',  ( 1.000000000000000000, 0.0000000000000000000, 0.0000000000000000000 ) ) ;
#141 = EDGE_LOOP ( 'NONE', ( #204, #293 ) ) ;
#142 = SURFACE_SIDE_STYLE ('',( #110 ) ) ;
#143 = AXIS2_PLACEMENT_3D ( 'NONE', #239, #330, #154 ) ;
#144 = VERTEX_POINT ( 'NONE', #243 ) ;
#145 = ORIENTED_EDGE ( 'NONE', *, *, #158, .F. ) ;
#146 = VERTEX_POINT ( 'NONE', #332 ) ;
#147 = CYLINDRICAL_SURFACE ( 'NONE', #313, 0.01968303149999999294 ) ;
#148 = ORIENTED_EDGE ( 'NONE', *, *, #56, .T. ) ;
#149 = CARTESIAN_POINT ( 'NONE',  ( 0.0000000000000000000, 0.0000000000000000000, 0.5905510000000000481 ) ) ;
#150 = ORIENTED_EDGE ( 'NONE', *, *, #90, .T. ) ;
#151 = FACE_OUTER_BOUND ( 'NONE', #119, .T. ) ;
#152 = FACE_OUTER_BOUND ( 'NONE', #232, .T. ) ;
#153 = CARTESIAN_POINT ( 'NONE',  ( 0.01870100000000000581, 2.350344065742308730E-18, 0.04493937739224183880 ) ) ;
#154 = DIRECTION ( 'NONE',  ( 1.000000000000000000, 0.0000000000000000000, -0.0000000000000000000 ) ) ;
#155 = AXIS2_PLACEMENT_3D ( 'NONE', #68, #157, #241 ) ;
#156 = DIRECTION ( 'NONE',  ( -0.0000000000000000000, -0.0000000000000000000, -1.000000000000000000 ) ) ;
#157 = DIRECTION ( 'NONE',  ( -0.0000000000000000000, -0.0000000000000000000, -1.000000000000000000 ) ) ;
#158 = EDGE_CURVE ( 'NONE', #144, #28, #301, .T. ) ;
#159 = MECHANICAL_DESIGN_GEOMETRIC_PRESENTATION_REPRESENTATION (  '', ( #277 ), #19 ) ;
#160 = CARTESIAN_POINT ( 'NONE',  ( 0.0000000000000000000, 0.0000000000000000000, 0.0000000000000000000 ) ) ;
#161 = DIRECTION ( 'NONE',  ( -0.0000000000000000000, -0.0000000000000000000, -1.000000000000000000 ) ) ;
#162 = LINE ( 'NONE', #280, #262 ) ;
#163 = CARTESIAN_POINT ( 'NONE',  ( -0.1031100000000002570, 0.0000000000000000000, 2.244094000000000033 ) ) ;
#164 = CARTESIAN_POINT ( 'NONE',  ( -0.01968303149999999294, 0.0000000000000000000, 0.03937000000000000222 ) ) ;
#165 = VECTOR ( 'NONE', #365, 39.37007874015748854 ) ;
#166 = CIRCLE ( 'NONE', #213, 0.01870100000000000581 ) ;
#167 = CARTESIAN_POINT ( 'NONE',  ( 0.0000000000000000000, 0.0000000000000000000, 0.03937000000000000222 ) ) ;
#168 = MANIFOLD_SOLID_BREP ( 'Cut-Revolve1', #237 ) ;
#169 = CARTESIAN_POINT ( 'NONE',  ( -0.1181100000000000066, 0.0000000000000000000, 2.244094000000000033 ) ) ;
#170 = DIMENSIONAL_EXPONENTS ( 1.000000000000000000, 0.0000000000000000000, 0.0000000000000000000, 0.0000000000000000000, 0.0000000000000000000, 0.0000000000000000000, 0.0000000000000000000 ) ;
#171 = EDGE_LOOP ( 'NONE', ( #292, #283, #24, #322 ) ) ;
#172 = DIRECTION ( 'NONE',  ( 1.000000000000000000, 0.0000000000000000000, 0.0000000000000000000 ) ) ;
#173 = ADVANCED_FACE ( 'NONE', ( #151 ), #179, .T. ) ;
#174 = LENGTH_MEASURE_WITH_UNIT ( LENGTH_MEASURE( 0.02539999999999999897 ), #50 );
#175 = ORIENTED_EDGE ( 'NONE', *, *, #242, .F. ) ;
#176 = APPLICATION_CONTEXT ( 'automotive_design' ) ;
#177 = CARTESIAN_POINT ( 'NONE',  ( 0.0000000000000000000, 0.0000000000000000000, 0.03937000000000000222 ) ) ;
#178 = ORIENTED_EDGE ( 'NONE', *, *, #90, .F. ) ;
#179 = CYLINDRICAL_SURFACE ( 'NONE', #34, 0.1181100000000000066 ) ;
#180 = EDGE_LOOP ( 'NONE', ( #231, #61, #250, #229 ) ) ;
#181 = DIRECTION ( 'NONE',  ( 0.0000000000000000000, 0.0000000000000000000, -1.000000000000000000 ) ) ;
#182 = CYLINDRICAL_SURFACE ( 'NONE', #66, 0.1181100000000000066 ) ;
#183 = DIRECTION ( 'NONE',  ( -1.000000000000000000, 0.0000000000000000000, 0.0000000000000000000 ) ) ;
#184 = CIRCLE ( 'NONE', #51, 0.1181100000000000066 ) ;
#185 = CARTESIAN_POINT ( 'NONE',  ( -0.01968303149999999294, 0.0000000000000000000, 0.0000000000000000000 ) ) ;
#186 = FACE_OUTER_BOUND ( 'NONE', #87, .T. ) ;
#187 = FACE_OUTER_BOUND ( 'NONE', #377, .T. ) ;
#188 = EDGE_CURVE ( 'NONE', #30, #79, #162, .T. ) ;
#189 = AXIS2_PLACEMENT_3D ( 'NONE', #149, #294, #210 ) ;
#190 = FACE_OUTER_BOUND ( 'NONE', #29, .T. ) ;
#191 = DIRECTION ( 'NONE',  ( -0.0000000000000000000, -0.0000000000000000000, -1.000000000000000000 ) ) ;
#192 = FACE_BOUND ( 'NONE', #302, .T. ) ;
#193 =( LENGTH_UNIT ( ) NAMED_UNIT ( * ) SI_UNIT ( $, .METRE. ) );
#194 = FACE_OUTER_BOUND ( 'NONE', #141, .T. ) ;
#195 = DIMENSIONAL_EXPONENTS ( 1.000000000000000000, 0.0000000000000000000, 0.0000000000000000000, 0.0000000000000000000, 0.0000000000000000000, 0.0000000000000000000, 0.0000000000000000000 ) ;
#196 = EDGE_CURVE ( 'NONE', #273, #86, #96, .T. ) ;
#197 = CIRCLE ( 'NONE', #126, 0.01968303149999999294 ) ;
#198 = ORIENTED_EDGE ( 'NONE', *, *, #45, .T. ) ;
#199 = APPLICATION_CONTEXT ( 'automotive_design' ) ;
#200 = ORIENTED_EDGE ( 'NONE', *, *, #288, .T. ) ;
#201 = EDGE_LOOP ( 'NONE', ( #208, #256, #6, #343 ) ) ;
#202 = ORIENTED_EDGE ( 'NONE', *, *, #361, .F. ) ;
#203 = STYLED_ITEM ( 'NONE', ( #139 ), #289 ) ;
#204 = ORIENTED_EDGE ( 'NONE', *, *, #196, .T. ) ;
#205 = ADVANCED_FACE ( 'NONE', ( #190 ), #42, .F. ) ;
#206 =( LENGTH_UNIT ( ) NAMED_UNIT ( * ) SI_UNIT ( $, .METRE. ) );
#207 = CIRCLE ( 'NONE', #14, 0.01870100000000000581 ) ;
#208 = ORIENTED_EDGE ( 'NONE', *, *, #1, .F. ) ;
#209 = DIRECTION ( 'NONE',  ( -0.0000000000000000000, -0.0000000000000000000, -1.000000000000000000 ) ) ;
#210 = DIRECTION ( 'NONE',  ( -1.000000000000000000, 0.0000000000000000000, 0.0000000000000000000 ) ) ;
#211 = CARTESIAN_POINT ( 'NONE',  ( 0.0000000000000000000, 0.0000000000000000000, 0.5905510000000000481 ) ) ;
#212 = CYLINDRICAL_SURFACE ( 'NONE', #217, 0.01870100000000004051 ) ;
#213 = AXIS2_PLACEMENT_3D ( 'NONE', #221, #20, #253 ) ;
#214 =( NAMED_UNIT ( * ) PLANE_ANGLE_UNIT ( ) SI_UNIT ( $, .RADIAN. ) );
#215 = DIRECTION ( 'NONE',  ( -0.0000000000000000000, -0.0000000000000000000, -1.000000000000000000 ) ) ;
#216 = DIRECTION ( 'NONE',  ( -0.0000000000000000000, -0.0000000000000000000, -1.000000000000000000 ) ) ;
#217 = AXIS2_PLACEMENT_3D ( 'NONE', #13, #156, #275 ) ;
#218 = VECTOR ( 'NONE', #70, 39.37007874015748854 ) ;
#219 = DIRECTION ( 'NONE',  ( -1.000000000000000000, 0.0000000000000000000, 0.0000000000000000000 ) ) ;
#220 = CARTESIAN_POINT ( 'NONE',  ( -0.1181100000000000066, 0.0000000000000000000, 0.5905510000000000481 ) ) ;
#221 = CARTESIAN_POINT ( 'NONE',  ( 0.0000000000000000000, 0.0000000000000000000, 0.04493937739224183880 ) ) ;
#222 = ORIENTED_EDGE ( 'NONE', *, *, #270, .T. ) ;
#223 = VECTOR ( 'NONE', #209, 39.37007874015748143 ) ;
#224 = FACE_OUTER_BOUND ( 'NONE', #2, .T. ) ;
#225 = ORIENTED_EDGE ( 'NONE', *, *, #358, .F. ) ;
#226 = ORIENTED_EDGE ( 'NONE', *, *, #100, .T. ) ;
#227 = CARTESIAN_POINT ( 'NONE',  ( 0.0000000000000000000, 0.0000000000000000000, 0.0000000000000000000 ) ) ;
#228 = CONICAL_SURFACE ( 'NONE', #67, 0.01968303149999999294, 0.1745329251994327535 ) ;
#229 = ORIENTED_EDGE ( 'NONE', *, *, #131, .F. ) ;
#230 = CARTESIAN_POINT ( 'NONE',  ( 0.1031100000000002570, 1.354581824536888722E-17, 2.244094000000000033 ) ) ;
#231 = ORIENTED_EDGE ( 'NONE', *, *, #137, .F. ) ;
#232 = EDGE_LOOP ( 'NONE', ( #379, #202, #263, #25 ) ) ;
#233 = EDGE_CURVE ( 'NONE', #350, #113, #246, .T. ) ;
#234 = CARTESIAN_POINT ( 'NONE',  ( 0.0000000000000000000, 0.0000000000000000000, 2.244094000000000033 ) ) ;
#235 = EDGE_CURVE ( 'NONE', #378, #356, #71, .T. ) ;
#236 = DIRECTION ( 'NONE',  ( -0.0000000000000000000, -0.0000000000000000000, -1.000000000000000000 ) ) ;
#237 = CLOSED_SHELL ( 'NONE', ( #366, #104, #355, #109, #173, #33, #60, #37, #281, #255, #65, #41, #205 ) ) ;
#238 = VECTOR ( 'NONE', #317, 39.37007874015748143 ) ;
#239 = CARTESIAN_POINT ( 'NONE',  ( 0.0000000000000000000, 0.0000000000000000000, 2.244094000000000033 ) ) ;
#240 = DIRECTION ( 'NONE',  ( -1.000000000000000000, 0.0000000000000000000, 0.0000000000000000000 ) ) ;
#241 = DIRECTION ( 'NONE',  ( -1.000000000000000000, 0.0000000000000000000, 0.0000000000000000000 ) ) ;
#242 = EDGE_CURVE ( 'NONE', #80, #378, #308, .T. ) ;
#243 = CARTESIAN_POINT ( 'NONE',  ( -0.01870100000000007173, 0.0000000000000000000, 0.5905510000000000481 ) ) ;
#244 = SURFACE_STYLE_USAGE ( .BOTH. , #130 ) ;
#245 = EDGE_CURVE ( 'NONE', #348, #79, #184, .T. ) ;
#246 = LINE ( 'NONE', #367, #4 ) ;
#247 = CYLINDRICAL_SURFACE ( 'NONE', #338, 0.01968303149999999294 ) ;
#248 = DIRECTION ( 'NONE',  ( 0.0000000000000000000, 0.0000000000000000000, -1.000000000000000000 ) ) ;
#249 = DIRECTION ( 'NONE',  ( -1.000000000000000000, 0.0000000000000000000, 0.0000000000000000000 ) ) ;
#250 = ORIENTED_EDGE ( 'NONE', *, *, #335, .T. ) ;
#251 = CIRCLE ( 'NONE', #305, 0.01968303149999999294 ) ;
#252 = CARTESIAN_POINT ( 'NONE',  ( 0.0000000000000000000, 0.0000000000000000000, 0.0000000000000000000 ) ) ;
#253 = DIRECTION ( 'NONE',  ( -1.000000000000000000, 0.0000000000000000000, 0.0000000000000000000 ) ) ;
#254 = CARTESIAN_POINT ( 'NONE',  ( -0.1031100000000002570, 0.0000000000000000000, 2.244094000000000033 ) ) ;
#255 = ADVANCED_FACE ( 'NONE', ( #187 ), #228, .T. ) ;
#256 = ORIENTED_EDGE ( 'NONE', *, *, #188, .T. ) ;
#257 = DIMENSIONAL_EXPONENTS ( 1.000000000000000000, 0.0000000000000000000, 0.0000000000000000000, 0.0000000000000000000, 0.0000000000000000000, 0.0000000000000000000, 0.0000000000000000000 ) ;
#258 = ORIENTED_EDGE ( 'NONE', *, *, #137, .T. ) ;
#259 = ORIENTED_EDGE ( 'NONE', *, *, #266, .F. ) ;
#260 = CARTESIAN_POINT ( 'NONE',  ( 0.0000000000000000000, 0.0000000000000000000, 0.0000000000000000000 ) ) ;
#261 =( CONVERSION_BASED_UNIT ( 'INCH', #174 ) LENGTH_UNIT ( ) NAMED_UNIT ( #257 ) );
#262 = VECTOR ( 'NONE', #16, 39.37007874015748854 ) ;
#263 = ORIENTED_EDGE ( 'NONE', *, *, #349, .T. ) ;
#264 = CARTESIAN_POINT ( 'NONE',  ( 0.0000000000000000000, 0.0000000000000000000, 0.04493937739224183880 ) ) ;
#265 = ORIENTED_EDGE ( 'NONE', *, *, #361, .T. ) ;
#266 = EDGE_CURVE ( 'NONE', #356, #113, #285, .T. ) ;
#267 = DIRECTION ( 'NONE',  ( -0.0000000000000000000, -0.0000000000000000000, -1.000000000000000000 ) ) ;
#268 = COLOUR_RGB ( '',0.7921568627450980005, 0.8196078431372548767, 0.9333333333333333481 ) ;
#269 = DIRECTION ( 'NONE',  ( -1.000000000000000000, 0.0000000000000000000, 0.0000000000000000000 ) ) ;
#270 = EDGE_CURVE ( 'NONE', #113, #356, #197, .T. ) ;
#271 = CIRCLE ( 'NONE', #320, 0.1181100000000000066 ) ;
#272 = AXIS2_PLACEMENT_3D ( 'NONE', #17, #286, #140 ) ;
#273 = VERTEX_POINT ( 'NONE', #220 ) ;
#274 = FACE_OUTER_BOUND ( 'NONE', #201, .T. ) ;
#275 = DIRECTION ( 'NONE',  ( -1.000000000000000000, 0.0000000000000000000, 0.0000000000000000000 ) ) ;
#276 = DIRECTION ( 'NONE',  ( -1.000000000000000000, 0.0000000000000000000, 0.0000000000000000000 ) ) ;
#277 = STYLED_ITEM ( 'NONE', ( #88 ), #168 ) ;
#278 = DIRECTION ( 'NONE',  ( 1.000000000000000000, 0.0000000000000000000, -0.0000000000000000000 ) ) ;
#279 = DIRECTION ( 'NONE',  ( -1.000000000000000000, 0.0000000000000000000, 0.0000000000000000000 ) ) ;
#280 = CARTESIAN_POINT ( 'NONE',  ( 0.1031100000000002570, 1.262733314600838667E-17, 2.244094000000000033 ) ) ;
#281 = ADVANCED_FACE ( 'NONE', ( #192, #194 ), #106, .T. ) ;
#282 = CARTESIAN_POINT ( 'NONE',  ( 0.01968303149999999294, 2.410476152399151743E-18, 0.0000000000000000000 ) ) ;
#283 = ORIENTED_EDGE ( 'NONE', *, *, #235, .T. ) ;
#284 = AXIS2_PLACEMENT_3D ( 'NONE', #26, #354, #327 ) ;
#285 = CIRCLE ( 'NONE', #372, 0.01968303149999999294 ) ;
#286 = DIRECTION ( 'NONE',  ( 0.0000000000000000000, 0.0000000000000000000, 1.000000000000000000 ) ) ;
#287 = FILL_AREA_STYLE_COLOUR ( '', #268 ) ;
#288 = EDGE_CURVE ( 'NONE', #378, #350, #251, .T. ) ;
#289 = ADVANCED_BREP_SHAPE_REPRESENTATION ( 'Micro_MMBM-010-15X', ( #168, #101 ), #309 ) ;
#290 = AXIS2_PLACEMENT_3D ( 'NONE', #167, #161, #279 ) ;
#291 = DIRECTION ( 'NONE',  ( 0.0000000000000000000, 0.0000000000000000000, 1.000000000000000000 ) ) ;
#292 = ORIENTED_EDGE ( 'NONE', *, *, #49, .T. ) ;
#293 = ORIENTED_EDGE ( 'NONE', *, *, #131, .T. ) ;
#294 = DIRECTION ( 'NONE',  ( -0.0000000000000000000, -0.0000000000000000000, -1.000000000000000000 ) ) ;
#295 = MECHANICAL_DESIGN_GEOMETRIC_PRESENTATION_REPRESENTATION (  '', ( #203 ), #307 ) ;
#296 = EDGE_LOOP ( 'NONE', ( #363, #200, #324, #259 ) ) ;
#297 = DIRECTION ( 'NONE',  ( -1.000000000000000000, 0.0000000000000000000, 0.0000000000000000000 ) ) ;
#298 = CIRCLE ( 'NONE', #189, 0.01870100000000007173 ) ;
#299 = FILL_AREA_STYLE ('',( #97 ) ) ;
#300 = FACE_OUTER_BOUND ( 'NONE', #180, .T. ) ;
#301 = LINE ( 'NONE', #306, #223 ) ;
#302 = EDGE_LOOP ( 'NONE', ( #122, #178 ) ) ;
#303 = CARTESIAN_POINT ( 'NONE',  ( 0.1181100000000000066, 1.446430334472939084E-17, 2.229093999999999465 ) ) ;
#304 = AXIS2_PLACEMENT_3D ( 'NONE', #177, #57, #297 ) ;
#305 = AXIS2_PLACEMENT_3D ( 'NONE', #340, #371, #310 ) ;
#306 = CARTESIAN_POINT ( 'NONE',  ( -0.01870100000000004051, 0.0000000000000000000, 0.0000000000000000000 ) ) ;
#307 =( GEOMETRIC_REPRESENTATION_CONTEXT ( 3 ) GLOBAL_UNCERTAINTY_ASSIGNED_CONTEXT ( ( #132 ) ) GLOBAL_UNIT_ASSIGNED_CONTEXT ( ( #261, #347, #48 ) ) REPRESENTATION_CONTEXT ( 'NONE', 'WORKASPACE' ) );
#308 = LINE ( 'NONE', #39, #218 ) ;
#309 =( GEOMETRIC_REPRESENTATION_CONTEXT ( 3 ) GLOBAL_UNCERTAINTY_ASSIGNED_CONTEXT ( ( #72 ) ) GLOBAL_UNIT_ASSIGNED_CONTEXT ( ( #78, #136, #76 ) ) REPRESENTATION_CONTEXT ( 'NONE', 'WORKASPACE' ) );
#310 = DIRECTION ( 'NONE',  ( -1.000000000000000000, 0.0000000000000000000, 0.0000000000000000000 ) ) ;
#311 = CIRCLE ( 'NONE', #46, 0.01870100000000007173 ) ;
#312 = PRODUCT ( 'Micro_MMBM-010-15X', 'Micro_MMBM-010-15X', '', ( #326 ) ) ;
#313 = AXIS2_PLACEMENT_3D ( 'NONE', #260, #351, #82 ) ;
#314 = CARTESIAN_POINT ( 'NONE',  ( 0.0000000000000000000, 0.0000000000000000000, 2.229093999999999465 ) ) ;
#315 = CARTESIAN_POINT ( 'NONE',  ( 0.01968303149999999294, 2.410476152399151743E-18, 0.0000000000000000000 ) ) ;
#316 = LINE ( 'NONE', #163, #334 ) ;
#317 = DIRECTION ( 'NONE',  ( -0.0000000000000000000, -0.0000000000000000000, -1.000000000000000000 ) ) ;
#318 = CIRCLE ( 'NONE', #77, 0.1031100000000002570 ) ;
#319 = SHAPE_DEFINITION_REPRESENTATION ( #75, #289 ) ;
#320 = AXIS2_PLACEMENT_3D ( 'NONE', #134, #181, #129 ) ;
#321 = AXIS2_PLACEMENT_3D ( 'NONE', #374, #337, #249 ) ;
#322 = ORIENTED_EDGE ( 'NONE', *, *, #233, .F. ) ;
#323 = CARTESIAN_POINT ( 'NONE',  ( 0.0000000000000000000, 0.0000000000000000000, 2.244094000000000033 ) ) ;
#324 = ORIENTED_EDGE ( 'NONE', *, *, #233, .T. ) ;
#325 = DIRECTION ( 'NONE',  ( -0.0000000000000000000, -0.0000000000000000000, -1.000000000000000000 ) ) ;
#326 = PRODUCT_CONTEXT ( 'NONE', #199, 'mechanical' ) ;
#327 = DIRECTION ( 'NONE',  ( -1.000000000000000000, 0.0000000000000000000, 0.0000000000000000000 ) ) ;
#328 = EDGE_LOOP ( 'NONE', ( #265, #52 ) ) ;
#329 = LINE ( 'NONE', #35, #165 ) ;
#330 = DIRECTION ( 'NONE',  ( 0.0000000000000000000, 0.0000000000000000000, 1.000000000000000000 ) ) ;
#331 = DIRECTION ( 'NONE',  ( -0.0000000000000000000, -0.0000000000000000000, -1.000000000000000000 ) ) ;
#332 = CARTESIAN_POINT ( 'NONE',  ( 0.01870100000000007173, 2.290211979085474192E-18, 0.5905510000000000481 ) ) ;
#333 = AXIS2_PLACEMENT_3D ( 'NONE', #62, #11, #276 ) ;
#334 = VECTOR ( 'NONE', #44, 39.37007874015748854 ) ;
#335 = EDGE_CURVE ( 'NONE', #348, #273, #40, .T. ) ;
#336 = DIRECTION ( 'NONE',  ( -0.0000000000000000000, -0.0000000000000000000, -1.000000000000000000 ) ) ;
#337 = DIRECTION ( 'NONE',  ( -0.0000000000000000000, 0.0000000000000000000, -1.000000000000000000 ) ) ;
#338 = AXIS2_PLACEMENT_3D ( 'NONE', #252, #373, #107 ) ;
#339 = CARTESIAN_POINT ( 'NONE',  ( 0.0000000000000000000, 0.0000000000000000000, 0.0000000000000000000 ) ) ;
#340 = CARTESIAN_POINT ( 'NONE',  ( 0.0000000000000000000, 0.0000000000000000000, 0.03937000000000000222 ) ) ;
#341 = PRODUCT_DEFINITION_CONTEXT ( 'detailed design', #176, 'design' ) ;
#342 = CARTESIAN_POINT ( 'NONE',  ( 0.01968303149999999294, 2.410476152399151743E-18, 0.03937000000000000222 ) ) ;
#343 = ORIENTED_EDGE ( 'NONE', *, *, #349, .F. ) ;
#344 = PRODUCT_DEFINITION_FORMATION_WITH_SPECIFIED_SOURCE ( 'ANY', '', #312, .NOT_KNOWN. ) ;
#345 = LENGTH_MEASURE_WITH_UNIT ( LENGTH_MEASURE( 0.02539999999999999897 ), #193 );
#346 = UNCERTAINTY_MEASURE_WITH_UNIT (LENGTH_MEASURE( 1.000000000000000082E-05 ), #9, 'distance_accuracy_value', 'NONE');
#347 =( NAMED_UNIT ( * ) PLANE_ANGLE_UNIT ( ) SI_UNIT ( $, .RADIAN. ) );
#348 = VERTEX_POINT ( 'NONE', #74 ) ;
#349 = EDGE_CURVE ( 'NONE', #357, #348, #316, .T. ) ;
#350 = VERTEX_POINT ( 'NONE', #164 ) ;
#351 = DIRECTION ( 'NONE',  ( -0.0000000000000000000, -0.0000000000000000000, -1.000000000000000000 ) ) ;
#352 = CIRCLE ( 'NONE', #272, 0.1031100000000002570 ) ;
#353 = ORIENTED_EDGE ( 'NONE', *, *, #196, .F. ) ;
#354 = DIRECTION ( 'NONE',  ( 0.0000000000000000000, 0.0000000000000000000, -1.000000000000000000 ) ) ;
#355 = ADVANCED_FACE ( 'NONE', ( #224 ), #118, .T. ) ;
#356 = VERTEX_POINT ( 'NONE', #282 ) ;
#357 = VERTEX_POINT ( 'NONE', #254 ) ;
#358 = EDGE_CURVE ( 'NONE', #28, #80, #166, .T. ) ;
#359 = DIRECTION ( 'NONE',  ( 1.000000000000000000, 0.0000000000000000000, 0.0000000000000000000 ) ) ;
#360 = ORIENTED_EDGE ( 'NONE', *, *, #45, .F. ) ;
#361 = EDGE_CURVE ( 'NONE', #357, #30, #352, .T. ) ;
#362 = VECTOR ( 'NONE', #215, 39.37007874015748143 ) ;
#363 = ORIENTED_EDGE ( 'NONE', *, *, #235, .F. ) ;
#364 = CARTESIAN_POINT ( 'NONE',  ( 0.0000000000000000000, 0.0000000000000000000, 0.0000000000000000000 ) ) ;
#365 = DIRECTION ( 'NONE',  ( -0.1736481776669301647, 0.0000000000000000000, -0.9848077530122080203 ) ) ;
#366 = ADVANCED_FACE ( 'NONE', ( #369 ), #247, .T. ) ;
#367 = CARTESIAN_POINT ( 'NONE',  ( -0.01968303149999999294, 0.0000000000000000000, 0.0000000000000000000 ) ) ;
#368 = CARTESIAN_POINT ( 'NONE',  ( 0.0000000000000000000, 0.0000000000000000000, 0.5905510000000000481 ) ) ;
#369 = FACE_OUTER_BOUND ( 'NONE', #171, .T. ) ;
#370 = DIRECTION ( 'NONE',  ( 1.000000000000000000, 0.0000000000000000000, 0.0000000000000000000 ) ) ;
#371 = DIRECTION ( 'NONE',  ( -0.0000000000000000000, -0.0000000000000000000, -1.000000000000000000 ) ) ;
#372 = AXIS2_PLACEMENT_3D ( 'NONE', #339, #98, #73 ) ;
#373 = DIRECTION ( 'NONE',  ( -0.0000000000000000000, -0.0000000000000000000, -1.000000000000000000 ) ) ;
#374 = CARTESIAN_POINT ( 'NONE',  ( 0.01870100000000007173, 0.0000000000000000000, 0.5905510000000000481 ) ) ;
#375 = PRODUCT_DEFINITION ( 'UNKNOWN', '', #344, #341 ) ;
#376 = SURFACE_STYLE_USAGE ( .BOTH. , #142 ) ;
#377 = EDGE_LOOP ( 'NONE', ( #175, #148, #226, #92 ) ) ;
#378 = VERTEX_POINT ( 'NONE', #342 ) ;
#379 = ORIENTED_EDGE ( 'NONE', *, *, #188, .F. ) ;
ENDSEC;
END-ISO-10303-21;
