ISO-10303-21;
HEADER;
FILE_DESCRIPTION (( 'STEP AP214' ),
    '1' );
FILE_NAME ('23350.STEP',
    '2023-06-22T16:50:59',
    ( '' ),
    ( '' ),
    'SwSTEP 2.0',
    'SolidWorks 2023',
    '' );
FILE_SCHEMA (( 'AUTOMOTIVE_DESIGN' ));
ENDSEC;

DATA;
#1 = FACE_OUTER_BOUND ( 'NONE', #308, .T. ) ;
#2 = DIRECTION ( 'NONE',  ( 0.000000000000000000, 1.000000000000000000, 0.000000000000000000 ) ) ;
#3 = FACE_OUTER_BOUND ( 'NONE', #200, .T. ) ;
#4 = AXIS2_PLACEMENT_3D ( 'NONE', #278, #33, #118 ) ;
#5 = DIRECTION ( 'NONE',  ( -5.442874662877126324E-17, 1.000000000000000000, 0.000000000000000000 ) ) ;
#6 = ORIENTED_EDGE ( 'NONE', *, *, #8, .T. ) ;
#7 = SURFACE_STYLE_USAGE ( .BOTH. , #287 ) ;
#8 = EDGE_CURVE ( 'NONE', #20, #262, #225, .T. ) ;
#9 = PRESENTATION_STYLE_ASSIGNMENT (( #254 ) ) ;
#10 = VERTEX_POINT ( 'NONE', #23 ) ;
#11 = DIRECTION ( 'NONE',  ( 0.000000000000000000, 0.000000000000000000, -1.000000000000000000 ) ) ;
#12 = AXIS2_PLACEMENT_3D ( 'NONE', #32, #14, #255 ) ;
#13 = DIRECTION ( 'NONE',  ( -5.442874662877126324E-17, 1.000000000000000000, -0.000000000000000000 ) ) ;
#14 = DIRECTION ( 'NONE',  ( 0.000000000000000000, 0.000000000000000000, 1.000000000000000000 ) ) ;
#15 = ADVANCED_FACE ( 'NONE', ( #1 ), #100, .T. ) ;
#16 = CARTESIAN_POINT ( 'NONE',  ( 6.123233995736766036E-17, 2.625000000000000000, 0.5000000000000000000 ) ) ;
#17 = COLOUR_RGB ( '',1.000000000000000000, 0.000000000000000000, 0.000000000000000000 ) ;
#18 = PRODUCT_DEFINITION_CONTEXT ( 'detailed design', #271, 'design' ) ;
#19 = ADVANCED_BREP_SHAPE_REPRESENTATION ( '23350', ( #131, #122, #12 ), #109 ) ;
#20 = VERTEX_POINT ( 'NONE', #156 ) ;
#21 = PRODUCT_RELATED_PRODUCT_CATEGORY ( 'part', '', ( #127 ) ) ;
#22 = STYLED_ITEM ( 'NONE', ( #242 ), #36 ) ;
#23 = CARTESIAN_POINT ( 'NONE',  ( 0.5000000000000000000, 6.000000000000000888, 6.123233995736767268E-17 ) ) ;
#24 =( CONVERSION_BASED_UNIT ( 'INCH', #157 ) LENGTH_UNIT ( ) NAMED_UNIT ( #222 ) );
#25 =( NAMED_UNIT ( * ) SI_UNIT ( $, .STERADIAN. ) SOLID_ANGLE_UNIT ( ) );
#26 = DIRECTION ( 'NONE',  ( -0.000000000000000000, -1.000000000000000000, -0.000000000000000000 ) ) ;
#27 = ORIENTED_EDGE ( 'NONE', *, *, #133, .F. ) ;
#28 = CIRCLE ( 'NONE', #55, 0.5000000000000000000 ) ;
#29 = MECHANICAL_DESIGN_GEOMETRIC_PRESENTATION_REPRESENTATION (  '', ( #56 ), #34 ) ;
#30 =( NAMED_UNIT ( * ) SI_UNIT ( $, .STERADIAN. ) SOLID_ANGLE_UNIT ( ) );
#31 = CARTESIAN_POINT ( 'NONE',  ( -1.836970198721030427E-16, 6.000000000000000888, 0.000000000000000000 ) ) ;
#32 = CARTESIAN_POINT ( 'NONE',  ( 0.000000000000000000, 0.000000000000000000, 0.000000000000000000 ) ) ;
#33 = DIRECTION ( 'NONE',  ( -0.000000000000000000, -1.000000000000000000, -0.000000000000000000 ) ) ;
#34 =( GEOMETRIC_REPRESENTATION_CONTEXT ( 3 ) GLOBAL_UNCERTAINTY_ASSIGNED_CONTEXT ( ( #114 ) ) GLOBAL_UNIT_ASSIGNED_CONTEXT ( ( #138, #46, #121 ) ) REPRESENTATION_CONTEXT ( 'NONE', 'WORKASPACE' ) );
#35 = DIRECTION ( 'NONE',  ( -1.000000000000000000, 0.000000000000000000, 0.000000000000000000 ) ) ;
#36 = ADVANCED_FACE ( 'NONE', ( #290 ), #130, .T. ) ;
#37 =( NAMED_UNIT ( * ) PLANE_ANGLE_UNIT ( ) SI_UNIT ( $, .RADIAN. ) );
#38 = MECHANICAL_DESIGN_GEOMETRIC_PRESENTATION_REPRESENTATION (  '', ( #307 ), #230 ) ;
#39 = AXIS2_PLACEMENT_3D ( 'NONE', #268, #181, #228 ) ;
#40 = CARTESIAN_POINT ( 'NONE',  ( -1.836970198721030427E-16, 6.000000000000000888, 0.000000000000000000 ) ) ;
#41 = ADVANCED_FACE ( 'NONE', ( #3 ), #80, .F. ) ;
#42 = SURFACE_STYLE_FILL_AREA ( #147 ) ;
#43 = PRESENTATION_STYLE_ASSIGNMENT (( #167 ) ) ;
#44 = PRESENTATION_LAYER_ASSIGNMENT (  '', '', ( #22 ) ) ;
#45 = STYLED_ITEM ( 'NONE', ( #172 ), #269 ) ;
#46 =( NAMED_UNIT ( * ) PLANE_ANGLE_UNIT ( ) SI_UNIT ( $, .RADIAN. ) );
#47 = ORIENTED_EDGE ( 'NONE', *, *, #133, .T. ) ;
#48 = FILL_AREA_STYLE ('',( #263 ) ) ;
#49 =( GEOMETRIC_REPRESENTATION_CONTEXT ( 3 ) GLOBAL_UNCERTAINTY_ASSIGNED_CONTEXT ( ( #66 ) ) GLOBAL_UNIT_ASSIGNED_CONTEXT ( ( #76, #238, #25 ) ) REPRESENTATION_CONTEXT ( 'NONE', 'WORKASPACE' ) );
#50 = DIRECTION ( 'NONE',  ( -5.442874662877126324E-17, 1.000000000000000000, -0.000000000000000000 ) ) ;
#51 = ORIENTED_EDGE ( 'NONE', *, *, #187, .T. ) ;
#52 = CARTESIAN_POINT ( 'NONE',  ( 0.000000000000000000, 0.000000000000000000, 0.000000000000000000 ) ) ;
#53 = DIMENSIONAL_EXPONENTS ( 1.000000000000000000, 0.000000000000000000, 0.000000000000000000, 0.000000000000000000, 0.000000000000000000, 0.000000000000000000, 0.000000000000000000 ) ;
#54 = EDGE_LOOP ( 'NONE', ( #151, #87, #235, #27 ) ) ;
#55 = AXIS2_PLACEMENT_3D ( 'NONE', #135, #59, #35 ) ;
#56 = STYLED_ITEM ( 'NONE', ( #82 ), #131 ) ;
#57 = AXIS2_PLACEMENT_3D ( 'NONE', #52, #26, #132 ) ;
#58 = ORIENTED_EDGE ( 'NONE', *, *, #249, .F. ) ;
#59 = DIRECTION ( 'NONE',  ( -5.442874662877126324E-17, 1.000000000000000000, -0.000000000000000000 ) ) ;
#60 = FILL_AREA_STYLE_COLOUR ( '', #144 ) ;
#61 = EDGE_CURVE ( 'NONE', #202, #123, #191, .T. ) ;
#62 = AXIS2_PLACEMENT_3D ( 'NONE', #150, #192, #305 ) ;
#63 = FILL_AREA_STYLE ('',( #60 ) ) ;
#64 =( NAMED_UNIT ( * ) SI_UNIT ( $, .STERADIAN. ) SOLID_ANGLE_UNIT ( ) );
#65 =( CONVERSION_BASED_UNIT ( 'INCH', #89 ) LENGTH_UNIT ( ) NAMED_UNIT ( #219 ) );
#66 = UNCERTAINTY_MEASURE_WITH_UNIT (LENGTH_MEASURE( 1.000000000000000082E-05 ), #76, 'distance_accuracy_value', 'NONE');
#67 = CIRCLE ( 'NONE', #69, 0.5000000000000000000 ) ;
#68 = SURFACE_SIDE_STYLE ('',( #42 ) ) ;
#69 = AXIS2_PLACEMENT_3D ( 'NONE', #141, #206, #246 ) ;
#70 = COLOUR_RGB ( '',1.000000000000000000, 0.000000000000000000, 0.000000000000000000 ) ;
#71 = EDGE_CURVE ( 'NONE', #174, #234, #28, .T. ) ;
#72 = DIRECTION ( 'NONE',  ( -1.000000000000000000, 0.000000000000000000, 0.000000000000000000 ) ) ;
#73 = CARTESIAN_POINT ( 'NONE',  ( -1.836970198721030427E-16, 6.000000000000000888, 0.000000000000000000 ) ) ;
#74 = SURFACE_SIDE_STYLE ('',( #236 ) ) ;
#75 =( NAMED_UNIT ( * ) PLANE_ANGLE_UNIT ( ) SI_UNIT ( $, .RADIAN. ) );
#76 =( CONVERSION_BASED_UNIT ( 'INCH', #96 ) LENGTH_UNIT ( ) NAMED_UNIT ( #241 ) );
#77 = COLOUR_RGB ( '',0.7921568627450980005, 0.8196078431372548767, 0.9333333333333333481 ) ;
#78 = ORIENTED_EDGE ( 'NONE', *, *, #187, .F. ) ;
#79 =( LENGTH_UNIT ( ) NAMED_UNIT ( * ) SI_UNIT ( $, .METRE. ) );
#80 = PLANE ( 'NONE',  #300 ) ;
#81 = CARTESIAN_POINT ( 'NONE',  ( 0.000000000000000000, 0.000000000000000000, -0.5000000000000000000 ) ) ;
#82 = PRESENTATION_STYLE_ASSIGNMENT (( #7 ) ) ;
#83 = LENGTH_MEASURE_WITH_UNIT ( LENGTH_MEASURE( 0.02539999999999999897 ), #243 );
#84 = ORIENTED_EDGE ( 'NONE', *, *, #146, .T. ) ;
#85 = STYLED_ITEM ( 'NONE', ( #43 ), #256 ) ;
#86 = DIMENSIONAL_EXPONENTS ( 1.000000000000000000, 0.000000000000000000, 0.000000000000000000, 0.000000000000000000, 0.000000000000000000, 0.000000000000000000, 0.000000000000000000 ) ;
#87 = ORIENTED_EDGE ( 'NONE', *, *, #61, .T. ) ;
#88 = EDGE_CURVE ( 'NONE', #234, #174, #67, .T. ) ;
#89 = LENGTH_MEASURE_WITH_UNIT ( LENGTH_MEASURE( 0.02539999999999999897 ), #183 );
#90 = SURFACE_STYLE_FILL_AREA ( #110 ) ;
#91 = MECHANICAL_DESIGN_GEOMETRIC_PRESENTATION_REPRESENTATION (  '', ( #45 ), #282 ) ;
#92 = LINE ( 'NONE', #302, #158 ) ;
#93 = UNCERTAINTY_MEASURE_WITH_UNIT (LENGTH_MEASURE( 1.000000000000000082E-05 ), #65, 'distance_accuracy_value', 'NONE');
#94 = PLANE ( 'NONE',  #245 ) ;
#95 = FACE_OUTER_BOUND ( 'NONE', #103, .T. ) ;
#96 = LENGTH_MEASURE_WITH_UNIT ( LENGTH_MEASURE( 0.02539999999999999897 ), #261 );
#97 = VECTOR ( 'NONE', #170, 39.37007874015748143 ) ;
#98 = ORIENTED_EDGE ( 'NONE', *, *, #125, .F. ) ;
#99 = ORIENTED_EDGE ( 'NONE', *, *, #8, .F. ) ;
#100 = CYLINDRICAL_SURFACE ( 'NONE', #289, 0.5000000000000001110 ) ;
#101 = AXIS2_PLACEMENT_3D ( 'NONE', #173, #285, #128 ) ;
#102 = VECTOR ( 'NONE', #208, 39.37007874015748143 ) ;
#103 = EDGE_LOOP ( 'NONE', ( #58, #193 ) ) ;
#104 = SURFACE_STYLE_USAGE ( .BOTH. , #74 ) ;
#105 = EDGE_LOOP ( 'NONE', ( #210, #197 ) ) ;
#106 = PRODUCT_DEFINITION_SHAPE ( 'NONE', 'NONE',  #148 ) ;
#107 = PLANE ( 'NONE',  #180 ) ;
#108 = CLOSED_SHELL ( 'NONE', ( #211, #256, #269, #36 ) ) ;
#109 =( GEOMETRIC_REPRESENTATION_CONTEXT ( 3 ) GLOBAL_UNCERTAINTY_ASSIGNED_CONTEXT ( ( #117 ) ) GLOBAL_UNIT_ASSIGNED_CONTEXT ( ( #273, #37, #64 ) ) REPRESENTATION_CONTEXT ( 'NONE', 'WORKASPACE' ) );
#110 = FILL_AREA_STYLE ('',( #227 ) ) ;
#111 = CYLINDRICAL_SURFACE ( 'NONE', #209, 0.5000000000000001110 ) ;
#112 = CARTESIAN_POINT ( 'NONE',  ( 0.000000000000000000, 2.625000000000000000, 0.000000000000000000 ) ) ;
#113 = DIRECTION ( 'NONE',  ( -0.000000000000000000, -1.000000000000000000, -0.000000000000000000 ) ) ;
#114 = UNCERTAINTY_MEASURE_WITH_UNIT (LENGTH_MEASURE( 1.000000000000000082E-05 ), #138, 'distance_accuracy_value', 'NONE');
#115 =( NAMED_UNIT ( * ) PLANE_ANGLE_UNIT ( ) SI_UNIT ( $, .RADIAN. ) );
#116 =( NAMED_UNIT ( * ) SI_UNIT ( $, .STERADIAN. ) SOLID_ANGLE_UNIT ( ) );
#117 = UNCERTAINTY_MEASURE_WITH_UNIT (LENGTH_MEASURE( 1.000000000000000082E-05 ), #273, 'distance_accuracy_value', 'NONE');
#118 = DIRECTION ( 'NONE',  ( 0.000000000000000000, 0.000000000000000000, -1.000000000000000000 ) ) ;
#119 = CLOSED_SHELL ( 'NONE', ( #15, #283, #205, #41 ) ) ;
#120 = EDGE_CURVE ( 'NONE', #10, #298, #229, .T. ) ;
#121 =( NAMED_UNIT ( * ) SI_UNIT ( $, .STERADIAN. ) SOLID_ANGLE_UNIT ( ) );
#122 = MANIFOLD_SOLID_BREP ( 'Revolve - Tool Body (Straight Shanked)', #119 ) ;
#123 = VERTEX_POINT ( 'NONE', #233 ) ;
#124 = PRESENTATION_LAYER_ASSIGNMENT (  '', '', ( #85 ) ) ;
#125 = EDGE_CURVE ( 'NONE', #234, #10, #160, .T. ) ;
#126 =( LENGTH_UNIT ( ) NAMED_UNIT ( * ) SI_UNIT ( $, .METRE. ) );
#127 = PRODUCT ( '23350', '23350', '', ( #207 ) ) ;
#128 = DIRECTION ( 'NONE',  ( 0.000000000000000000, 0.000000000000000000, -1.000000000000000000 ) ) ;
#129 = FILL_AREA_STYLE_COLOUR ( '', #185 ) ;
#130 = PLANE ( 'NONE',  #281 ) ;
#131 = MANIFOLD_SOLID_BREP ( 'Revolve - Cutting Edge', #108 ) ;
#132 = DIRECTION ( 'NONE',  ( 0.000000000000000000, 0.000000000000000000, -1.000000000000000000 ) ) ;
#133 = EDGE_CURVE ( 'NONE', #262, #20, #291, .T. ) ;
#134 = FACE_OUTER_BOUND ( 'NONE', #105, .T. ) ;
#135 = CARTESIAN_POINT ( 'NONE',  ( 0.000000000000000000, 2.625000000000000000, 0.000000000000000000 ) ) ;
#136 = FACE_OUTER_BOUND ( 'NONE', #54, .T. ) ;
#137 = ORIENTED_EDGE ( 'NONE', *, *, #166, .T. ) ;
#138 =( CONVERSION_BASED_UNIT ( 'INCH', #274 ) LENGTH_UNIT ( ) NAMED_UNIT ( #159 ) );
#139 = APPLICATION_PROTOCOL_DEFINITION ( 'draft international standard', 'automotive_design', 1998, #271 ) ;
#140 = CARTESIAN_POINT ( 'NONE',  ( -0.5000000000000000000, 2.625000000000000000, 0.000000000000000000 ) ) ;
#141 = CARTESIAN_POINT ( 'NONE',  ( 0.000000000000000000, 2.625000000000000000, 0.000000000000000000 ) ) ;
#142 = APPLICATION_PROTOCOL_DEFINITION ( 'draft international standard', 'automotive_design', 1998, #232 ) ;
#143 = CARTESIAN_POINT ( 'NONE',  ( -0.5000000000000003331, 6.000000000000000888, 0.000000000000000000 ) ) ;
#144 = COLOUR_RGB ( '',0.7921568627450980005, 0.8196078431372548767, 0.9333333333333333481 ) ;
#145 = UNCERTAINTY_MEASURE_WITH_UNIT (LENGTH_MEASURE( 1.000000000000000082E-05 ), #24, 'distance_accuracy_value', 'NONE');
#146 = EDGE_CURVE ( 'NONE', #202, #262, #92, .T. ) ;
#147 = FILL_AREA_STYLE ('',( #280 ) ) ;
#148 = PRODUCT_DEFINITION ( 'UNKNOWN', '', #279, #18 ) ;
#149 = CIRCLE ( 'NONE', #153, 0.5000000000000002220 ) ;
#150 = CARTESIAN_POINT ( 'NONE',  ( 0.000000000000000000, 2.625000000000000000, 0.000000000000000000 ) ) ;
#151 = ORIENTED_EDGE ( 'NONE', *, *, #146, .F. ) ;
#152 = CARTESIAN_POINT ( 'NONE',  ( 6.123233995736766036E-17, 0.000000000000000000, 0.5000000000000000000 ) ) ;
#153 = AXIS2_PLACEMENT_3D ( 'NONE', #226, #13, #161 ) ;
#154 = ORIENTED_EDGE ( 'NONE', *, *, #120, .F. ) ;
#155 = EDGE_LOOP ( 'NONE', ( #177, #84, #99, #212 ) ) ;
#156 = CARTESIAN_POINT ( 'NONE',  ( 0.000000000000000000, 0.000000000000000000, -0.5000000000000000000 ) ) ;
#157 = LENGTH_MEASURE_WITH_UNIT ( LENGTH_MEASURE( 0.02539999999999999897 ), #79 );
#158 = VECTOR ( 'NONE', #113, 39.37007874015748143 ) ;
#159 = DIMENSIONAL_EXPONENTS ( 1.000000000000000000, 0.000000000000000000, 0.000000000000000000, 0.000000000000000000, 0.000000000000000000, 0.000000000000000000, 0.000000000000000000 ) ;
#160 = LINE ( 'NONE', #178, #97 ) ;
#161 = DIRECTION ( 'NONE',  ( -1.000000000000000000, 0.000000000000000000, 0.000000000000000000 ) ) ;
#162 = DIRECTION ( 'NONE',  ( 1.000000000000000000, 5.442874662877126324E-17, 0.000000000000000000 ) ) ;
#163 = SURFACE_STYLE_FILL_AREA ( #63 ) ;
#164 = COLOUR_RGB ( '',1.000000000000000000, 0.000000000000000000, 0.000000000000000000 ) ;
#165 =( GEOMETRIC_REPRESENTATION_CONTEXT ( 3 ) GLOBAL_UNCERTAINTY_ASSIGNED_CONTEXT ( ( #93 ) ) GLOBAL_UNIT_ASSIGNED_CONTEXT ( ( #65, #115, #116 ) ) REPRESENTATION_CONTEXT ( 'NONE', 'WORKASPACE' ) );
#166 = EDGE_CURVE ( 'NONE', #174, #298, #186, .T. ) ;
#167 = SURFACE_STYLE_USAGE ( .BOTH. , #68 ) ;
#168 = AXIS2_PLACEMENT_3D ( 'NONE', #112, #277, #11 ) ;
#169 = SURFACE_SIDE_STYLE ('',( #239 ) ) ;
#170 = DIRECTION ( 'NONE',  ( -5.442874662877126324E-17, 1.000000000000000000, -0.000000000000000000 ) ) ;
#171 = CARTESIAN_POINT ( 'NONE',  ( 0.000000000000000000, 0.000000000000000000, 0.000000000000000000 ) ) ;
#172 = PRESENTATION_STYLE_ASSIGNMENT (( #104 ) ) ;
#173 = CARTESIAN_POINT ( 'NONE',  ( 0.000000000000000000, 0.000000000000000000, 0.000000000000000000 ) ) ;
#174 = VERTEX_POINT ( 'NONE', #140 ) ;
#175 = EDGE_LOOP ( 'NONE', ( #98, #220, #137, #154 ) ) ;
#176 = DIRECTION ( 'NONE',  ( -0.000000000000000000, -1.000000000000000000, -0.000000000000000000 ) ) ;
#177 = ORIENTED_EDGE ( 'NONE', *, *, #249, .T. ) ;
#178 = CARTESIAN_POINT ( 'NONE',  ( 0.4999999999999999445, 6.000000000000000888, 6.123233995736767268E-17 ) ) ;
#179 = PRESENTATION_LAYER_ASSIGNMENT (  '', '', ( #307 ) ) ;
#180 = AXIS2_PLACEMENT_3D ( 'NONE', #217, #5, #294 ) ;
#181 = DIRECTION ( 'NONE',  ( -0.000000000000000000, -1.000000000000000000, -0.000000000000000000 ) ) ;
#182 = SURFACE_SIDE_STYLE ('',( #163 ) ) ;
#183 =( LENGTH_UNIT ( ) NAMED_UNIT ( * ) SI_UNIT ( $, .METRE. ) );
#184 = SURFACE_STYLE_USAGE ( .BOTH. , #204 ) ;
#185 = COLOUR_RGB ( '',1.000000000000000000, 0.000000000000000000, 0.000000000000000000 ) ;
#186 = LINE ( 'NONE', #143, #102 ) ;
#187 = EDGE_CURVE ( 'NONE', #298, #10, #149, .T. ) ;
#188 = UNCERTAINTY_MEASURE_WITH_UNIT (LENGTH_MEASURE( 1.000000000000000082E-05 ), #304, 'distance_accuracy_value', 'NONE');
#189 = FACE_OUTER_BOUND ( 'NONE', #175, .T. ) ;
#190 =( NAMED_UNIT ( * ) SI_UNIT ( $, .STERADIAN. ) SOLID_ANGLE_UNIT ( ) );
#191 = CIRCLE ( 'NONE', #168, 0.5000000000000000000 ) ;
#192 = DIRECTION ( 'NONE',  ( -0.000000000000000000, -1.000000000000000000, -0.000000000000000000 ) ) ;
#193 = ORIENTED_EDGE ( 'NONE', *, *, #61, .F. ) ;
#194 = FILL_AREA_STYLE_COLOUR ( '', #77 ) ;
#195 =( NAMED_UNIT ( * ) PLANE_ANGLE_UNIT ( ) SI_UNIT ( $, .RADIAN. ) );
#196 = DIRECTION ( 'NONE',  ( 0.000000000000000000, -0.000000000000000000, 1.000000000000000000 ) ) ;
#197 = ORIENTED_EDGE ( 'NONE', *, *, #88, .F. ) ;
#198 = CARTESIAN_POINT ( 'NONE',  ( -0.5000000000000004441, 6.000000000000000888, 0.000000000000000000 ) ) ;
#199 = DIMENSIONAL_EXPONENTS ( 1.000000000000000000, 0.000000000000000000, 0.000000000000000000, 0.000000000000000000, 0.000000000000000000, 0.000000000000000000, 0.000000000000000000 ) ;
#200 = EDGE_LOOP ( 'NONE', ( #51, #224 ) ) ;
#201 =( LENGTH_UNIT ( ) NAMED_UNIT ( * ) SI_UNIT ( $, .METRE. ) );
#202 = VERTEX_POINT ( 'NONE', #16 ) ;
#203 = LENGTH_MEASURE_WITH_UNIT ( LENGTH_MEASURE( 0.02539999999999999897 ), #296 );
#204 = SURFACE_SIDE_STYLE ('',( #90 ) ) ;
#205 = ADVANCED_FACE ( 'NONE', ( #189 ), #111, .T. ) ;
#206 = DIRECTION ( 'NONE',  ( -5.442874662877126324E-17, 1.000000000000000000, -0.000000000000000000 ) ) ;
#207 = PRODUCT_CONTEXT ( 'NONE', #232, 'mechanical' ) ;
#208 = DIRECTION ( 'NONE',  ( -5.442874662877126324E-17, 1.000000000000000000, -0.000000000000000000 ) ) ;
#209 = AXIS2_PLACEMENT_3D ( 'NONE', #40, #301, #231 ) ;
#210 = ORIENTED_EDGE ( 'NONE', *, *, #71, .F. ) ;
#211 = ADVANCED_FACE ( 'NONE', ( #275 ), #248, .T. ) ;
#212 = ORIENTED_EDGE ( 'NONE', *, *, #303, .F. ) ;
#213 = CIRCLE ( 'NONE', #62, 0.5000000000000000000 ) ;
#214 = SURFACE_STYLE_FILL_AREA ( #221 ) ;
#215 = DIRECTION ( 'NONE',  ( 0.000000000000000000, -1.000000000000000000, -0.000000000000000000 ) ) ;
#216 = MECHANICAL_DESIGN_GEOMETRIC_PRESENTATION_REPRESENTATION (  '', ( #22 ), #264 ) ;
#217 = CARTESIAN_POINT ( 'NONE',  ( 7.406221148947448842E-34, 2.625000000000000000, 0.000000000000000000 ) ) ;
#218 = PRESENTATION_LAYER_ASSIGNMENT (  '', '', ( #45 ) ) ;
#219 = DIMENSIONAL_EXPONENTS ( 1.000000000000000000, 0.000000000000000000, 0.000000000000000000, 0.000000000000000000, 0.000000000000000000, 0.000000000000000000, 0.000000000000000000 ) ;
#220 = ORIENTED_EDGE ( 'NONE', *, *, #88, .T. ) ;
#221 = FILL_AREA_STYLE ('',( #194 ) ) ;
#222 = DIMENSIONAL_EXPONENTS ( 1.000000000000000000, 0.000000000000000000, 0.000000000000000000, 0.000000000000000000, 0.000000000000000000, 0.000000000000000000, 0.000000000000000000 ) ;
#223 = DIRECTION ( 'NONE',  ( -5.442874662877126324E-17, 1.000000000000000000, -0.000000000000000000 ) ) ;
#224 = ORIENTED_EDGE ( 'NONE', *, *, #120, .T. ) ;
#225 = CIRCLE ( 'NONE', #101, 0.5000000000000000000 ) ;
#226 = CARTESIAN_POINT ( 'NONE',  ( -1.836970198721030427E-16, 6.000000000000000888, 0.000000000000000000 ) ) ;
#227 = FILL_AREA_STYLE_COLOUR ( '', #17 ) ;
#228 = DIRECTION ( 'NONE',  ( 0.000000000000000000, 0.000000000000000000, -1.000000000000000000 ) ) ;
#229 = CIRCLE ( 'NONE', #270, 0.5000000000000002220 ) ;
#230 =( GEOMETRIC_REPRESENTATION_CONTEXT ( 3 ) GLOBAL_UNCERTAINTY_ASSIGNED_CONTEXT ( ( #188 ) ) GLOBAL_UNIT_ASSIGNED_CONTEXT ( ( #304, #284, #30 ) ) REPRESENTATION_CONTEXT ( 'NONE', 'WORKASPACE' ) );
#231 = DIRECTION ( 'NONE',  ( -1.000000000000000000, 0.000000000000000000, 0.000000000000000000 ) ) ;
#232 = APPLICATION_CONTEXT ( 'automotive_design' ) ;
#233 = CARTESIAN_POINT ( 'NONE',  ( 0.000000000000000000, 2.625000000000000000, -0.5000000000000000000 ) ) ;
#234 = VERTEX_POINT ( 'NONE', #259 ) ;
#235 = ORIENTED_EDGE ( 'NONE', *, *, #303, .T. ) ;
#236 = SURFACE_STYLE_FILL_AREA ( #240 ) ;
#237 = SURFACE_STYLE_USAGE ( .BOTH. , #169 ) ;
#238 =( NAMED_UNIT ( * ) PLANE_ANGLE_UNIT ( ) SI_UNIT ( $, .RADIAN. ) );
#239 = SURFACE_STYLE_FILL_AREA ( #48 ) ;
#240 = FILL_AREA_STYLE ('',( #129 ) ) ;
#241 = DIMENSIONAL_EXPONENTS ( 1.000000000000000000, 0.000000000000000000, 0.000000000000000000, 0.000000000000000000, 0.000000000000000000, 0.000000000000000000, 0.000000000000000000 ) ;
#242 = PRESENTATION_STYLE_ASSIGNMENT (( #237 ) ) ;
#243 =( LENGTH_UNIT ( ) NAMED_UNIT ( * ) SI_UNIT ( $, .METRE. ) );
#244 = ORIENTED_EDGE ( 'NONE', *, *, #71, .T. ) ;
#245 = AXIS2_PLACEMENT_3D ( 'NONE', #286, #2, #196 ) ;
#246 = DIRECTION ( 'NONE',  ( -1.000000000000000000, 0.000000000000000000, 0.000000000000000000 ) ) ;
#247 = DIRECTION ( 'NONE',  ( -1.000000000000000000, 0.000000000000000000, 0.000000000000000000 ) ) ;
#248 = CYLINDRICAL_SURFACE ( 'NONE', #4, 0.5000000000000000000 ) ;
#249 = EDGE_CURVE ( 'NONE', #123, #202, #213, .T. ) ;
#250 = PRESENTATION_STYLE_ASSIGNMENT (( #184 ) ) ;
#251 = MECHANICAL_DESIGN_GEOMETRIC_PRESENTATION_REPRESENTATION (  '', ( #85 ), #49 ) ;
#252 = DIRECTION ( 'NONE',  ( 5.442874662877126324E-17, -1.000000000000000000, 0.000000000000000000 ) ) ;
#253 = SHAPE_DEFINITION_REPRESENTATION ( #106, #19 ) ;
#254 = SURFACE_STYLE_USAGE ( .BOTH. , #182 ) ;
#255 = DIRECTION ( 'NONE',  ( 1.000000000000000000, 0.000000000000000000, 0.000000000000000000 ) ) ;
#256 = ADVANCED_FACE ( 'NONE', ( #95 ), #94, .T. ) ;
#257 = UNCERTAINTY_MEASURE_WITH_UNIT (LENGTH_MEASURE( 1.000000000000000082E-05 ), #309, 'distance_accuracy_value', 'NONE');
#258 = PRESENTATION_LAYER_ASSIGNMENT (  '', '', ( #276 ) ) ;
#259 = CARTESIAN_POINT ( 'NONE',  ( 0.5000000000000000000, 2.625000000000000000, 6.123233995736767268E-17 ) ) ;
#260 = MECHANICAL_DESIGN_GEOMETRIC_PRESENTATION_REPRESENTATION (  '', ( #276 ), #165 ) ;
#261 =( LENGTH_UNIT ( ) NAMED_UNIT ( * ) SI_UNIT ( $, .METRE. ) );
#262 = VERTEX_POINT ( 'NONE', #152 ) ;
#263 = FILL_AREA_STYLE_COLOUR ( '', #164 ) ;
#264 =( GEOMETRIC_REPRESENTATION_CONTEXT ( 3 ) GLOBAL_UNCERTAINTY_ASSIGNED_CONTEXT ( ( #257 ) ) GLOBAL_UNIT_ASSIGNED_CONTEXT ( ( #309, #75, #190 ) ) REPRESENTATION_CONTEXT ( 'NONE', 'WORKASPACE' ) );
#265 = EDGE_LOOP ( 'NONE', ( #6, #47 ) ) ;
#266 = CYLINDRICAL_SURFACE ( 'NONE', #57, 0.5000000000000000000 ) ;
#267 = ORIENTED_EDGE ( 'NONE', *, *, #125, .T. ) ;
#268 = CARTESIAN_POINT ( 'NONE',  ( 0.000000000000000000, 0.000000000000000000, 0.000000000000000000 ) ) ;
#269 = ADVANCED_FACE ( 'NONE', ( #136 ), #266, .T. ) ;
#270 = AXIS2_PLACEMENT_3D ( 'NONE', #31, #223, #247 ) ;
#271 = APPLICATION_CONTEXT ( 'automotive_design' ) ;
#272 = PRESENTATION_LAYER_ASSIGNMENT (  '', '', ( #56 ) ) ;
#273 =( CONVERSION_BASED_UNIT ( 'INCH', #83 ) LENGTH_UNIT ( ) NAMED_UNIT ( #86 ) );
#274 = LENGTH_MEASURE_WITH_UNIT ( LENGTH_MEASURE( 0.02539999999999999897 ), #201 );
#275 = FACE_OUTER_BOUND ( 'NONE', #155, .T. ) ;
#276 = STYLED_ITEM ( 'NONE', ( #250 ), #211 ) ;
#277 = DIRECTION ( 'NONE',  ( -0.000000000000000000, -1.000000000000000000, -0.000000000000000000 ) ) ;
#278 = CARTESIAN_POINT ( 'NONE',  ( 0.000000000000000000, 0.000000000000000000, 0.000000000000000000 ) ) ;
#279 = PRODUCT_DEFINITION_FORMATION_WITH_SPECIFIED_SOURCE ( 'ANY', '', #127, .NOT_KNOWN. ) ;
#280 = FILL_AREA_STYLE_COLOUR ( '', #70 ) ;
#281 = AXIS2_PLACEMENT_3D ( 'NONE', #171, #215, #292 ) ;
#282 =( GEOMETRIC_REPRESENTATION_CONTEXT ( 3 ) GLOBAL_UNCERTAINTY_ASSIGNED_CONTEXT ( ( #145 ) ) GLOBAL_UNIT_ASSIGNED_CONTEXT ( ( #24, #195, #288 ) ) REPRESENTATION_CONTEXT ( 'NONE', 'WORKASPACE' ) );
#283 = ADVANCED_FACE ( 'NONE', ( #134 ), #107, .F. ) ;
#284 =( NAMED_UNIT ( * ) PLANE_ANGLE_UNIT ( ) SI_UNIT ( $, .RADIAN. ) );
#285 = DIRECTION ( 'NONE',  ( -0.000000000000000000, -1.000000000000000000, -0.000000000000000000 ) ) ;
#286 = CARTESIAN_POINT ( 'NONE',  ( 0.000000000000000000, 2.625000000000000000, 0.000000000000000000 ) ) ;
#287 = SURFACE_SIDE_STYLE ('',( #214 ) ) ;
#288 =( NAMED_UNIT ( * ) SI_UNIT ( $, .STERADIAN. ) SOLID_ANGLE_UNIT ( ) );
#289 = AXIS2_PLACEMENT_3D ( 'NONE', #73, #50, #72 ) ;
#290 = FACE_OUTER_BOUND ( 'NONE', #265, .T. ) ;
#291 = CIRCLE ( 'NONE', #39, 0.5000000000000000000 ) ;
#292 = DIRECTION ( 'NONE',  ( 0.000000000000000000, 0.000000000000000000, -1.000000000000000000 ) ) ;
#293 = LINE ( 'NONE', #81, #297 ) ;
#294 = DIRECTION ( 'NONE',  ( -1.000000000000000000, -5.442874662877126324E-17, 0.000000000000000000 ) ) ;
#295 = ORIENTED_EDGE ( 'NONE', *, *, #166, .F. ) ;
#296 =( LENGTH_UNIT ( ) NAMED_UNIT ( * ) SI_UNIT ( $, .METRE. ) );
#297 = VECTOR ( 'NONE', #176, 39.37007874015748143 ) ;
#298 = VERTEX_POINT ( 'NONE', #198 ) ;
#299 = CARTESIAN_POINT ( 'NONE',  ( 0.5000000000000000000, 6.000000000000000888, 0.000000000000000000 ) ) ;
#300 = AXIS2_PLACEMENT_3D ( 'NONE', #299, #252, #162 ) ;
#301 = DIRECTION ( 'NONE',  ( -5.442874662877126324E-17, 1.000000000000000000, -0.000000000000000000 ) ) ;
#302 = CARTESIAN_POINT ( 'NONE',  ( 6.123233995736766036E-17, 0.000000000000000000, 0.5000000000000000000 ) ) ;
#303 = EDGE_CURVE ( 'NONE', #123, #20, #293, .T. ) ;
#304 =( CONVERSION_BASED_UNIT ( 'INCH', #203 ) LENGTH_UNIT ( ) NAMED_UNIT ( #53 ) );
#305 = DIRECTION ( 'NONE',  ( 0.000000000000000000, 0.000000000000000000, -1.000000000000000000 ) ) ;
#306 = LENGTH_MEASURE_WITH_UNIT ( LENGTH_MEASURE( 0.02539999999999999897 ), #126 );
#307 = STYLED_ITEM ( 'NONE', ( #9 ), #122 ) ;
#308 = EDGE_LOOP ( 'NONE', ( #244, #267, #78, #295 ) ) ;
#309 =( CONVERSION_BASED_UNIT ( 'INCH', #306 ) LENGTH_UNIT ( ) NAMED_UNIT ( #199 ) );
ENDSEC;
END-ISO-10303-21;
