ISO-10303-21;
HEADER;
FILE_DESCRIPTION (( 'STEP AP214' ),
    '1' );
FILE_NAME ('Micro_SHR-500-4X.STEP',
    '2021-09-02T08:55:17',
    ( '' ),
    ( '' ),
    'SwSTEP 2.0',
    'SolidWorks 2020',
    '' );
FILE_SCHEMA (( 'AUTOMOTIVE_DESIGN' ));
ENDSEC;

DATA;
#1 = ADVANCED_FACE ( 'NONE', ( #98 ), #295, .T. ) ;
#2 = LINE ( 'NONE', #169, #227 ) ;
#3 = DIRECTION ( 'NONE',  ( 0.0000000000000000000, 0.0000000000000000000, -1.000000000000000000 ) ) ;
#4 = AXIS2_PLACEMENT_3D ( 'NONE', #255, #115, #203 ) ;
#5 = CARTESIAN_POINT ( 'NONE',  ( 1.226383128429217700E-16, 0.0000000000000000000, 1.001417820454904462 ) ) ;
#6 = LINE ( 'NONE', #258, #185 ) ;
#7 = CARTESIAN_POINT ( 'NONE',  ( 1.224646799147353454E-16, 0.0000000000000000000, 1.000000000000000000 ) ) ;
#8 = DIRECTION ( 'NONE',  ( 1.224646799147353454E-16, 0.0000000000000000000, 1.000000000000000000 ) ) ;
#9 = CARTESIAN_POINT ( 'NONE',  ( 0.2497499999999999998, 3.058555380870514950E-17, 0.0000000000000000000 ) ) ;
#10 = DIMENSIONAL_EXPONENTS ( 1.000000000000000000, 0.0000000000000000000, 0.0000000000000000000, 0.0000000000000000000, 0.0000000000000000000, 0.0000000000000000000, 0.0000000000000000000 ) ;
#11 =( LENGTH_UNIT ( ) NAMED_UNIT ( * ) SI_UNIT ( $, .METRE. ) );
#12 = CARTESIAN_POINT ( 'NONE',  ( 0.0000000000000000000, 0.0000000000000000000, 0.0000000000000000000 ) ) ;
#13 = EDGE_LOOP ( 'NONE', ( #119, #43 ) ) ;
#14 = CONICAL_SURFACE ( 'NONE', #175, 0.2497499999999999998, 0.1745329251994338360 ) ;
#15 = EDGE_CURVE ( 'NONE', #189, #94, #208, .T. ) ;
#16 = DIRECTION ( 'NONE',  ( 0.0000000000000000000, 0.0000000000000000000, -1.000000000000000000 ) ) ;
#17 = CARTESIAN_POINT ( 'NONE',  ( 0.0000000000000000000, 0.0000000000000000000, 0.0000000000000000000 ) ) ;
#18 = ORIENTED_EDGE ( 'NONE', *, *, #131, .F. ) ;
#19 = SHAPE_DEFINITION_REPRESENTATION ( #135, #64 ) ;
#20 =( GEOMETRIC_REPRESENTATION_CONTEXT ( 3 ) GLOBAL_UNCERTAINTY_ASSIGNED_CONTEXT ( ( #84 ) ) GLOBAL_UNIT_ASSIGNED_CONTEXT ( ( #103, #198, #194 ) ) REPRESENTATION_CONTEXT ( 'NONE', 'WORKASPACE' ) );
#21 = CARTESIAN_POINT ( 'NONE',  ( -0.2350000000000011524, 0.0000000000000000000, 3.000000000000000444 ) ) ;
#22 = ORIENTED_EDGE ( 'NONE', *, *, #151, .T. ) ;
#23 = DIRECTION ( 'NONE',  ( -0.0000000000000000000, -0.0000000000000000000, -1.000000000000000000 ) ) ;
#24 = ADVANCED_FACE ( 'NONE', ( #47 ), #95, .T. ) ;
#25 = CIRCLE ( 'NONE', #116, 0.2350000000000011524 ) ;
#26 = CARTESIAN_POINT ( 'NONE',  ( 0.0000000000000000000, 0.0000000000000000000, 0.0000000000000000000 ) ) ;
#27 = DIRECTION ( 'NONE',  ( -1.000000000000000000, 0.0000000000000000000, 0.0000000000000000000 ) ) ;
#28 = FACE_OUTER_BOUND ( 'NONE', #197, .T. ) ;
#29 = DIRECTION ( 'NONE',  ( 1.000000000000000000, 0.0000000000000000000, 0.0000000000000000000 ) ) ;
#30 = DIRECTION ( 'NONE',  ( 1.000000000000000000, 0.0000000000000000000, 0.0000000000000000000 ) ) ;
#31 = DIMENSIONAL_EXPONENTS ( 1.000000000000000000, 0.0000000000000000000, 0.0000000000000000000, 0.0000000000000000000, 0.0000000000000000000, 0.0000000000000000000, 0.0000000000000000000 ) ;
#32 = DIRECTION ( 'NONE',  ( -1.224646799147353454E-16, -0.0000000000000000000, -1.000000000000000000 ) ) ;
#33 = PRODUCT_DEFINITION ( 'UNKNOWN', '', #260, #289 ) ;
#34 = FACE_OUTER_BOUND ( 'NONE', #251, .T. ) ;
#35 = PLANE ( 'NONE',  #180 ) ;
#36 =( LENGTH_UNIT ( ) NAMED_UNIT ( * ) SI_UNIT ( $, .METRE. ) );
#37 = APPLICATION_PROTOCOL_DEFINITION ( 'draft international standard', 'automotive_design', 1998, #204 ) ;
#38 = EDGE_LOOP ( 'NONE', ( #157, #90, #219, #248 ) ) ;
#39 = CLOSED_SHELL ( 'NONE', ( #1, #237, #277, #99, #24, #267, #48, #154, #284, #290 ) ) ;
#40 = COLOUR_RGB ( '',0.7921568627450980005, 0.8196078431372548767, 0.9333333333333333481 ) ;
#41 = DIRECTION ( 'NONE',  ( -1.000000000000000000, 0.0000000000000000000, 0.0000000000000000000 ) ) ;
#42 = LENGTH_MEASURE_WITH_UNIT ( LENGTH_MEASURE( 0.02539999999999999897 ), #11 );
#43 = ORIENTED_EDGE ( 'NONE', *, *, #256, .T. ) ;
#44 = EDGE_CURVE ( 'NONE', #297, #209, #136, .T. ) ;
#45 = DIRECTION ( 'NONE',  ( 1.000000000000000000, 0.0000000000000000000, 0.0000000000000000000 ) ) ;
#46 = DIRECTION ( 'NONE',  ( -1.224646799147353454E-16, -0.0000000000000000000, -1.000000000000000000 ) ) ;
#47 = FACE_OUTER_BOUND ( 'NONE', #38, .T. ) ;
#48 = ADVANCED_FACE ( 'NONE', ( #75 ), #54, .T. ) ;
#49 = ORIENTED_EDGE ( 'NONE', *, *, #141, .T. ) ;
#50 = AXIS2_PLACEMENT_3D ( 'NONE', #228, #3, #69 ) ;
#51 = LINE ( 'NONE', #206, #66 ) ;
#52 = CARTESIAN_POINT ( 'NONE',  ( 0.2350000000000011524, 2.877919977996294002E-17, 3.000000000000000444 ) ) ;
#53 = SURFACE_SIDE_STYLE ('',( #125 ) ) ;
#54 = CONICAL_SURFACE ( 'NONE', #50, 0.2350000000000011524, 0.7853981633974380649 ) ;
#55 = CARTESIAN_POINT ( 'NONE',  ( -0.2497499999999999998, 0.0000000000000000000, 3.058555380870515566E-17 ) ) ;
#56 = CARTESIAN_POINT ( 'NONE',  ( 1.224646799147353454E-16, 0.0000000000000000000, 1.000000000000000000 ) ) ;
#57 = UNCERTAINTY_MEASURE_WITH_UNIT (LENGTH_MEASURE( 1.000000000000000082E-05 ), #242, 'distance_accuracy_value', 'NONE');
#58 = EDGE_CURVE ( 'NONE', #200, #147, #162, .T. ) ;
#59 = VERTEX_POINT ( 'NONE', #21 ) ;
#60 = DIRECTION ( 'NONE',  ( -1.224646799147353454E-16, -0.0000000000000000000, -1.000000000000000000 ) ) ;
#61 = VECTOR ( 'NONE', #236, 39.37007874015748143 ) ;
#62 = FACE_OUTER_BOUND ( 'NONE', #112, .T. ) ;
#63 = ORIENTED_EDGE ( 'NONE', *, *, #68, .T. ) ;
#64 = ADVANCED_BREP_SHAPE_REPRESENTATION ( 'Micro_SHR-500-4X', ( #170, #156 ), #20 ) ;
#65 = FACE_OUTER_BOUND ( 'NONE', #13, .T. ) ;
#66 = VECTOR ( 'NONE', #178, 39.37007874015748143 ) ;
#67 = ORIENTED_EDGE ( 'NONE', *, *, #44, .F. ) ;
#68 = EDGE_CURVE ( 'NONE', #200, #189, #111, .T. ) ;
#69 = DIRECTION ( 'NONE',  ( -1.000000000000000000, 0.0000000000000000000, 0.0000000000000000000 ) ) ;
#70 = DIRECTION ( 'NONE',  ( 0.0000000000000000000, 0.0000000000000000000, -1.000000000000000000 ) ) ;
#71 = AXIS2_PLACEMENT_3D ( 'NONE', #5, #214, #30 ) ;
#72 = EDGE_CURVE ( 'NONE', #209, #147, #51, .T. ) ;
#73 = ORIENTED_EDGE ( 'NONE', *, *, #58, .F. ) ;
#74 = ORIENTED_EDGE ( 'NONE', *, *, #107, .T. ) ;
#75 = FACE_OUTER_BOUND ( 'NONE', #149, .T. ) ;
#76 = STYLED_ITEM ( 'NONE', ( #192 ), #170 ) ;
#77 = CARTESIAN_POINT ( 'NONE',  ( -0.2497499999999998888, 3.060086189369449292E-17, 1.000000000000000000 ) ) ;
#78 = FILL_AREA_STYLE_COLOUR ( '', #40 ) ;
#79 = CIRCLE ( 'NONE', #121, 0.2500000000000000000 ) ;
#80 = DIRECTION ( 'NONE',  ( -0.0000000000000000000, -0.0000000000000000000, -1.000000000000000000 ) ) ;
#81 = EDGE_CURVE ( 'NONE', #59, #134, #25, .T. ) ;
#82 = ORIENTED_EDGE ( 'NONE', *, *, #123, .T. ) ;
#83 =( CONVERSION_BASED_UNIT ( 'INCH', #283 ) LENGTH_UNIT ( ) NAMED_UNIT ( #241 ) );
#84 = UNCERTAINTY_MEASURE_WITH_UNIT (LENGTH_MEASURE( 1.000000000000000082E-05 ), #103, 'distance_accuracy_value', 'NONE');
#85 = DIRECTION ( 'NONE',  ( 0.0000000000000000000, 0.0000000000000000000, 1.000000000000000000 ) ) ;
#86 =( NAMED_UNIT ( * ) PLANE_ANGLE_UNIT ( ) SI_UNIT ( $, .RADIAN. ) );
#87 = VECTOR ( 'NONE', #80, 39.37007874015748143 ) ;
#88 = EDGE_LOOP ( 'NONE', ( #109, #174, #67, #230 ) ) ;
#89 = SURFACE_SIDE_STYLE ('',( #291 ) ) ;
#90 = ORIENTED_EDGE ( 'NONE', *, *, #181, .T. ) ;
#91 = EDGE_CURVE ( 'NONE', #288, #262, #220, .T. ) ;
#92 = ORIENTED_EDGE ( 'NONE', *, *, #202, .T. ) ;
#93 = AXIS2_PLACEMENT_3D ( 'NONE', #218, #266, #173 ) ;
#94 = VERTEX_POINT ( 'NONE', #229 ) ;
#95 = CYLINDRICAL_SURFACE ( 'NONE', #245, 0.2500000000000000000 ) ;
#96 = ORIENTED_EDGE ( 'NONE', *, *, #15, .T. ) ;
#97 = DIRECTION ( 'NONE',  ( 0.0000000000000000000, 0.0000000000000000000, 1.000000000000000000 ) ) ;
#98 = FACE_OUTER_BOUND ( 'NONE', #268, .T. ) ;
#99 = ADVANCED_FACE ( 'NONE', ( #28 ), #161, .T. ) ;
#100 = SURFACE_STYLE_USAGE ( .BOTH. , #53 ) ;
#101 = DIRECTION ( 'NONE',  ( -1.000000000000000000, 0.0000000000000000000, 0.0000000000000000000 ) ) ;
#102 = DIRECTION ( 'NONE',  ( -1.000000000000000000, 0.0000000000000000000, 1.224646799147353700E-16 ) ) ;
#103 =( CONVERSION_BASED_UNIT ( 'INCH', #129 ) LENGTH_UNIT ( ) NAMED_UNIT ( #31 ) );
#104 = UNCERTAINTY_MEASURE_WITH_UNIT (LENGTH_MEASURE( 1.000000000000000082E-05 ), #83, 'distance_accuracy_value', 'NONE');
#105 = FACE_OUTER_BOUND ( 'NONE', #179, .T. ) ;
#106 = ORIENTED_EDGE ( 'NONE', *, *, #233, .F. ) ;
#107 = EDGE_CURVE ( 'NONE', #59, #297, #2, .T. ) ;
#108 = DIRECTION ( 'NONE',  ( 1.000000000000000000, 0.0000000000000000000, -0.0000000000000000000 ) ) ;
#109 = ORIENTED_EDGE ( 'NONE', *, *, #256, .F. ) ;
#110 = ORIENTED_EDGE ( 'NONE', *, *, #202, .F. ) ;
#111 = CIRCLE ( 'NONE', #4, 0.2497499999999999998 ) ;
#112 = EDGE_LOOP ( 'NONE', ( #82, #275 ) ) ;
#113 = ORIENTED_EDGE ( 'NONE', *, *, #193, .F. ) ;
#114 = DIRECTION ( 'NONE',  ( 0.0000000000000000000, 0.0000000000000000000, 1.000000000000000000 ) ) ;
#115 = DIRECTION ( 'NONE',  ( -1.224646799147353454E-16, -0.0000000000000000000, -1.000000000000000000 ) ) ;
#116 = AXIS2_PLACEMENT_3D ( 'NONE', #142, #97, #137 ) ;
#117 = PRESENTATION_LAYER_ASSIGNMENT (  '', '', ( #282 ) ) ;
#118 = ORIENTED_EDGE ( 'NONE', *, *, #213, .T. ) ;
#119 = ORIENTED_EDGE ( 'NONE', *, *, #81, .T. ) ;
#120 =( LENGTH_UNIT ( ) NAMED_UNIT ( * ) SI_UNIT ( $, .METRE. ) );
#121 = AXIS2_PLACEMENT_3D ( 'NONE', #263, #127, #186 ) ;
#122 = CARTESIAN_POINT ( 'NONE',  ( 3.745650057197990990E-33, 0.0000000000000000000, 3.058555380870515566E-17 ) ) ;
#123 = EDGE_CURVE ( 'NONE', #262, #288, #195, .T. ) ;
#124 = FACE_OUTER_BOUND ( 'NONE', #261, .T. ) ;
#125 = SURFACE_STYLE_FILL_AREA ( #259 ) ;
#126 = AXIS2_PLACEMENT_3D ( 'NONE', #292, #16, #41 ) ;
#127 = DIRECTION ( 'NONE',  ( 0.0000000000000000000, 0.0000000000000000000, -1.000000000000000000 ) ) ;
#128 = DIRECTION ( 'NONE',  ( 1.000000000000000000, 0.0000000000000000000, -0.0000000000000000000 ) ) ;
#129 = LENGTH_MEASURE_WITH_UNIT ( LENGTH_MEASURE( 0.02539999999999999897 ), #36 );
#130 = AXIS2_PLACEMENT_3D ( 'NONE', #148, #143, #281 ) ;
#131 = EDGE_CURVE ( 'NONE', #134, #209, #210, .T. ) ;
#132 = DIRECTION ( 'NONE',  ( -1.224646799147353454E-16, -0.0000000000000000000, -1.000000000000000000 ) ) ;
#133 = ORIENTED_EDGE ( 'NONE', *, *, #72, .T. ) ;
#134 = VERTEX_POINT ( 'NONE', #188 ) ;
#135 = PRODUCT_DEFINITION_SHAPE ( 'NONE', 'NONE',  #33 ) ;
#136 = CIRCLE ( 'NONE', #278, 0.2500000000000000000 ) ;
#137 = DIRECTION ( 'NONE',  ( 1.000000000000000000, 0.0000000000000000000, 0.0000000000000000000 ) ) ;
#138 = CARTESIAN_POINT ( 'NONE',  ( 0.2497500000000001386, 0.0000000000000000000, 1.000000000000000000 ) ) ;
#139 = CARTESIAN_POINT ( 'NONE',  ( 0.0000000000000000000, 0.0000000000000000000, 3.000000000000000444 ) ) ;
#140 = AXIS2_PLACEMENT_3D ( 'NONE', #56, #8, #165 ) ;
#141 = EDGE_CURVE ( 'NONE', #94, #147, #269, .T. ) ;
#142 = CARTESIAN_POINT ( 'NONE',  ( 0.0000000000000000000, 0.0000000000000000000, 3.000000000000000444 ) ) ;
#143 = DIRECTION ( 'NONE',  ( -1.224646799147353454E-16, -0.0000000000000000000, -1.000000000000000000 ) ) ;
#144 = DIRECTION ( 'NONE',  ( -1.224646799147353454E-16, -0.0000000000000000000, -1.000000000000000000 ) ) ;
#145 = CIRCLE ( 'NONE', #93, 0.2350000000000011524 ) ;
#146 =( NAMED_UNIT ( * ) PLANE_ANGLE_UNIT ( ) SI_UNIT ( $, .RADIAN. ) );
#147 = VERTEX_POINT ( 'NONE', #234 ) ;
#148 = CARTESIAN_POINT ( 'NONE',  ( 1.226383128429217700E-16, 0.0000000000000000000, 1.001417820454904462 ) ) ;
#149 = EDGE_LOOP ( 'NONE', ( #18, #247, #74, #199 ) ) ;
#150 = LINE ( 'NONE', #239, #87 ) ;
#151 = EDGE_CURVE ( 'NONE', #147, #94, #240, .T. ) ;
#152 = VECTOR ( 'NONE', #280, 39.37007874015748854 ) ;
#153 = FACE_OUTER_BOUND ( 'NONE', #88, .T. ) ;
#154 = ADVANCED_FACE ( 'NONE', ( #124 ), #171, .T. ) ;
#155 = AXIS2_PLACEMENT_3D ( 'NONE', #253, #232, #159 ) ;
#156 = AXIS2_PLACEMENT_3D ( 'NONE', #26, #114, #160 ) ;
#157 = ORIENTED_EDGE ( 'NONE', *, *, #72, .F. ) ;
#158 = ORIENTED_EDGE ( 'NONE', *, *, #141, .F. ) ;
#159 = DIRECTION ( 'NONE',  ( -1.000000000000000000, 0.0000000000000000000, 1.224646799147353700E-16 ) ) ;
#160 = DIRECTION ( 'NONE',  ( 1.000000000000000000, 0.0000000000000000000, 0.0000000000000000000 ) ) ;
#161 = CYLINDRICAL_SURFACE ( 'NONE', #211, 0.2500000000000000000 ) ;
#162 = LINE ( 'NONE', #138, #163 ) ;
#163 = VECTOR ( 'NONE', #299, 39.37007874015748143 ) ;
#164 =( GEOMETRIC_REPRESENTATION_CONTEXT ( 3 ) GLOBAL_UNCERTAINTY_ASSIGNED_CONTEXT ( ( #57 ) ) GLOBAL_UNIT_ASSIGNED_CONTEXT ( ( #242, #86, #201 ) ) REPRESENTATION_CONTEXT ( 'NONE', 'WORKASPACE' ) );
#165 = DIRECTION ( 'NONE',  ( 1.000000000000000000, 0.0000000000000000000, 0.0000000000000000000 ) ) ;
#166 = CARTESIAN_POINT ( 'NONE',  ( 0.2497500000000001386, 0.0000000000000000000, 1.000000000000000000 ) ) ;
#167 = DIRECTION ( 'NONE',  ( -1.000000000000000000, 0.0000000000000000000, 1.224646799147353700E-16 ) ) ;
#168 = AXIS2_PLACEMENT_3D ( 'NONE', #7, #60, #101 ) ;
#169 = CARTESIAN_POINT ( 'NONE',  ( -0.2350000000000011524, 0.0000000000000000000, 3.000000000000000444 ) ) ;
#170 = MANIFOLD_SOLID_BREP ( 'Cut-Revolve1', #39 ) ;
#171 = CONICAL_SURFACE ( 'NONE', #140, 0.2497499999999999998, 0.1745329251994338360 ) ;
#172 = ORIENTED_EDGE ( 'NONE', *, *, #58, .T. ) ;
#173 = DIRECTION ( 'NONE',  ( 1.000000000000000000, 0.0000000000000000000, 0.0000000000000000000 ) ) ;
#174 = ORIENTED_EDGE ( 'NONE', *, *, #131, .T. ) ;
#175 = AXIS2_PLACEMENT_3D ( 'NONE', #216, #238, #29 ) ;
#176 = ORIENTED_EDGE ( 'NONE', *, *, #193, .T. ) ;
#177 = CARTESIAN_POINT ( 'NONE',  ( 0.0000000000000000000, 0.0000000000000000000, 3.000000000000000444 ) ) ;
#178 = DIRECTION ( 'NONE',  ( -0.0000000000000000000, -0.0000000000000000000, -1.000000000000000000 ) ) ;
#179 = EDGE_LOOP ( 'NONE', ( #113, #63, #92, #274 ) ) ;
#180 = AXIS2_PLACEMENT_3D ( 'NONE', #17, #244, #108 ) ;
#181 = EDGE_CURVE ( 'NONE', #209, #297, #79, .T. ) ;
#182 = DIRECTION ( 'NONE',  ( -1.000000000000000000, 0.0000000000000000000, 1.224646799147353700E-16 ) ) ;
#183 = CARTESIAN_POINT ( 'NONE',  ( 0.0000000000000000000, 0.0000000000000000000, 2.985000000000001208 ) ) ;
#184 = VECTOR ( 'NONE', #250, 39.37007874015747433 ) ;
#185 = VECTOR ( 'NONE', #144, 39.37007874015748143 ) ;
#186 = DIRECTION ( 'NONE',  ( 1.000000000000000000, 0.0000000000000000000, 0.0000000000000000000 ) ) ;
#187 = LINE ( 'NONE', #55, #61 ) ;
#188 = CARTESIAN_POINT ( 'NONE',  ( 0.2350000000000011524, 2.969768487932338510E-17, 3.000000000000000444 ) ) ;
#189 = VERTEX_POINT ( 'NONE', #77 ) ;
#190 = AXIS2_PLACEMENT_3D ( 'NONE', #122, #32, #167 ) ;
#191 = COLOUR_RGB ( '',0.7921568627450980005, 0.8196078431372548767, 0.9333333333333333481 ) ;
#192 = PRESENTATION_STYLE_ASSIGNMENT (( #100 ) ) ;
#193 = EDGE_CURVE ( 'NONE', #200, #288, #6, .T. ) ;
#194 =( NAMED_UNIT ( * ) SI_UNIT ( $, .STERADIAN. ) SOLID_ANGLE_UNIT ( ) );
#195 = CIRCLE ( 'NONE', #190, 0.2497499999999999998 ) ;
#196 = CARTESIAN_POINT ( 'NONE',  ( -0.2500000000000000000, 0.0000000000000000000, 2.985000000000001208 ) ) ;
#197 = EDGE_LOOP ( 'NONE', ( #205, #133, #158, #106 ) ) ;
#198 =( NAMED_UNIT ( * ) PLANE_ANGLE_UNIT ( ) SI_UNIT ( $, .RADIAN. ) );
#199 = ORIENTED_EDGE ( 'NONE', *, *, #181, .F. ) ;
#200 = VERTEX_POINT ( 'NONE', #166 ) ;
#201 =( NAMED_UNIT ( * ) SI_UNIT ( $, .STERADIAN. ) SOLID_ANGLE_UNIT ( ) );
#202 = EDGE_CURVE ( 'NONE', #189, #262, #187, .T. ) ;
#203 = DIRECTION ( 'NONE',  ( -1.000000000000000000, 0.0000000000000000000, 0.0000000000000000000 ) ) ;
#204 = APPLICATION_CONTEXT ( 'automotive_design' ) ;
#205 = ORIENTED_EDGE ( 'NONE', *, *, #44, .T. ) ;
#206 = CARTESIAN_POINT ( 'NONE',  ( 0.2500000000000000000, 3.061616997868382402E-17, 3.000000000000000444 ) ) ;
#207 = AXIS2_PLACEMENT_3D ( 'NONE', #264, #85, #128 ) ;
#208 = LINE ( 'NONE', #272, #184 ) ;
#209 = VERTEX_POINT ( 'NONE', #212 ) ;
#210 = LINE ( 'NONE', #52, #152 ) ;
#211 = AXIS2_PLACEMENT_3D ( 'NONE', #139, #231, #27 ) ;
#212 = CARTESIAN_POINT ( 'NONE',  ( 0.2500000000000000000, 3.061616997868382402E-17, 2.985000000000001208 ) ) ;
#213 = EDGE_CURVE ( 'NONE', #189, #200, #287, .T. ) ;
#214 = DIRECTION ( 'NONE',  ( -1.224646799147353454E-16, -0.0000000000000000000, -1.000000000000000000 ) ) ;
#215 = PRESENTATION_LAYER_ASSIGNMENT (  '', '', ( #76 ) ) ;
#216 = CARTESIAN_POINT ( 'NONE',  ( 1.224646799147353454E-16, 0.0000000000000000000, 1.000000000000000000 ) ) ;
#217 = PRESENTATION_STYLE_ASSIGNMENT (( #270 ) ) ;
#218 = CARTESIAN_POINT ( 'NONE',  ( 0.0000000000000000000, 0.0000000000000000000, 3.000000000000000444 ) ) ;
#219 = ORIENTED_EDGE ( 'NONE', *, *, #233, .T. ) ;
#220 = CIRCLE ( 'NONE', #293, 0.2497499999999999998 ) ;
#221 = MECHANICAL_DESIGN_GEOMETRIC_PRESENTATION_REPRESENTATION (  '', ( #282 ), #164 ) ;
#222 = FILL_AREA_STYLE ('',( #286 ) ) ;
#223 = ORIENTED_EDGE ( 'NONE', *, *, #123, .F. ) ;
#224 = PLANE ( 'NONE',  #207 ) ;
#225 = PRODUCT ( 'Micro_SHR-500-4X', 'Micro_SHR-500-4X', '', ( #296 ) ) ;
#226 = PRODUCT_RELATED_PRODUCT_CATEGORY ( 'part', '', ( #225 ) ) ;
#227 = VECTOR ( 'NONE', #257, 39.37007874015748854 ) ;
#228 = CARTESIAN_POINT ( 'NONE',  ( 0.0000000000000000000, 0.0000000000000000000, 3.000000000000000444 ) ) ;
#229 = CARTESIAN_POINT ( 'NONE',  ( -0.2499999999999998612, 0.0000000000000000000, 1.001417820454904462 ) ) ;
#230 = ORIENTED_EDGE ( 'NONE', *, *, #107, .F. ) ;
#231 = DIRECTION ( 'NONE',  ( -0.0000000000000000000, -0.0000000000000000000, -1.000000000000000000 ) ) ;
#232 = DIRECTION ( 'NONE',  ( -1.224646799147353454E-16, -0.0000000000000000000, -1.000000000000000000 ) ) ;
#233 = EDGE_CURVE ( 'NONE', #297, #94, #150, .T. ) ;
#234 = CARTESIAN_POINT ( 'NONE',  ( 0.2500000000000001110, 3.061616997868383634E-17, 1.001417820454904462 ) ) ;
#235 = MECHANICAL_DESIGN_GEOMETRIC_PRESENTATION_REPRESENTATION (  '', ( #76 ), #298 ) ;
#236 = DIRECTION ( 'NONE',  ( -1.224646799147353454E-16, -0.0000000000000000000, -1.000000000000000000 ) ) ;
#237 = ADVANCED_FACE ( 'NONE', ( #34 ), #14, .T. ) ;
#238 = DIRECTION ( 'NONE',  ( 1.224646799147353454E-16, 0.0000000000000000000, 1.000000000000000000 ) ) ;
#239 = CARTESIAN_POINT ( 'NONE',  ( -0.2500000000000000000, 0.0000000000000000000, 3.000000000000000444 ) ) ;
#240 = CIRCLE ( 'NONE', #71, 0.2500000000000000000 ) ;
#241 = DIMENSIONAL_EXPONENTS ( 1.000000000000000000, 0.0000000000000000000, 0.0000000000000000000, 0.0000000000000000000, 0.0000000000000000000, 0.0000000000000000000, 0.0000000000000000000 ) ;
#242 =( CONVERSION_BASED_UNIT ( 'INCH', #42 ) LENGTH_UNIT ( ) NAMED_UNIT ( #10 ) );
#243 = CYLINDRICAL_SURFACE ( 'NONE', #246, 0.2497499999999999998 ) ;
#244 = DIRECTION ( 'NONE',  ( 0.0000000000000000000, 0.0000000000000000000, 1.000000000000000000 ) ) ;
#245 = AXIS2_PLACEMENT_3D ( 'NONE', #177, #23, #276 ) ;
#246 = AXIS2_PLACEMENT_3D ( 'NONE', #12, #132, #102 ) ;
#247 = ORIENTED_EDGE ( 'NONE', *, *, #81, .F. ) ;
#248 = ORIENTED_EDGE ( 'NONE', *, *, #151, .F. ) ;
#249 = APPLICATION_PROTOCOL_DEFINITION ( 'draft international standard', 'automotive_design', 1998, #285 ) ;
#250 = DIRECTION ( 'NONE',  ( -0.1736481776669311639, 2.126576849575782392E-17, 0.9848077530122080203 ) ) ;
#251 = EDGE_LOOP ( 'NONE', ( #271, #96, #49, #73 ) ) ;
#252 = ORIENTED_EDGE ( 'NONE', *, *, #15, .F. ) ;
#253 = CARTESIAN_POINT ( 'NONE',  ( 0.0000000000000000000, 0.0000000000000000000, 0.0000000000000000000 ) ) ;
#254 = CONICAL_SURFACE ( 'NONE', #126, 0.2350000000000011524, 0.7853981633974380649 ) ;
#255 = CARTESIAN_POINT ( 'NONE',  ( 1.224646799147353454E-16, 0.0000000000000000000, 1.000000000000000000 ) ) ;
#256 = EDGE_CURVE ( 'NONE', #134, #59, #145, .T. ) ;
#257 = DIRECTION ( 'NONE',  ( -0.7071067811865402453, 0.0000000000000000000, -0.7071067811865546782 ) ) ;
#258 = CARTESIAN_POINT ( 'NONE',  ( 0.2497499999999999998, 3.058555380870514950E-17, -3.058555380870515566E-17 ) ) ;
#259 = FILL_AREA_STYLE ('',( #78 ) ) ;
#260 = PRODUCT_DEFINITION_FORMATION_WITH_SPECIFIED_SOURCE ( 'ANY', '', #225, .NOT_KNOWN. ) ;
#261 = EDGE_LOOP ( 'NONE', ( #252, #294, #172, #22 ) ) ;
#262 = VERTEX_POINT ( 'NONE', #265 ) ;
#263 = CARTESIAN_POINT ( 'NONE',  ( 0.0000000000000000000, 0.0000000000000000000, 2.985000000000001208 ) ) ;
#264 = CARTESIAN_POINT ( 'NONE',  ( 0.0000000000000000000, 0.0000000000000000000, 3.000000000000000444 ) ) ;
#265 = CARTESIAN_POINT ( 'NONE',  ( -0.2497499999999999998, 0.0000000000000000000, 6.117110761741031132E-17 ) ) ;
#266 = DIRECTION ( 'NONE',  ( 0.0000000000000000000, 0.0000000000000000000, 1.000000000000000000 ) ) ;
#267 = ADVANCED_FACE ( 'NONE', ( #65 ), #224, .T. ) ;
#268 = EDGE_LOOP ( 'NONE', ( #118, #176, #223, #110 ) ) ;
#269 = CIRCLE ( 'NONE', #130, 0.2500000000000000000 ) ;
#270 = SURFACE_STYLE_USAGE ( .BOTH. , #89 ) ;
#271 = ORIENTED_EDGE ( 'NONE', *, *, #213, .F. ) ;
#272 = CARTESIAN_POINT ( 'NONE',  ( -0.2497499999999998888, 3.058555380870514950E-17, 1.000000000000000000 ) ) ;
#273 = CARTESIAN_POINT ( 'NONE',  ( 3.745650057197990990E-33, 0.0000000000000000000, 3.058555380870515566E-17 ) ) ;
#274 = ORIENTED_EDGE ( 'NONE', *, *, #91, .F. ) ;
#275 = ORIENTED_EDGE ( 'NONE', *, *, #91, .T. ) ;
#276 = DIRECTION ( 'NONE',  ( -1.000000000000000000, 0.0000000000000000000, 0.0000000000000000000 ) ) ;
#277 = ADVANCED_FACE ( 'NONE', ( #153 ), #254, .T. ) ;
#278 = AXIS2_PLACEMENT_3D ( 'NONE', #183, #70, #45 ) ;
#279 =( NAMED_UNIT ( * ) SI_UNIT ( $, .STERADIAN. ) SOLID_ANGLE_UNIT ( ) );
#280 = DIRECTION ( 'NONE',  ( 0.7071067811865402453, 8.659560562354845344E-17, -0.7071067811865546782 ) ) ;
#281 = DIRECTION ( 'NONE',  ( 1.000000000000000000, 0.0000000000000000000, 0.0000000000000000000 ) ) ;
#282 = STYLED_ITEM ( 'NONE', ( #217 ), #64 ) ;
#283 = LENGTH_MEASURE_WITH_UNIT ( LENGTH_MEASURE( 0.02539999999999999897 ), #120 );
#284 = ADVANCED_FACE ( 'NONE', ( #105 ), #243, .T. ) ;
#285 = APPLICATION_CONTEXT ( 'automotive_design' ) ;
#286 = FILL_AREA_STYLE_COLOUR ( '', #191 ) ;
#287 = CIRCLE ( 'NONE', #168, 0.2497499999999999998 ) ;
#288 = VERTEX_POINT ( 'NONE', #9 ) ;
#289 = PRODUCT_DEFINITION_CONTEXT ( 'detailed design', #285, 'design' ) ;
#290 = ADVANCED_FACE ( 'NONE', ( #62 ), #35, .F. ) ;
#291 = SURFACE_STYLE_FILL_AREA ( #222 ) ;
#292 = CARTESIAN_POINT ( 'NONE',  ( 0.0000000000000000000, 0.0000000000000000000, 3.000000000000000444 ) ) ;
#293 = AXIS2_PLACEMENT_3D ( 'NONE', #273, #46, #182 ) ;
#294 = ORIENTED_EDGE ( 'NONE', *, *, #68, .F. ) ;
#295 = CYLINDRICAL_SURFACE ( 'NONE', #155, 0.2497499999999999998 ) ;
#296 = PRODUCT_CONTEXT ( 'NONE', #204, 'mechanical' ) ;
#297 = VERTEX_POINT ( 'NONE', #196 ) ;
#298 =( GEOMETRIC_REPRESENTATION_CONTEXT ( 3 ) GLOBAL_UNCERTAINTY_ASSIGNED_CONTEXT ( ( #104 ) ) GLOBAL_UNIT_ASSIGNED_CONTEXT ( ( #83, #146, #279 ) ) REPRESENTATION_CONTEXT ( 'NONE', 'WORKASPACE' ) );
#299 = DIRECTION ( 'NONE',  ( 0.1736481776669313304, 0.0000000000000000000, 0.9848077530122077983 ) ) ;
ENDSEC;
END-ISO-10303-21;
