ISO-10303-21;
HEADER;
FILE_DESCRIPTION (( 'STEP AP214' ),
    '1' );
FILE_NAME ('26392.STEP',
    '2023-06-22T17:46:00',
    ( '' ),
    ( '' ),
    'SwSTEP 2.0',
    'SolidWorks 2023',
    '' );
FILE_SCHEMA (( 'AUTOMOTIVE_DESIGN' ));
ENDSEC;

DATA;
#1 = LENGTH_MEASURE_WITH_UNIT ( LENGTH_MEASURE( 0.02539999999999999897 ), #94 );
#2 = ORIENTED_EDGE ( 'NONE', *, *, #8, .F. ) ;
#3 = ORIENTED_EDGE ( 'NONE', *, *, #161, .F. ) ;
#4 = AXIS2_PLACEMENT_3D ( 'NONE', #81, #296, #228 ) ;
#5 =( GEOMETRIC_REPRESENTATION_CONTEXT ( 3 ) GLOBAL_UNCERTAINTY_ASSIGNED_CONTEXT ( ( #215 ) ) GLOBAL_UNIT_ASSIGNED_CONTEXT ( ( #202, #277, #34 ) ) REPRESENTATION_CONTEXT ( 'NONE', 'WORKASPACE' ) );
#6 =( NAMED_UNIT ( * ) SI_UNIT ( $, .STERADIAN. ) SOLID_ANGLE_UNIT ( ) );
#7 =( LENGTH_UNIT ( ) NAMED_UNIT ( * ) SI_UNIT ( $, .METRE. ) );
#8 = EDGE_CURVE ( 'NONE', #142, #48, #98, .T. ) ;
#9 = DIRECTION ( 'NONE',  ( 0.000000000000000000, 0.000000000000000000, -1.000000000000000000 ) ) ;
#10 = MECHANICAL_DESIGN_GEOMETRIC_PRESENTATION_REPRESENTATION (  '', ( #77 ), #82 ) ;
#11 = CARTESIAN_POINT ( 'NONE',  ( 0.3750000000000000555, 2.250000000000000444, 4.592425496802576684E-17 ) ) ;
#12 = CIRCLE ( 'NONE', #245, 0.3750000000000001665 ) ;
#13 = CYLINDRICAL_SURFACE ( 'NONE', #183, 0.3750000000000000555 ) ;
#14 = SURFACE_STYLE_USAGE ( .BOTH. , #104 ) ;
#15 = CARTESIAN_POINT ( 'NONE',  ( 0.000000000000000000, 0.000000000000000000, 0.000000000000000000 ) ) ;
#16 = SURFACE_STYLE_FILL_AREA ( #67 ) ;
#17 =( LENGTH_UNIT ( ) NAMED_UNIT ( * ) SI_UNIT ( $, .METRE. ) );
#18 = CLOSED_SHELL ( 'NONE', ( #105, #44, #303, #111 ) ) ;
#19 = AXIS2_PLACEMENT_3D ( 'NONE', #159, #152, #157 ) ;
#20 = UNCERTAINTY_MEASURE_WITH_UNIT (LENGTH_MEASURE( 1.000000000000000082E-05 ), #290, 'distance_accuracy_value', 'NONE');
#21 = SURFACE_STYLE_USAGE ( .BOTH. , #42 ) ;
#22 = DIRECTION ( 'NONE',  ( -4.453261087808557677E-17, 1.000000000000000000, -0.000000000000000000 ) ) ;
#23 = DIRECTION ( 'NONE',  ( -4.453261087808557677E-17, 1.000000000000000000, -0.000000000000000000 ) ) ;
#24 = EDGE_CURVE ( 'NONE', #122, #197, #56, .T. ) ;
#25 = ORIENTED_EDGE ( 'NONE', *, *, #285, .F. ) ;
#26 = DIMENSIONAL_EXPONENTS ( 1.000000000000000000, 0.000000000000000000, 0.000000000000000000, 0.000000000000000000, 0.000000000000000000, 0.000000000000000000, 0.000000000000000000 ) ;
#27 = FILL_AREA_STYLE ('',( #124 ) ) ;
#28 = ORIENTED_EDGE ( 'NONE', *, *, #123, .T. ) ;
#29 = UNCERTAINTY_MEASURE_WITH_UNIT (LENGTH_MEASURE( 1.000000000000000082E-05 ), #253, 'distance_accuracy_value', 'NONE');
#30 = ORIENTED_EDGE ( 'NONE', *, *, #65, .F. ) ;
#31 = ADVANCED_FACE ( 'NONE', ( #265 ), #76, .T. ) ;
#32 = EDGE_LOOP ( 'NONE', ( #28, #52, #47, #30 ) ) ;
#33 = CARTESIAN_POINT ( 'NONE',  ( 0.000000000000000000, 2.250000000000000000, 0.000000000000000000 ) ) ;
#34 =( NAMED_UNIT ( * ) SI_UNIT ( $, .STERADIAN. ) SOLID_ANGLE_UNIT ( ) );
#35 = PRESENTATION_LAYER_ASSIGNMENT (  '', '', ( #77 ) ) ;
#36 = CARTESIAN_POINT ( 'NONE',  ( 0.000000000000000000, 2.250000000000000000, 0.000000000000000000 ) ) ;
#37 = DIRECTION ( 'NONE',  ( 1.000000000000000000, 4.453261087808557677E-17, 0.000000000000000000 ) ) ;
#38 = SURFACE_STYLE_USAGE ( .BOTH. , #247 ) ;
#39 = PLANE ( 'NONE',  #244 ) ;
#40 = SURFACE_STYLE_USAGE ( .BOTH. , #297 ) ;
#41 = AXIS2_PLACEMENT_3D ( 'NONE', #36, #274, #57 ) ;
#42 = SURFACE_SIDE_STYLE ('',( #90 ) ) ;
#43 = DIMENSIONAL_EXPONENTS ( 1.000000000000000000, 0.000000000000000000, 0.000000000000000000, 0.000000000000000000, 0.000000000000000000, 0.000000000000000000, 0.000000000000000000 ) ;
#44 = ADVANCED_FACE ( 'NONE', ( #200 ), #39, .F. ) ;
#45 = EDGE_LOOP ( 'NONE', ( #127, #217, #216, #71 ) ) ;
#46 = COLOUR_RGB ( '',1.000000000000000000, 0.000000000000000000, 0.000000000000000000 ) ;
#47 = ORIENTED_EDGE ( 'NONE', *, *, #227, .F. ) ;
#48 = VERTEX_POINT ( 'NONE', #79 ) ;
#49 = PRESENTATION_LAYER_ASSIGNMENT (  '', '', ( #204 ) ) ;
#50 = STYLED_ITEM ( 'NONE', ( #107 ), #230 ) ;
#51 = UNCERTAINTY_MEASURE_WITH_UNIT (LENGTH_MEASURE( 1.000000000000000082E-05 ), #87, 'distance_accuracy_value', 'NONE');
#52 = ORIENTED_EDGE ( 'NONE', *, *, #249, .T. ) ;
#53 = DIRECTION ( 'NONE',  ( -1.000000000000000000, 0.000000000000000000, 0.000000000000000000 ) ) ;
#54 = FILL_AREA_STYLE ('',( #242 ) ) ;
#55 = CARTESIAN_POINT ( 'NONE',  ( 4.592425496802575451E-17, 0.000000000000000000, 0.3750000000000000555 ) ) ;
#56 = CIRCLE ( 'NONE', #225, 0.3750000000000000555 ) ;
#57 = DIRECTION ( 'NONE',  ( 0.000000000000000000, -0.000000000000000000, 1.000000000000000000 ) ) ;
#58 = DIRECTION ( 'NONE',  ( 0.000000000000000000, 0.000000000000000000, -1.000000000000000000 ) ) ;
#59 = CARTESIAN_POINT ( 'NONE',  ( 0.000000000000000000, 0.000000000000000000, 0.000000000000000000 ) ) ;
#60 = CARTESIAN_POINT ( 'NONE',  ( 0.3750000000000000555, 5.000000000000000000, 4.592425496802576684E-17 ) ) ;
#61 = CARTESIAN_POINT ( 'NONE',  ( 1.516480271171051896E-32, 2.250000000000000444, 0.000000000000000000 ) ) ;
#62 = PRESENTATION_LAYER_ASSIGNMENT (  '', '', ( #219 ) ) ;
#63 = PRESENTATION_STYLE_ASSIGNMENT (( #40 ) ) ;
#64 = CARTESIAN_POINT ( 'NONE',  ( 0.000000000000000000, 0.000000000000000000, 0.000000000000000000 ) ) ;
#65 = EDGE_CURVE ( 'NONE', #197, #262, #294, .T. ) ;
#66 = APPLICATION_PROTOCOL_DEFINITION ( 'draft international standard', 'automotive_design', 1998, #268 ) ;
#67 = FILL_AREA_STYLE ('',( #114 ) ) ;
#68 = CIRCLE ( 'NONE', #92, 0.3750000000000000555 ) ;
#69 = FACE_OUTER_BOUND ( 'NONE', #195, .T. ) ;
#70 = ORIENTED_EDGE ( 'NONE', *, *, #24, .F. ) ;
#71 = ORIENTED_EDGE ( 'NONE', *, *, #209, .F. ) ;
#72 = CIRCLE ( 'NONE', #251, 0.3750000000000000555 ) ;
#73 = MECHANICAL_DESIGN_GEOMETRIC_PRESENTATION_REPRESENTATION (  '', ( #50 ), #5 ) ;
#74 = VERTEX_POINT ( 'NONE', #55 ) ;
#75 =( CONVERSION_BASED_UNIT ( 'INCH', #1 ) LENGTH_UNIT ( ) NAMED_UNIT ( #306 ) );
#76 = CYLINDRICAL_SURFACE ( 'NONE', #149, 0.3750000000000000555 ) ;
#77 = STYLED_ITEM ( 'NONE', ( #108 ), #89 ) ;
#78 =( NAMED_UNIT ( * ) SI_UNIT ( $, .STERADIAN. ) SOLID_ANGLE_UNIT ( ) );
#79 = CARTESIAN_POINT ( 'NONE',  ( 0.000000000000000000, 0.000000000000000000, -0.3750000000000000555 ) ) ;
#80 = LENGTH_MEASURE_WITH_UNIT ( LENGTH_MEASURE( 0.02539999999999999897 ), #7 );
#81 = CARTESIAN_POINT ( 'NONE',  ( -1.224646799147353207E-16, 5.000000000000000000, 0.000000000000000000 ) ) ;
#82 =( GEOMETRIC_REPRESENTATION_CONTEXT ( 3 ) GLOBAL_UNCERTAINTY_ASSIGNED_CONTEXT ( ( #20 ) ) GLOBAL_UNIT_ASSIGNED_CONTEXT ( ( #290, #156, #78 ) ) REPRESENTATION_CONTEXT ( 'NONE', 'WORKASPACE' ) );
#83 =( NAMED_UNIT ( * ) PLANE_ANGLE_UNIT ( ) SI_UNIT ( $, .RADIAN. ) );
#84 =( LENGTH_UNIT ( ) NAMED_UNIT ( * ) SI_UNIT ( $, .METRE. ) );
#85 = COLOUR_RGB ( '',0.7921568627450980005, 0.8196078431372548767, 0.9333333333333333481 ) ;
#86 = CIRCLE ( 'NONE', #19, 0.3750000000000001665 ) ;
#87 =( CONVERSION_BASED_UNIT ( 'INCH', #234 ) LENGTH_UNIT ( ) NAMED_UNIT ( #263 ) );
#88 = CARTESIAN_POINT ( 'NONE',  ( 0.000000000000000000, 0.000000000000000000, 0.000000000000000000 ) ) ;
#89 = MANIFOLD_SOLID_BREP ( 'Revolve - Tool Body (Straight Shanked)', #18 ) ;
#90 = SURFACE_STYLE_FILL_AREA ( #117 ) ;
#91 = CYLINDRICAL_SURFACE ( 'NONE', #115, 0.3750000000000001110 ) ;
#92 = AXIS2_PLACEMENT_3D ( 'NONE', #132, #203, #9 ) ;
#93 = UNCERTAINTY_MEASURE_WITH_UNIT (LENGTH_MEASURE( 1.000000000000000082E-05 ), #101, 'distance_accuracy_value', 'NONE');
#94 =( LENGTH_UNIT ( ) NAMED_UNIT ( * ) SI_UNIT ( $, .METRE. ) );
#95 = PRODUCT_RELATED_PRODUCT_CATEGORY ( 'part', '', ( #258 ) ) ;
#96 = EDGE_LOOP ( 'NONE', ( #307, #171, #264, #2 ) ) ;
#97 = VERTEX_POINT ( 'NONE', #184 ) ;
#98 = LINE ( 'NONE', #198, #261 ) ;
#99 = AXIS2_PLACEMENT_3D ( 'NONE', #103, #292, #58 ) ;
#100 = FILL_AREA_STYLE ('',( #222 ) ) ;
#101 =( CONVERSION_BASED_UNIT ( 'INCH', #80 ) LENGTH_UNIT ( ) NAMED_UNIT ( #172 ) );
#102 = DIRECTION ( 'NONE',  ( -4.453261087808557677E-17, 1.000000000000000000, 0.000000000000000000 ) ) ;
#103 = CARTESIAN_POINT ( 'NONE',  ( 0.000000000000000000, 2.250000000000000000, 0.000000000000000000 ) ) ;
#104 = SURFACE_SIDE_STYLE ('',( #185 ) ) ;
#105 = ADVANCED_FACE ( 'NONE', ( #158 ), #248, .T. ) ;
#106 =( GEOMETRIC_REPRESENTATION_CONTEXT ( 3 ) GLOBAL_UNCERTAINTY_ASSIGNED_CONTEXT ( ( #121 ) ) GLOBAL_UNIT_ASSIGNED_CONTEXT ( ( #189, #229, #305 ) ) REPRESENTATION_CONTEXT ( 'NONE', 'WORKASPACE' ) );
#107 = PRESENTATION_STYLE_ASSIGNMENT (( #38 ) ) ;
#108 = PRESENTATION_STYLE_ASSIGNMENT (( #14 ) ) ;
#109 = CARTESIAN_POINT ( 'NONE',  ( 0.000000000000000000, 2.250000000000000000, -0.3750000000000000555 ) ) ;
#110 = DIRECTION ( 'NONE',  ( -0.000000000000000000, -1.000000000000000000, -0.000000000000000000 ) ) ;
#111 = ADVANCED_FACE ( 'NONE', ( #182 ), #273, .F. ) ;
#112 = DIRECTION ( 'NONE',  ( 0.000000000000000000, 0.000000000000000000, 1.000000000000000000 ) ) ;
#113 = CLOSED_SHELL ( 'NONE', ( #31, #205, #230, #180 ) ) ;
#114 = FILL_AREA_STYLE_COLOUR ( '', #199 ) ;
#115 = AXIS2_PLACEMENT_3D ( 'NONE', #168, #22, #139 ) ;
#116 =( NAMED_UNIT ( * ) PLANE_ANGLE_UNIT ( ) SI_UNIT ( $, .RADIAN. ) );
#117 = FILL_AREA_STYLE ('',( #257 ) ) ;
#118 = DIRECTION ( 'NONE',  ( -4.453261087808557677E-17, 1.000000000000000000, -0.000000000000000000 ) ) ;
#119 = AXIS2_PLACEMENT_3D ( 'NONE', #88, #206, #282 ) ;
#120 = APPLICATION_CONTEXT ( 'automotive_design' ) ;
#121 = UNCERTAINTY_MEASURE_WITH_UNIT (LENGTH_MEASURE( 1.000000000000000082E-05 ), #189, 'distance_accuracy_value', 'NONE');
#122 = VERTEX_POINT ( 'NONE', #11 ) ;
#123 = EDGE_CURVE ( 'NONE', #197, #122, #192, .T. ) ;
#124 = FILL_AREA_STYLE_COLOUR ( '', #46 ) ;
#125 = PRESENTATION_STYLE_ASSIGNMENT (( #237 ) ) ;
#126 = AXIS2_PLACEMENT_3D ( 'NONE', #243, #153, #37 ) ;
#127 = ORIENTED_EDGE ( 'NONE', *, *, #201, .F. ) ;
#128 = ORIENTED_EDGE ( 'NONE', *, *, #155, .T. ) ;
#129 = DIRECTION ( 'NONE',  ( -0.000000000000000000, -1.000000000000000000, -0.000000000000000000 ) ) ;
#130 = VECTOR ( 'NONE', #118, 39.37007874015748143 ) ;
#131 = FILL_AREA_STYLE_COLOUR ( '', #272 ) ;
#132 = CARTESIAN_POINT ( 'NONE',  ( 0.000000000000000000, 0.000000000000000000, 0.000000000000000000 ) ) ;
#133 = SURFACE_STYLE_FILL_AREA ( #54 ) ;
#134 = CARTESIAN_POINT ( 'NONE',  ( 3.718412684285598933E-34, 2.250000000000000000, 0.000000000000000000 ) ) ;
#135 = MECHANICAL_DESIGN_GEOMETRIC_PRESENTATION_REPRESENTATION (  '', ( #219 ), #165 ) ;
#136 = APPLICATION_PROTOCOL_DEFINITION ( 'draft international standard', 'automotive_design', 1998, #120 ) ;
#137 =( GEOMETRIC_REPRESENTATION_CONTEXT ( 3 ) GLOBAL_UNCERTAINTY_ASSIGNED_CONTEXT ( ( #93 ) ) GLOBAL_UNIT_ASSIGNED_CONTEXT ( ( #101, #83, #220 ) ) REPRESENTATION_CONTEXT ( 'NONE', 'WORKASPACE' ) );
#138 =( LENGTH_UNIT ( ) NAMED_UNIT ( * ) SI_UNIT ( $, .METRE. ) );
#139 = DIRECTION ( 'NONE',  ( -1.000000000000000000, 0.000000000000000000, 0.000000000000000000 ) ) ;
#140 = MECHANICAL_DESIGN_GEOMETRIC_PRESENTATION_REPRESENTATION (  '', ( #255 ), #106 ) ;
#141 = AXIS2_PLACEMENT_3D ( 'NONE', #64, #112, #300 ) ;
#142 = VERTEX_POINT ( 'NONE', #109 ) ;
#143 = PRODUCT_DEFINITION_CONTEXT ( 'detailed design', #268, 'design' ) ;
#144 = ORIENTED_EDGE ( 'NONE', *, *, #285, .T. ) ;
#145 = ORIENTED_EDGE ( 'NONE', *, *, #249, .F. ) ;
#146 = DIMENSIONAL_EXPONENTS ( 1.000000000000000000, 0.000000000000000000, 0.000000000000000000, 0.000000000000000000, 0.000000000000000000, 0.000000000000000000, 0.000000000000000000 ) ;
#147 = ADVANCED_BREP_SHAPE_REPRESENTATION ( '26392', ( #194, #89, #141 ), #252 ) ;
#148 = SURFACE_SIDE_STYLE ('',( #173 ) ) ;
#149 = AXIS2_PLACEMENT_3D ( 'NONE', #59, #246, #270 ) ;
#150 = PRODUCT_DEFINITION ( 'UNKNOWN', '', #226, #143 ) ;
#151 = CARTESIAN_POINT ( 'NONE',  ( 0.000000000000000000, 0.000000000000000000, 0.000000000000000000 ) ) ;
#152 = DIRECTION ( 'NONE',  ( -4.453261087808557677E-17, 1.000000000000000000, -0.000000000000000000 ) ) ;
#153 = DIRECTION ( 'NONE',  ( 4.453261087808557677E-17, -1.000000000000000000, 0.000000000000000000 ) ) ;
#154 = PRESENTATION_STYLE_ASSIGNMENT (( #295 ) ) ;
#155 = EDGE_CURVE ( 'NONE', #48, #74, #176, .T. ) ;
#156 =( NAMED_UNIT ( * ) PLANE_ANGLE_UNIT ( ) SI_UNIT ( $, .RADIAN. ) );
#157 = DIRECTION ( 'NONE',  ( -1.000000000000000000, 0.000000000000000000, 0.000000000000000000 ) ) ;
#158 = FACE_OUTER_BOUND ( 'NONE', #32, .T. ) ;
#159 = CARTESIAN_POINT ( 'NONE',  ( -1.224646799147353207E-16, 5.000000000000000000, 0.000000000000000000 ) ) ;
#160 = DIRECTION ( 'NONE',  ( 0.000000000000000000, 0.000000000000000000, -1.000000000000000000 ) ) ;
#161 = EDGE_CURVE ( 'NONE', #97, #142, #72, .T. ) ;
#162 = PRESENTATION_LAYER_ASSIGNMENT (  '', '', ( #255 ) ) ;
#163 = DIRECTION ( 'NONE',  ( -1.000000000000000000, 0.000000000000000000, 0.000000000000000000 ) ) ;
#164 = PRESENTATION_STYLE_ASSIGNMENT (( #21 ) ) ;
#165 =( GEOMETRIC_REPRESENTATION_CONTEXT ( 3 ) GLOBAL_UNCERTAINTY_ASSIGNED_CONTEXT ( ( #29 ) ) GLOBAL_UNIT_ASSIGNED_CONTEXT ( ( #253, #116, #283 ) ) REPRESENTATION_CONTEXT ( 'NONE', 'WORKASPACE' ) );
#166 = DIRECTION ( 'NONE',  ( -0.000000000000000000, -1.000000000000000000, -0.000000000000000000 ) ) ;
#167 =( LENGTH_UNIT ( ) NAMED_UNIT ( * ) SI_UNIT ( $, .METRE. ) );
#168 = CARTESIAN_POINT ( 'NONE',  ( -1.224646799147353207E-16, 5.000000000000000000, 0.000000000000000000 ) ) ;
#169 = ORIENTED_EDGE ( 'NONE', *, *, #227, .T. ) ;
#170 = MECHANICAL_DESIGN_GEOMETRIC_PRESENTATION_REPRESENTATION (  '', ( #204 ), #137 ) ;
#171 = ORIENTED_EDGE ( 'NONE', *, *, #201, .T. ) ;
#172 = DIMENSIONAL_EXPONENTS ( 1.000000000000000000, 0.000000000000000000, 0.000000000000000000, 0.000000000000000000, 0.000000000000000000, 0.000000000000000000, 0.000000000000000000 ) ;
#173 = SURFACE_STYLE_FILL_AREA ( #27 ) ;
#174 = CARTESIAN_POINT ( 'NONE',  ( 1.516480271171051896E-32, 2.250000000000000444, 0.000000000000000000 ) ) ;
#175 = ORIENTED_EDGE ( 'NONE', *, *, #211, .F. ) ;
#176 = CIRCLE ( 'NONE', #289, 0.3750000000000000555 ) ;
#177 = DIRECTION ( 'NONE',  ( -4.453261087808557677E-17, 1.000000000000000000, -0.000000000000000000 ) ) ;
#178 = LINE ( 'NONE', #188, #130 ) ;
#179 =( NAMED_UNIT ( * ) PLANE_ANGLE_UNIT ( ) SI_UNIT ( $, .RADIAN. ) );
#180 = ADVANCED_FACE ( 'NONE', ( #302 ), #208, .T. ) ;
#181 = FILL_AREA_STYLE ('',( #131 ) ) ;
#182 = FACE_OUTER_BOUND ( 'NONE', #196, .T. ) ;
#183 = AXIS2_PLACEMENT_3D ( 'NONE', #15, #110, #298 ) ;
#184 = CARTESIAN_POINT ( 'NONE',  ( 4.592425496802575451E-17, 2.250000000000000000, 0.3750000000000000555 ) ) ;
#185 = SURFACE_STYLE_FILL_AREA ( #100 ) ;
#186 =( LENGTH_UNIT ( ) NAMED_UNIT ( * ) SI_UNIT ( $, .METRE. ) );
#187 = LENGTH_MEASURE_WITH_UNIT ( LENGTH_MEASURE( 0.02539999999999999897 ), #138 );
#188 = CARTESIAN_POINT ( 'NONE',  ( 0.3749999999999999445, 5.000000000000000000, 4.592425496802576068E-17 ) ) ;
#189 =( CONVERSION_BASED_UNIT ( 'INCH', #187 ) LENGTH_UNIT ( ) NAMED_UNIT ( #146 ) );
#190 = LENGTH_MEASURE_WITH_UNIT ( LENGTH_MEASURE( 0.02539999999999999897 ), #17 );
#191 = PRODUCT_CONTEXT ( 'NONE', #120, 'mechanical' ) ;
#192 = CIRCLE ( 'NONE', #278, 0.3750000000000000555 ) ;
#193 = ORIENTED_EDGE ( 'NONE', *, *, #123, .F. ) ;
#194 = MANIFOLD_SOLID_BREP ( 'Revolve - Cutting Edge', #113 ) ;
#195 = EDGE_LOOP ( 'NONE', ( #145, #267, #235, #25 ) ) ;
#196 = EDGE_LOOP ( 'NONE', ( #169, #144 ) ) ;
#197 = VERTEX_POINT ( 'NONE', #280 ) ;
#198 = CARTESIAN_POINT ( 'NONE',  ( 0.000000000000000000, 0.000000000000000000, -0.3750000000000000555 ) ) ;
#199 = COLOUR_RGB ( '',0.7921568627450980005, 0.8196078431372548767, 0.9333333333333333481 ) ;
#200 = FACE_OUTER_BOUND ( 'NONE', #286, .T. ) ;
#201 = EDGE_CURVE ( 'NONE', #97, #74, #231, .T. ) ;
#202 =( CONVERSION_BASED_UNIT ( 'INCH', #223 ) LENGTH_UNIT ( ) NAMED_UNIT ( #239 ) );
#203 = DIRECTION ( 'NONE',  ( -0.000000000000000000, -1.000000000000000000, -0.000000000000000000 ) ) ;
#204 = STYLED_ITEM ( 'NONE', ( #154 ), #205 ) ;
#205 = ADVANCED_FACE ( 'NONE', ( #233 ), #275, .T. ) ;
#206 = DIRECTION ( 'NONE',  ( 0.000000000000000000, -1.000000000000000000, -0.000000000000000000 ) ) ;
#207 = PRESENTATION_LAYER_ASSIGNMENT (  '', '', ( #50 ) ) ;
#208 = PLANE ( 'NONE',  #119 ) ;
#209 = EDGE_CURVE ( 'NONE', #74, #48, #68, .T. ) ;
#210 =( GEOMETRIC_REPRESENTATION_CONTEXT ( 3 ) GLOBAL_UNCERTAINTY_ASSIGNED_CONTEXT ( ( #254 ) ) GLOBAL_UNIT_ASSIGNED_CONTEXT ( ( #75, #179, #6 ) ) REPRESENTATION_CONTEXT ( 'NONE', 'WORKASPACE' ) );
#211 = EDGE_CURVE ( 'NONE', #142, #97, #266, .T. ) ;
#212 = ORIENTED_EDGE ( 'NONE', *, *, #209, .T. ) ;
#213 = PRESENTATION_LAYER_ASSIGNMENT (  '', '', ( #284 ) ) ;
#214 = VERTEX_POINT ( 'NONE', #60 ) ;
#215 = UNCERTAINTY_MEASURE_WITH_UNIT (LENGTH_MEASURE( 1.000000000000000082E-05 ), #202, 'distance_accuracy_value', 'NONE');
#216 = ORIENTED_EDGE ( 'NONE', *, *, #8, .T. ) ;
#217 = ORIENTED_EDGE ( 'NONE', *, *, #161, .T. ) ;
#218 = DIRECTION ( 'NONE',  ( 0.000000000000000000, 0.000000000000000000, -1.000000000000000000 ) ) ;
#219 = STYLED_ITEM ( 'NONE', ( #63 ), #194 ) ;
#220 =( NAMED_UNIT ( * ) SI_UNIT ( $, .STERADIAN. ) SOLID_ANGLE_UNIT ( ) );
#221 = SURFACE_STYLE_FILL_AREA ( #181 ) ;
#222 = FILL_AREA_STYLE_COLOUR ( '', #85 ) ;
#223 = LENGTH_MEASURE_WITH_UNIT ( LENGTH_MEASURE( 0.02539999999999999897 ), #186 );
#224 = DIRECTION ( 'NONE',  ( -4.453261087808557677E-17, 1.000000000000000000, -0.000000000000000000 ) ) ;
#225 = AXIS2_PLACEMENT_3D ( 'NONE', #174, #240, #260 ) ;
#226 = PRODUCT_DEFINITION_FORMATION_WITH_SPECIFIED_SOURCE ( 'ANY', '', #258, .NOT_KNOWN. ) ;
#227 = EDGE_CURVE ( 'NONE', #262, #214, #86, .T. ) ;
#228 = DIRECTION ( 'NONE',  ( -1.000000000000000000, 0.000000000000000000, 0.000000000000000000 ) ) ;
#229 =( NAMED_UNIT ( * ) PLANE_ANGLE_UNIT ( ) SI_UNIT ( $, .RADIAN. ) );
#230 = ADVANCED_FACE ( 'NONE', ( #250 ), #13, .T. ) ;
#231 = LINE ( 'NONE', #301, #299 ) ;
#232 = COLOUR_RGB ( '',1.000000000000000000, 0.000000000000000000, 0.000000000000000000 ) ;
#233 = FACE_OUTER_BOUND ( 'NONE', #238, .T. ) ;
#234 = LENGTH_MEASURE_WITH_UNIT ( LENGTH_MEASURE( 0.02539999999999999897 ), #167 );
#235 = ORIENTED_EDGE ( 'NONE', *, *, #65, .T. ) ;
#236 =( NAMED_UNIT ( * ) PLANE_ANGLE_UNIT ( ) SI_UNIT ( $, .RADIAN. ) );
#237 = SURFACE_STYLE_USAGE ( .BOTH. , #148 ) ;
#238 = EDGE_LOOP ( 'NONE', ( #175, #3 ) ) ;
#239 = DIMENSIONAL_EXPONENTS ( 1.000000000000000000, 0.000000000000000000, 0.000000000000000000, 0.000000000000000000, 0.000000000000000000, 0.000000000000000000, 0.000000000000000000 ) ;
#240 = DIRECTION ( 'NONE',  ( -4.453261087808557677E-17, 1.000000000000000000, -0.000000000000000000 ) ) ;
#241 = DIRECTION ( 'NONE',  ( -0.000000000000000000, -1.000000000000000000, -0.000000000000000000 ) ) ;
#242 = FILL_AREA_STYLE_COLOUR ( '', #279 ) ;
#243 = CARTESIAN_POINT ( 'NONE',  ( 0.3750000000000000555, 5.000000000000000000, 0.000000000000000000 ) ) ;
#244 = AXIS2_PLACEMENT_3D ( 'NONE', #134, #102, #269 ) ;
#245 = AXIS2_PLACEMENT_3D ( 'NONE', #259, #23, #163 ) ;
#246 = DIRECTION ( 'NONE',  ( -0.000000000000000000, -1.000000000000000000, -0.000000000000000000 ) ) ;
#247 = SURFACE_SIDE_STYLE ('',( #133 ) ) ;
#248 = CYLINDRICAL_SURFACE ( 'NONE', #4, 0.3750000000000001110 ) ;
#249 = EDGE_CURVE ( 'NONE', #122, #214, #178, .T. ) ;
#250 = FACE_OUTER_BOUND ( 'NONE', #45, .T. ) ;
#251 = AXIS2_PLACEMENT_3D ( 'NONE', #33, #129, #218 ) ;
#252 =( GEOMETRIC_REPRESENTATION_CONTEXT ( 3 ) GLOBAL_UNCERTAINTY_ASSIGNED_CONTEXT ( ( #51 ) ) GLOBAL_UNIT_ASSIGNED_CONTEXT ( ( #87, #236, #256 ) ) REPRESENTATION_CONTEXT ( 'NONE', 'WORKASPACE' ) );
#253 =( CONVERSION_BASED_UNIT ( 'INCH', #190 ) LENGTH_UNIT ( ) NAMED_UNIT ( #43 ) );
#254 = UNCERTAINTY_MEASURE_WITH_UNIT (LENGTH_MEASURE( 1.000000000000000082E-05 ), #75, 'distance_accuracy_value', 'NONE');
#255 = STYLED_ITEM ( 'NONE', ( #164 ), #180 ) ;
#256 =( NAMED_UNIT ( * ) SI_UNIT ( $, .STERADIAN. ) SOLID_ANGLE_UNIT ( ) );
#257 = FILL_AREA_STYLE_COLOUR ( '', #232 ) ;
#258 = PRODUCT ( '26392', '26392', '', ( #191 ) ) ;
#259 = CARTESIAN_POINT ( 'NONE',  ( -1.224646799147353207E-16, 5.000000000000000000, 0.000000000000000000 ) ) ;
#260 = DIRECTION ( 'NONE',  ( -1.000000000000000000, 0.000000000000000000, 0.000000000000000000 ) ) ;
#261 = VECTOR ( 'NONE', #288, 39.37007874015748143 ) ;
#262 = VERTEX_POINT ( 'NONE', #281 ) ;
#263 = DIMENSIONAL_EXPONENTS ( 1.000000000000000000, 0.000000000000000000, 0.000000000000000000, 0.000000000000000000, 0.000000000000000000, 0.000000000000000000, 0.000000000000000000 ) ;
#264 = ORIENTED_EDGE ( 'NONE', *, *, #155, .F. ) ;
#265 = FACE_OUTER_BOUND ( 'NONE', #96, .T. ) ;
#266 = CIRCLE ( 'NONE', #99, 0.3750000000000000555 ) ;
#267 = ORIENTED_EDGE ( 'NONE', *, *, #24, .T. ) ;
#268 = APPLICATION_CONTEXT ( 'automotive_design' ) ;
#269 = DIRECTION ( 'NONE',  ( -1.000000000000000000, -4.453261087808557677E-17, 0.000000000000000000 ) ) ;
#270 = DIRECTION ( 'NONE',  ( 0.000000000000000000, 0.000000000000000000, -1.000000000000000000 ) ) ;
#271 = SURFACE_SIDE_STYLE ('',( #221 ) ) ;
#272 = COLOUR_RGB ( '',1.000000000000000000, 0.000000000000000000, 0.000000000000000000 ) ;
#273 = PLANE ( 'NONE',  #126 ) ;
#274 = DIRECTION ( 'NONE',  ( 0.000000000000000000, 1.000000000000000000, 0.000000000000000000 ) ) ;
#275 = PLANE ( 'NONE',  #41 ) ;
#276 = LENGTH_MEASURE_WITH_UNIT ( LENGTH_MEASURE( 0.02539999999999999897 ), #84 );
#277 =( NAMED_UNIT ( * ) PLANE_ANGLE_UNIT ( ) SI_UNIT ( $, .RADIAN. ) );
#278 = AXIS2_PLACEMENT_3D ( 'NONE', #61, #177, #53 ) ;
#279 = COLOUR_RGB ( '',1.000000000000000000, 0.000000000000000000, 0.000000000000000000 ) ;
#280 = CARTESIAN_POINT ( 'NONE',  ( -0.3750000000000000555, 2.250000000000000444, 0.000000000000000000 ) ) ;
#281 = CARTESIAN_POINT ( 'NONE',  ( -0.3750000000000002776, 5.000000000000000000, 0.000000000000000000 ) ) ;
#282 = DIRECTION ( 'NONE',  ( 0.000000000000000000, 0.000000000000000000, -1.000000000000000000 ) ) ;
#283 =( NAMED_UNIT ( * ) SI_UNIT ( $, .STERADIAN. ) SOLID_ANGLE_UNIT ( ) );
#284 = STYLED_ITEM ( 'NONE', ( #125 ), #31 ) ;
#285 = EDGE_CURVE ( 'NONE', #214, #262, #12, .T. ) ;
#286 = EDGE_LOOP ( 'NONE', ( #193, #70 ) ) ;
#287 = EDGE_LOOP ( 'NONE', ( #128, #212 ) ) ;
#288 = DIRECTION ( 'NONE',  ( -0.000000000000000000, -1.000000000000000000, -0.000000000000000000 ) ) ;
#289 = AXIS2_PLACEMENT_3D ( 'NONE', #151, #241, #160 ) ;
#290 =( CONVERSION_BASED_UNIT ( 'INCH', #276 ) LENGTH_UNIT ( ) NAMED_UNIT ( #26 ) );
#291 = CARTESIAN_POINT ( 'NONE',  ( -0.3750000000000002220, 5.000000000000000000, 0.000000000000000000 ) ) ;
#292 = DIRECTION ( 'NONE',  ( -0.000000000000000000, -1.000000000000000000, -0.000000000000000000 ) ) ;
#293 = MECHANICAL_DESIGN_GEOMETRIC_PRESENTATION_REPRESENTATION (  '', ( #284 ), #210 ) ;
#294 = LINE ( 'NONE', #291, #309 ) ;
#295 = SURFACE_STYLE_USAGE ( .BOTH. , #271 ) ;
#296 = DIRECTION ( 'NONE',  ( -4.453261087808557677E-17, 1.000000000000000000, -0.000000000000000000 ) ) ;
#297 = SURFACE_SIDE_STYLE ('',( #16 ) ) ;
#298 = DIRECTION ( 'NONE',  ( 0.000000000000000000, 0.000000000000000000, -1.000000000000000000 ) ) ;
#299 = VECTOR ( 'NONE', #166, 39.37007874015748143 ) ;
#300 = DIRECTION ( 'NONE',  ( 1.000000000000000000, 0.000000000000000000, 0.000000000000000000 ) ) ;
#301 = CARTESIAN_POINT ( 'NONE',  ( 4.592425496802575451E-17, 0.000000000000000000, 0.3750000000000000555 ) ) ;
#302 = FACE_OUTER_BOUND ( 'NONE', #287, .T. ) ;
#303 = ADVANCED_FACE ( 'NONE', ( #69 ), #91, .T. ) ;
#304 = SHAPE_DEFINITION_REPRESENTATION ( #308, #147 ) ;
#305 =( NAMED_UNIT ( * ) SI_UNIT ( $, .STERADIAN. ) SOLID_ANGLE_UNIT ( ) );
#306 = DIMENSIONAL_EXPONENTS ( 1.000000000000000000, 0.000000000000000000, 0.000000000000000000, 0.000000000000000000, 0.000000000000000000, 0.000000000000000000, 0.000000000000000000 ) ;
#307 = ORIENTED_EDGE ( 'NONE', *, *, #211, .T. ) ;
#308 = PRODUCT_DEFINITION_SHAPE ( 'NONE', 'NONE',  #150 ) ;
#309 = VECTOR ( 'NONE', #224, 39.37007874015748143 ) ;
ENDSEC;
END-ISO-10303-21;
