ISO-10303-21;
HEADER;
FILE_DESCRIPTION (( 'STEP AP214' ),
    '1' );
FILE_NAME ('Micro_SEM-187-02X.STEP',
    '2021-09-02T02:05:21',
    ( '' ),
    ( '' ),
    'SwSTEP 2.0',
    'SolidWorks 2020',
    '' );
FILE_SCHEMA (( 'AUTOMOTIVE_DESIGN' ));
ENDSEC;

DATA;
#1 = DIRECTION ( 'NONE',  ( -1.000000000000000000, 0.0000000000000000000, 0.0000000000000000000 ) ) ;
#2 = UNCERTAINTY_MEASURE_WITH_UNIT (LENGTH_MEASURE( 1.000000000000000082E-05 ), #206, 'distance_accuracy_value', 'NONE');
#3 = DIRECTION ( 'NONE',  ( -1.000000000000000000, 0.0000000000000000000, 0.0000000000000000000 ) ) ;
#4 = VECTOR ( 'NONE', #143, 39.37007874015748143 ) ;
#5 = CARTESIAN_POINT ( 'NONE',  ( 0.07875000000000061118, 1.056257864264595965E-17, 1.500000000000000222 ) ) ;
#6 = UNCERTAINTY_MEASURE_WITH_UNIT (LENGTH_MEASURE( 1.000000000000000082E-05 ), #38, 'distance_accuracy_value', 'NONE');
#7 = DIRECTION ( 'NONE',  ( -1.224646799147353454E-16, -0.0000000000000000000, -1.000000000000000000 ) ) ;
#8 = CARTESIAN_POINT ( 'NONE',  ( 0.09375000000000001388, 1.148106374200643401E-17, 1.500000000000000222 ) ) ;
#9 = ORIENTED_EDGE ( 'NONE', *, *, #166, .F. ) ;
#10 = AXIS2_PLACEMENT_3D ( 'NONE', #122, #7, #73 ) ;
#11 = CARTESIAN_POINT ( 'NONE',  ( 4.592425496802576068E-17, 0.0000000000000000000, 0.3750000000000000555 ) ) ;
#12 = SURFACE_STYLE_FILL_AREA ( #266 ) ;
#13 = EDGE_LOOP ( 'NONE', ( #31, #83 ) ) ;
#14 = VECTOR ( 'NONE', #52, 39.37007874015748143 ) ;
#15 =( NAMED_UNIT ( * ) PLANE_ANGLE_UNIT ( ) SI_UNIT ( $, .RADIAN. ) );
#16 = ORIENTED_EDGE ( 'NONE', *, *, #221, .T. ) ;
#17 = VERTEX_POINT ( 'NONE', #156 ) ;
#18 = VERTEX_POINT ( 'NONE', #272 ) ;
#19 = DIRECTION ( 'NONE',  ( 1.000000000000000000, 0.0000000000000000000, 0.0000000000000000000 ) ) ;
#20 = COLOUR_RGB ( '',0.7921568627450980005, 0.8196078431372548767, 0.9333333333333333481 ) ;
#21 = ADVANCED_FACE ( 'NONE', ( #180 ), #126, .T. ) ;
#22 =( NAMED_UNIT ( * ) SI_UNIT ( $, .STERADIAN. ) SOLID_ANGLE_UNIT ( ) );
#23 = CARTESIAN_POINT ( 'NONE',  ( 0.09365624999999999645, 1.146958267826442798E-17, 0.0000000000000000000 ) ) ;
#24 = VECTOR ( 'NONE', #33, 39.37007874015748143 ) ;
#25 = LINE ( 'NONE', #169, #14 ) ;
#26 = LINE ( 'NONE', #147, #199 ) ;
#27 = CARTESIAN_POINT ( 'NONE',  ( 0.0000000000000000000, 0.0000000000000000000, 0.0000000000000000000 ) ) ;
#28 = ADVANCED_FACE ( 'NONE', ( #58 ), #247, .T. ) ;
#29 = DIRECTION ( 'NONE',  ( 1.000000000000000000, 0.0000000000000000000, 0.0000000000000000000 ) ) ;
#30 = CARTESIAN_POINT ( 'NONE',  ( 0.0000000000000000000, 0.0000000000000000000, 1.500000000000000222 ) ) ;
#31 = ORIENTED_EDGE ( 'NONE', *, *, #201, .T. ) ;
#32 = ADVANCED_FACE ( 'NONE', ( #160 ), #56, .T. ) ;
#33 = DIRECTION ( 'NONE',  ( -0.0000000000000000000, -0.0000000000000000000, -1.000000000000000000 ) ) ;
#34 = AXIS2_PLACEMENT_3D ( 'NONE', #39, #45, #105 ) ;
#35 = LINE ( 'NONE', #8, #24 ) ;
#36 = LENGTH_MEASURE_WITH_UNIT ( LENGTH_MEASURE( 0.02539999999999999897 ), #219 );
#37 = ORIENTED_EDGE ( 'NONE', *, *, #67, .F. ) ;
#38 =( CONVERSION_BASED_UNIT ( 'INCH', #150 ) LENGTH_UNIT ( ) NAMED_UNIT ( #155 ) );
#39 = CARTESIAN_POINT ( 'NONE',  ( 0.0000000000000000000, 0.0000000000000000000, 0.0000000000000000000 ) ) ;
#40 = ADVANCED_FACE ( 'NONE', ( #288 ), #165, .T. ) ;
#41 = CIRCLE ( 'NONE', #61, 0.07875000000000061118 ) ;
#42 = ORIENTED_EDGE ( 'NONE', *, *, #201, .F. ) ;
#43 = EDGE_LOOP ( 'NONE', ( #200, #79, #290, #85 ) ) ;
#44 = PRODUCT_CONTEXT ( 'NONE', #237, 'mechanical' ) ;
#45 = DIRECTION ( 'NONE',  ( -1.224646799147353454E-16, -0.0000000000000000000, -1.000000000000000000 ) ) ;
#46 = SURFACE_STYLE_FILL_AREA ( #65 ) ;
#47 = DIRECTION ( 'NONE',  ( 0.0000000000000000000, 0.0000000000000000000, -1.000000000000000000 ) ) ;
#48 = PRESENTATION_LAYER_ASSIGNMENT (  '', '', ( #284 ) ) ;
#49 = CARTESIAN_POINT ( 'NONE',  ( -0.09365624999999999645, 0.0000000000000000000, 2.293916535652886521E-17 ) ) ;
#50 = LINE ( 'NONE', #216, #4 ) ;
#51 = EDGE_CURVE ( 'NONE', #135, #245, #170, .T. ) ;
#52 = DIRECTION ( 'NONE',  ( -0.0000000000000000000, -0.0000000000000000000, -1.000000000000000000 ) ) ;
#53 = DIRECTION ( 'NONE',  ( -1.000000000000000000, 0.0000000000000000000, 0.0000000000000000000 ) ) ;
#54 = VERTEX_POINT ( 'NONE', #235 ) ;
#55 = CARTESIAN_POINT ( 'NONE',  ( 0.0000000000000000000, 0.0000000000000000000, 0.0000000000000000000 ) ) ;
#56 = CONICAL_SURFACE ( 'NONE', #279, 0.09365624999999999645, 0.1745329251994340303 ) ;
#57 = EDGE_LOOP ( 'NONE', ( #205, #232, #183, #84 ) ) ;
#58 = FACE_OUTER_BOUND ( 'NONE', #43, .T. ) ;
#59 = FILL_AREA_STYLE_COLOUR ( '', #74 ) ;
#60 = ORIENTED_EDGE ( 'NONE', *, *, #76, .T. ) ;
#61 = AXIS2_PLACEMENT_3D ( 'NONE', #91, #191, #29 ) ;
#62 =( NAMED_UNIT ( * ) SI_UNIT ( $, .STERADIAN. ) SOLID_ANGLE_UNIT ( ) );
#63 = ORIENTED_EDGE ( 'NONE', *, *, #255, .F. ) ;
#64 = EDGE_LOOP ( 'NONE', ( #176, #163, #224, #111 ) ) ;
#65 = FILL_AREA_STYLE ('',( #116 ) ) ;
#66 = PRODUCT ( 'Micro_SEM-187-02X', 'Micro_SEM-187-02X', '', ( #44 ) ) ;
#67 = EDGE_CURVE ( 'NONE', #181, #204, #195, .T. ) ;
#68 = PLANE ( 'NONE',  #298 ) ;
#69 = DIRECTION ( 'NONE',  ( -1.000000000000000000, 0.0000000000000000000, 1.224646799147353454E-16 ) ) ;
#70 = AXIS2_PLACEMENT_3D ( 'NONE', #55, #149, #226 ) ;
#71 = LINE ( 'NONE', #280, #132 ) ;
#72 = CARTESIAN_POINT ( 'NONE',  ( 0.0000000000000000000, 0.0000000000000000000, 1.485000000000000986 ) ) ;
#73 = DIRECTION ( 'NONE',  ( 1.000000000000000000, 0.0000000000000000000, 0.0000000000000000000 ) ) ;
#74 = COLOUR_RGB ( '',0.7921568627450980005, 0.8196078431372548767, 0.9333333333333333481 ) ;
#75 =( LENGTH_UNIT ( ) NAMED_UNIT ( * ) SI_UNIT ( $, .METRE. ) );
#76 = EDGE_CURVE ( 'NONE', #194, #135, #41, .T. ) ;
#77 =( NAMED_UNIT ( * ) SI_UNIT ( $, .STERADIAN. ) SOLID_ANGLE_UNIT ( ) );
#78 = DIRECTION ( 'NONE',  ( -1.000000000000000000, 0.0000000000000000000, 0.0000000000000000000 ) ) ;
#79 = ORIENTED_EDGE ( 'NONE', *, *, #184, .T. ) ;
#80 = CIRCLE ( 'NONE', #151, 0.09375000000000001388 ) ;
#81 =( GEOMETRIC_REPRESENTATION_CONTEXT ( 3 ) GLOBAL_UNCERTAINTY_ASSIGNED_CONTEXT ( ( #6 ) ) GLOBAL_UNIT_ASSIGNED_CONTEXT ( ( #38, #15, #77 ) ) REPRESENTATION_CONTEXT ( 'NONE', 'WORKASPACE' ) );
#82 = EDGE_CURVE ( 'NONE', #17, #181, #26, .T. ) ;
#83 = ORIENTED_EDGE ( 'NONE', *, *, #171, .T. ) ;
#84 = ORIENTED_EDGE ( 'NONE', *, *, #90, .F. ) ;
#85 = ORIENTED_EDGE ( 'NONE', *, *, #171, .F. ) ;
#86 = CIRCLE ( 'NONE', #214, 0.09365624999999999645 ) ;
#87 = EDGE_LOOP ( 'NONE', ( #63, #292, #114, #37 ) ) ;
#88 = CARTESIAN_POINT ( 'NONE',  ( 0.0000000000000000000, 0.0000000000000000000, 0.0000000000000000000 ) ) ;
#89 = AXIS2_PLACEMENT_3D ( 'NONE', #92, #192, #257 ) ;
#90 = EDGE_CURVE ( 'NONE', #18, #245, #231, .T. ) ;
#91 = CARTESIAN_POINT ( 'NONE',  ( 0.0000000000000000000, 0.0000000000000000000, 1.500000000000000222 ) ) ;
#92 = CARTESIAN_POINT ( 'NONE',  ( 1.404618771449246621E-33, 0.0000000000000000000, 1.146958267826443260E-17 ) ) ;
#93 = ADVANCED_FACE ( 'NONE', ( #211 ), #95, .T. ) ;
#94 = CARTESIAN_POINT ( 'NONE',  ( 0.0000000000000000000, 0.0000000000000000000, 1.500000000000000222 ) ) ;
#95 = CONICAL_SURFACE ( 'NONE', #101, 0.07875000000000061118, 0.7853981633974562726 ) ;
#96 =( GEOMETRIC_REPRESENTATION_CONTEXT ( 3 ) GLOBAL_UNCERTAINTY_ASSIGNED_CONTEXT ( ( #2 ) ) GLOBAL_UNIT_ASSIGNED_CONTEXT ( ( #206, #297, #62 ) ) REPRESENTATION_CONTEXT ( 'NONE', 'WORKASPACE' ) );
#97 = DIRECTION ( 'NONE',  ( 0.0000000000000000000, 0.0000000000000000000, -1.000000000000000000 ) ) ;
#98 = CARTESIAN_POINT ( 'NONE',  ( -0.07875000000000061118, 0.0000000000000000000, 1.500000000000000222 ) ) ;
#99 = EDGE_LOOP ( 'NONE', ( #129, #108, #125, #152 ) ) ;
#100 = ADVANCED_FACE ( 'NONE', ( #193 ), #282, .T. ) ;
#101 = AXIS2_PLACEMENT_3D ( 'NONE', #172, #47, #3 ) ;
#102 = DIRECTION ( 'NONE',  ( -1.224646799147353454E-16, -0.0000000000000000000, -1.000000000000000000 ) ) ;
#103 = DIRECTION ( 'NONE',  ( -1.224646799147353454E-16, -0.0000000000000000000, -1.000000000000000000 ) ) ;
#104 = CLOSED_SHELL ( 'NONE', ( #283, #32, #93, #100, #138, #40, #287, #21, #28, #179 ) ) ;
#105 = DIRECTION ( 'NONE',  ( -1.000000000000000000, 0.0000000000000000000, 1.224646799147353454E-16 ) ) ;
#106 = EDGE_CURVE ( 'NONE', #54, #204, #50, .T. ) ;
#107 = SURFACE_STYLE_USAGE ( .BOTH. , #246 ) ;
#108 = ORIENTED_EDGE ( 'NONE', *, *, #184, .F. ) ;
#109 = CIRCLE ( 'NONE', #239, 0.09365624999999999645 ) ;
#110 = CARTESIAN_POINT ( 'NONE',  ( 0.0000000000000000000, 0.0000000000000000000, 1.485000000000000986 ) ) ;
#111 = ORIENTED_EDGE ( 'NONE', *, *, #51, .F. ) ;
#112 = DIRECTION ( 'NONE',  ( 1.000000000000000000, 0.0000000000000000000, 0.0000000000000000000 ) ) ;
#113 = LENGTH_MEASURE_WITH_UNIT ( LENGTH_MEASURE( 0.02539999999999999897 ), #185 );
#114 = ORIENTED_EDGE ( 'NONE', *, *, #166, .T. ) ;
#115 = AXIS2_PLACEMENT_3D ( 'NONE', #30, #130, #178 ) ;
#116 = FILL_AREA_STYLE_COLOUR ( '', #20 ) ;
#117 = DIRECTION ( 'NONE',  ( -1.224646799147353454E-16, -0.0000000000000000000, -1.000000000000000000 ) ) ;
#118 = DIRECTION ( 'NONE',  ( 1.000000000000000000, 0.0000000000000000000, -0.0000000000000000000 ) ) ;
#119 = CARTESIAN_POINT ( 'NONE',  ( 0.0000000000000000000, 0.0000000000000000000, 1.500000000000000222 ) ) ;
#120 = DIRECTION ( 'NONE',  ( 1.000000000000000000, 0.0000000000000000000, -0.0000000000000000000 ) ) ;
#121 = AXIS2_PLACEMENT_3D ( 'NONE', #94, #187, #53 ) ;
#122 = CARTESIAN_POINT ( 'NONE',  ( 4.598936731609567916E-17, 0.0000000000000000000, 0.3755316826705892841 ) ) ;
#123 = PRODUCT_RELATED_PRODUCT_CATEGORY ( 'part', '', ( #66 ) ) ;
#124 = PRESENTATION_STYLE_ASSIGNMENT (( #107 ) ) ;
#125 = ORIENTED_EDGE ( 'NONE', *, *, #82, .T. ) ;
#126 = CONICAL_SURFACE ( 'NONE', #254, 0.09365624999999999645, 0.1745329251994340303 ) ;
#127 = CIRCLE ( 'NONE', #233, 0.09365624999999999645 ) ;
#128 = DIRECTION ( 'NONE',  ( -1.224646799147353454E-16, -0.0000000000000000000, -1.000000000000000000 ) ) ;
#129 = ORIENTED_EDGE ( 'NONE', *, *, #106, .F. ) ;
#130 = DIRECTION ( 'NONE',  ( 0.0000000000000000000, 0.0000000000000000000, -1.000000000000000000 ) ) ;
#131 = ORIENTED_EDGE ( 'NONE', *, *, #212, .T. ) ;
#132 = VECTOR ( 'NONE', #281, 39.37007874015748143 ) ;
#133 = SURFACE_STYLE_USAGE ( .BOTH. , #207 ) ;
#134 = EDGE_LOOP ( 'NONE', ( #16, #230, #42, #293 ) ) ;
#135 = VERTEX_POINT ( 'NONE', #189 ) ;
#136 = EDGE_LOOP ( 'NONE', ( #268, #148, #131, #267 ) ) ;
#137 = AXIS2_PLACEMENT_3D ( 'NONE', #258, #141, #234 ) ;
#138 = ADVANCED_FACE ( 'NONE', ( #238 ), #261, .T. ) ;
#139 = SHAPE_DEFINITION_REPRESENTATION ( #168, #278 ) ;
#140 = VECTOR ( 'NONE', #210, 39.37007874015748143 ) ;
#141 = DIRECTION ( 'NONE',  ( -0.0000000000000000000, -0.0000000000000000000, -1.000000000000000000 ) ) ;
#142 = CARTESIAN_POINT ( 'NONE',  ( -0.09374999999999995837, 0.0000000000000000000, 0.3755316826705892841 ) ) ;
#143 = DIRECTION ( 'NONE',  ( -0.1736481776669313026, 2.126576849575784549E-17, 0.9848077530122077983 ) ) ;
#144 = CARTESIAN_POINT ( 'NONE',  ( 1.404618771449246621E-33, 0.0000000000000000000, 1.146958267826443260E-17 ) ) ;
#145 = AXIS2_PLACEMENT_3D ( 'NONE', #110, #285, #174 ) ;
#146 = EDGE_CURVE ( 'NONE', #54, #203, #71, .T. ) ;
#147 = CARTESIAN_POINT ( 'NONE',  ( 0.09365625000000003808, 0.0000000000000000000, 0.3750000000000000555 ) ) ;
#148 = ORIENTED_EDGE ( 'NONE', *, *, #106, .T. ) ;
#149 = DIRECTION ( 'NONE',  ( -1.224646799147353454E-16, -0.0000000000000000000, -1.000000000000000000 ) ) ;
#150 = LENGTH_MEASURE_WITH_UNIT ( LENGTH_MEASURE( 0.02539999999999999897 ), #75 );
#151 = AXIS2_PLACEMENT_3D ( 'NONE', #215, #102, #222 ) ;
#152 = ORIENTED_EDGE ( 'NONE', *, *, #67, .T. ) ;
#153 = PRODUCT_DEFINITION_CONTEXT ( 'detailed design', #251, 'design' ) ;
#154 =( NAMED_UNIT ( * ) PLANE_ANGLE_UNIT ( ) SI_UNIT ( $, .RADIAN. ) );
#155 = DIMENSIONAL_EXPONENTS ( 1.000000000000000000, 0.0000000000000000000, 0.0000000000000000000, 0.0000000000000000000, 0.0000000000000000000, 0.0000000000000000000, 0.0000000000000000000 ) ;
#156 = CARTESIAN_POINT ( 'NONE',  ( 0.09365625000000003808, 0.0000000000000000000, 0.3750000000000000555 ) ) ;
#157 = VERTEX_POINT ( 'NONE', #23 ) ;
#158 = VECTOR ( 'NONE', #264, 39.37007874015748143 ) ;
#159 = APPLICATION_PROTOCOL_DEFINITION ( 'draft international standard', 'automotive_design', 1998, #237 ) ;
#160 = FACE_OUTER_BOUND ( 'NONE', #136, .T. ) ;
#161 = DIMENSIONAL_EXPONENTS ( 1.000000000000000000, 0.0000000000000000000, 0.0000000000000000000, 0.0000000000000000000, 0.0000000000000000000, 0.0000000000000000000, 0.0000000000000000000 ) ;
#162 = PRESENTATION_STYLE_ASSIGNMENT (( #133 ) ) ;
#163 = ORIENTED_EDGE ( 'NONE', *, *, #236, .T. ) ;
#164 = UNCERTAINTY_MEASURE_WITH_UNIT (LENGTH_MEASURE( 1.000000000000000082E-05 ), #223, 'distance_accuracy_value', 'NONE');
#165 = PLANE ( 'NONE',  #173 ) ;
#166 = EDGE_CURVE ( 'NONE', #245, #204, #25, .T. ) ;
#167 = DIRECTION ( 'NONE',  ( -1.224646799147353454E-16, -0.0000000000000000000, -1.000000000000000000 ) ) ;
#168 = PRODUCT_DEFINITION_SHAPE ( 'NONE', 'NONE',  #188 ) ;
#169 = CARTESIAN_POINT ( 'NONE',  ( -0.09375000000000001388, 0.0000000000000000000, 1.500000000000000222 ) ) ;
#170 = LINE ( 'NONE', #98, #140 ) ;
#171 = EDGE_CURVE ( 'NONE', #157, #203, #127, .T. ) ;
#172 = CARTESIAN_POINT ( 'NONE',  ( 0.0000000000000000000, 0.0000000000000000000, 1.500000000000000222 ) ) ;
#173 = AXIS2_PLACEMENT_3D ( 'NONE', #119, #259, #118 ) ;
#174 = DIRECTION ( 'NONE',  ( 1.000000000000000000, 0.0000000000000000000, 0.0000000000000000000 ) ) ;
#175 = CARTESIAN_POINT ( 'NONE',  ( -0.09375000000000001388, 0.0000000000000000000, 1.485000000000000986 ) ) ;
#176 = ORIENTED_EDGE ( 'NONE', *, *, #76, .F. ) ;
#177 = DIRECTION ( 'NONE',  ( 1.224646799147353454E-16, 0.0000000000000000000, 1.000000000000000000 ) ) ;
#178 = DIRECTION ( 'NONE',  ( -1.000000000000000000, 0.0000000000000000000, 0.0000000000000000000 ) ) ;
#179 = ADVANCED_FACE ( 'NONE', ( #240 ), #68, .F. ) ;
#180 = FACE_OUTER_BOUND ( 'NONE', #99, .T. ) ;
#181 = VERTEX_POINT ( 'NONE', #299 ) ;
#182 = VECTOR ( 'NONE', #128, 39.37007874015748143 ) ;
#183 = ORIENTED_EDGE ( 'NONE', *, *, #51, .T. ) ;
#184 = EDGE_CURVE ( 'NONE', #17, #54, #86, .T. ) ;
#185 =( LENGTH_UNIT ( ) NAMED_UNIT ( * ) SI_UNIT ( $, .METRE. ) );
#186 =( GEOMETRIC_REPRESENTATION_CONTEXT ( 3 ) GLOBAL_UNCERTAINTY_ASSIGNED_CONTEXT ( ( #164 ) ) GLOBAL_UNIT_ASSIGNED_CONTEXT ( ( #223, #154, #22 ) ) REPRESENTATION_CONTEXT ( 'NONE', 'WORKASPACE' ) );
#187 = DIRECTION ( 'NONE',  ( -0.0000000000000000000, -0.0000000000000000000, -1.000000000000000000 ) ) ;
#188 = PRODUCT_DEFINITION ( 'UNKNOWN', '', #289, #153 ) ;
#189 = CARTESIAN_POINT ( 'NONE',  ( -0.07875000000000061118, 0.0000000000000000000, 1.500000000000000222 ) ) ;
#190 = STYLED_ITEM ( 'NONE', ( #162 ), #278 ) ;
#191 = DIRECTION ( 'NONE',  ( 0.0000000000000000000, 0.0000000000000000000, 1.000000000000000000 ) ) ;
#192 = DIRECTION ( 'NONE',  ( -1.224646799147353454E-16, -0.0000000000000000000, -1.000000000000000000 ) ) ;
#193 = FACE_OUTER_BOUND ( 'NONE', #252, .T. ) ;
#194 = VERTEX_POINT ( 'NONE', #5 ) ;
#195 = CIRCLE ( 'NONE', #10, 0.09375000000000001388 ) ;
#196 = CARTESIAN_POINT ( 'NONE',  ( 0.0000000000000000000, 0.0000000000000000000, 1.500000000000000222 ) ) ;
#197 = DIRECTION ( 'NONE',  ( 1.000000000000000000, 0.0000000000000000000, 0.0000000000000000000 ) ) ;
#198 = DIRECTION ( 'NONE',  ( 0.0000000000000000000, 0.0000000000000000000, 1.000000000000000000 ) ) ;
#199 = VECTOR ( 'NONE', #277, 39.37007874015748143 ) ;
#200 = ORIENTED_EDGE ( 'NONE', *, *, #265, .F. ) ;
#201 = EDGE_CURVE ( 'NONE', #203, #157, #271, .T. ) ;
#202 = DIRECTION ( 'NONE',  ( 1.000000000000000000, 0.0000000000000000000, 0.0000000000000000000 ) ) ;
#203 = VERTEX_POINT ( 'NONE', #49 ) ;
#204 = VERTEX_POINT ( 'NONE', #142 ) ;
#205 = ORIENTED_EDGE ( 'NONE', *, *, #236, .F. ) ;
#206 =( CONVERSION_BASED_UNIT ( 'INCH', #113 ) LENGTH_UNIT ( ) NAMED_UNIT ( #295 ) );
#207 = SURFACE_SIDE_STYLE ('',( #46 ) ) ;
#208 = CIRCLE ( 'NONE', #248, 0.07875000000000061118 ) ;
#209 = DIRECTION ( 'NONE',  ( 0.0000000000000000000, 0.0000000000000000000, 1.000000000000000000 ) ) ;
#210 = DIRECTION ( 'NONE',  ( -0.7071067811865531239, 0.0000000000000000000, -0.7071067811865419106 ) ) ;
#211 = FACE_OUTER_BOUND ( 'NONE', #64, .T. ) ;
#212 = EDGE_CURVE ( 'NONE', #204, #181, #80, .T. ) ;
#213 = MECHANICAL_DESIGN_GEOMETRIC_PRESENTATION_REPRESENTATION (  '', ( #190 ), #96 ) ;
#214 = AXIS2_PLACEMENT_3D ( 'NONE', #275, #167, #1 ) ;
#215 = CARTESIAN_POINT ( 'NONE',  ( 4.598936731609567916E-17, 0.0000000000000000000, 0.3755316826705892841 ) ) ;
#216 = CARTESIAN_POINT ( 'NONE',  ( -0.09365624999999994094, 1.146958267826442798E-17, 0.3750000000000000555 ) ) ;
#217 = LINE ( 'NONE', #269, #158 ) ;
#218 = ORIENTED_EDGE ( 'NONE', *, *, #262, .T. ) ;
#219 =( LENGTH_UNIT ( ) NAMED_UNIT ( * ) SI_UNIT ( $, .METRE. ) );
#220 = MECHANICAL_DESIGN_GEOMETRIC_PRESENTATION_REPRESENTATION (  '', ( #284 ), #81 ) ;
#221 = EDGE_CURVE ( 'NONE', #54, #17, #109, .T. ) ;
#222 = DIRECTION ( 'NONE',  ( 1.000000000000000000, 0.0000000000000000000, 0.0000000000000000000 ) ) ;
#223 =( CONVERSION_BASED_UNIT ( 'INCH', #36 ) LENGTH_UNIT ( ) NAMED_UNIT ( #161 ) );
#224 = ORIENTED_EDGE ( 'NONE', *, *, #225, .F. ) ;
#225 = EDGE_CURVE ( 'NONE', #245, #18, #274, .T. ) ;
#226 = DIRECTION ( 'NONE',  ( -1.000000000000000000, 0.0000000000000000000, 1.224646799147353454E-16 ) ) ;
#227 = PRESENTATION_LAYER_ASSIGNMENT (  '', '', ( #190 ) ) ;
#228 = CARTESIAN_POINT ( 'NONE',  ( 4.592425496802576068E-17, 0.0000000000000000000, 0.3750000000000000555 ) ) ;
#229 = ORIENTED_EDGE ( 'NONE', *, *, #212, .F. ) ;
#230 = ORIENTED_EDGE ( 'NONE', *, *, #265, .T. ) ;
#231 = CIRCLE ( 'NONE', #260, 0.09375000000000001388 ) ;
#232 = ORIENTED_EDGE ( 'NONE', *, *, #262, .F. ) ;
#233 = AXIS2_PLACEMENT_3D ( 'NONE', #144, #117, #69 ) ;
#234 = DIRECTION ( 'NONE',  ( -1.000000000000000000, 0.0000000000000000000, 0.0000000000000000000 ) ) ;
#235 = CARTESIAN_POINT ( 'NONE',  ( -0.09365624999999994094, 1.147532321013543253E-17, 0.3750000000000000555 ) ) ;
#236 = EDGE_CURVE ( 'NONE', #194, #18, #217, .T. ) ;
#237 = APPLICATION_CONTEXT ( 'automotive_design' ) ;
#238 = FACE_OUTER_BOUND ( 'NONE', #87, .T. ) ;
#239 = AXIS2_PLACEMENT_3D ( 'NONE', #11, #103, #78 ) ;
#240 = FACE_OUTER_BOUND ( 'NONE', #13, .T. ) ;
#241 = FACE_OUTER_BOUND ( 'NONE', #57, .T. ) ;
#242 = CONICAL_SURFACE ( 'NONE', #115, 0.07875000000000061118, 0.7853981633974562726 ) ;
#243 = AXIS2_PLACEMENT_3D ( 'NONE', #88, #253, #19 ) ;
#244 = FACE_OUTER_BOUND ( 'NONE', #134, .T. ) ;
#245 = VERTEX_POINT ( 'NONE', #175 ) ;
#246 = SURFACE_SIDE_STYLE ('',( #12 ) ) ;
#247 = CYLINDRICAL_SURFACE ( 'NONE', #34, 0.09365624999999999645 ) ;
#248 = AXIS2_PLACEMENT_3D ( 'NONE', #196, #198, #202 ) ;
#249 = EDGE_LOOP ( 'NONE', ( #218, #60 ) ) ;
#250 = DIRECTION ( 'NONE',  ( 1.224646799147353454E-16, 0.0000000000000000000, 1.000000000000000000 ) ) ;
#251 = APPLICATION_CONTEXT ( 'automotive_design' ) ;
#252 = EDGE_LOOP ( 'NONE', ( #294, #273, #229, #9 ) ) ;
#253 = DIRECTION ( 'NONE',  ( 0.0000000000000000000, 0.0000000000000000000, 1.000000000000000000 ) ) ;
#254 = AXIS2_PLACEMENT_3D ( 'NONE', #270, #177, #112 ) ;
#255 = EDGE_CURVE ( 'NONE', #18, #181, #35, .T. ) ;
#256 = DIRECTION ( 'NONE',  ( 1.000000000000000000, 0.0000000000000000000, 0.0000000000000000000 ) ) ;
#257 = DIRECTION ( 'NONE',  ( -1.000000000000000000, 0.0000000000000000000, 1.224646799147353454E-16 ) ) ;
#258 = CARTESIAN_POINT ( 'NONE',  ( 0.0000000000000000000, 0.0000000000000000000, 1.500000000000000222 ) ) ;
#259 = DIRECTION ( 'NONE',  ( 0.0000000000000000000, 0.0000000000000000000, 1.000000000000000000 ) ) ;
#260 = AXIS2_PLACEMENT_3D ( 'NONE', #72, #97, #256 ) ;
#261 = CYLINDRICAL_SURFACE ( 'NONE', #121, 0.09375000000000001388 ) ;
#262 = EDGE_CURVE ( 'NONE', #135, #194, #208, .T. ) ;
#263 = CARTESIAN_POINT ( 'NONE',  ( 0.09365624999999999645, 1.146958267826442798E-17, -1.146958267826443260E-17 ) ) ;
#264 = DIRECTION ( 'NONE',  ( 0.7071067811865531239, 8.659560562355003116E-17, -0.7071067811865419106 ) ) ;
#265 = EDGE_CURVE ( 'NONE', #17, #157, #286, .T. ) ;
#266 = FILL_AREA_STYLE ('',( #59 ) ) ;
#267 = ORIENTED_EDGE ( 'NONE', *, *, #82, .F. ) ;
#268 = ORIENTED_EDGE ( 'NONE', *, *, #221, .F. ) ;
#269 = CARTESIAN_POINT ( 'NONE',  ( 0.07875000000000061118, 9.644093543285480678E-18, 1.500000000000000222 ) ) ;
#270 = CARTESIAN_POINT ( 'NONE',  ( 4.592425496802576068E-17, 0.0000000000000000000, 0.3750000000000000555 ) ) ;
#271 = CIRCLE ( 'NONE', #89, 0.09365624999999999645 ) ;
#272 = CARTESIAN_POINT ( 'NONE',  ( 0.09375000000000001388, 1.148106374200643401E-17, 1.485000000000000986 ) ) ;
#273 = ORIENTED_EDGE ( 'NONE', *, *, #255, .T. ) ;
#274 = CIRCLE ( 'NONE', #145, 0.09375000000000001388 ) ;
#275 = CARTESIAN_POINT ( 'NONE',  ( 4.592425496802576068E-17, 0.0000000000000000000, 0.3750000000000000555 ) ) ;
#276 = MANIFOLD_SOLID_BREP ( 'Cut-Revolve1', #104 ) ;
#277 = DIRECTION ( 'NONE',  ( 0.1736481776669315247, 0.0000000000000000000, 0.9848077530122077983 ) ) ;
#278 = ADVANCED_BREP_SHAPE_REPRESENTATION ( 'Micro_SEM-187-02X', ( #276, #243 ), #186 ) ;
#279 = AXIS2_PLACEMENT_3D ( 'NONE', #228, #250, #197 ) ;
#280 = CARTESIAN_POINT ( 'NONE',  ( -0.09365624999999999645, 0.0000000000000000000, 1.146958267826443260E-17 ) ) ;
#281 = DIRECTION ( 'NONE',  ( -1.224646799147353454E-16, -0.0000000000000000000, -1.000000000000000000 ) ) ;
#282 = CYLINDRICAL_SURFACE ( 'NONE', #137, 0.09375000000000001388 ) ;
#283 = ADVANCED_FACE ( 'NONE', ( #244 ), #291, .T. ) ;
#284 = STYLED_ITEM ( 'NONE', ( #124 ), #276 ) ;
#285 = DIRECTION ( 'NONE',  ( 0.0000000000000000000, 0.0000000000000000000, -1.000000000000000000 ) ) ;
#286 = LINE ( 'NONE', #263, #182 ) ;
#287 = ADVANCED_FACE ( 'NONE', ( #241 ), #242, .T. ) ;
#288 = FACE_OUTER_BOUND ( 'NONE', #249, .T. ) ;
#289 = PRODUCT_DEFINITION_FORMATION_WITH_SPECIFIED_SOURCE ( 'ANY', '', #66, .NOT_KNOWN. ) ;
#290 = ORIENTED_EDGE ( 'NONE', *, *, #146, .T. ) ;
#291 = CYLINDRICAL_SURFACE ( 'NONE', #70, 0.09365624999999999645 ) ;
#292 = ORIENTED_EDGE ( 'NONE', *, *, #90, .T. ) ;
#293 = ORIENTED_EDGE ( 'NONE', *, *, #146, .F. ) ;
#294 = ORIENTED_EDGE ( 'NONE', *, *, #225, .T. ) ;
#295 = DIMENSIONAL_EXPONENTS ( 1.000000000000000000, 0.0000000000000000000, 0.0000000000000000000, 0.0000000000000000000, 0.0000000000000000000, 0.0000000000000000000, 0.0000000000000000000 ) ;
#296 = APPLICATION_PROTOCOL_DEFINITION ( 'draft international standard', 'automotive_design', 1998, #251 ) ;
#297 =( NAMED_UNIT ( * ) PLANE_ANGLE_UNIT ( ) SI_UNIT ( $, .RADIAN. ) );
#298 = AXIS2_PLACEMENT_3D ( 'NONE', #27, #209, #120 ) ;
#299 = CARTESIAN_POINT ( 'NONE',  ( 0.09375000000000004163, 1.148106374200644017E-17, 0.3755316826705892841 ) ) ;
ENDSEC;
END-ISO-10303-21;
