ISO-10303-21;
HEADER;
FILE_DESCRIPTION (( 'STEP AP214' ),
    '1' );
FILE_NAME ('Micro_SBMM-030-409X.STEP',
    '2021-09-02T17:07:43',
    ( '' ),
    ( '' ),
    'SwSTEP 2.0',
    'SolidWorks 2020',
    '' );
FILE_SCHEMA (( 'AUTOMOTIVE_DESIGN' ));
ENDSEC;

DATA;
#1 = CARTESIAN_POINT ( 'NONE',  ( 0.0000000000000000000, 0.0000000000000000000, 0.05905500000000000332 ) ) ;
#2 = ORIENTED_EDGE ( 'NONE', *, *, #204, .F. ) ;
#3 = ORIENTED_EDGE ( 'NONE', *, *, #148, .F. ) ;
#4 = COLOUR_RGB ( '',0.7921568627450980005, 0.8196078431372548767, 0.9333333333333333481 ) ;
#5 = UNCERTAINTY_MEASURE_WITH_UNIT (LENGTH_MEASURE( 1.000000000000000082E-05 ), #160, 'distance_accuracy_value', 'NONE');
#6 = CARTESIAN_POINT ( 'NONE',  ( 0.0000000000000000000, 0.0000000000000000000, 0.1030719981370833843 ) ) ;
#7 = AXIS2_PLACEMENT_3D ( 'NONE', #105, #210, #152 ) ;
#8 = CARTESIAN_POINT ( 'NONE',  ( 0.0000000000000000000, 0.03936999999999998140, 0.1030719981370833843 ) ) ;
#9 = DIRECTION ( 'NONE',  ( -0.0000000000000000000, -0.0000000000000000000, -1.000000000000000000 ) ) ;
#10 = ORIENTED_EDGE ( 'NONE', *, *, #29, .T. ) ;
#11 = MECHANICAL_DESIGN_GEOMETRIC_PRESENTATION_REPRESENTATION (  '', ( #140 ), #17 ) ;
#12 = LINE ( 'NONE', #84, #172 ) ;
#13 = DIRECTION ( 'NONE',  ( 1.000000000000000000, 0.0000000000000000000, 0.0000000000000000000 ) ) ;
#14 = FACE_OUTER_BOUND ( 'NONE', #159, .T. ) ;
#15 = ORIENTED_EDGE ( 'NONE', *, *, #29, .F. ) ;
#16 = CARTESIAN_POINT ( 'NONE',  ( -0.03936999999999997446, 0.0000000000000000000, 0.0000000000000000000 ) ) ;
#17 =( GEOMETRIC_REPRESENTATION_CONTEXT ( 3 ) GLOBAL_UNCERTAINTY_ASSIGNED_CONTEXT ( ( #264 ) ) GLOBAL_UNIT_ASSIGNED_CONTEXT ( ( #211, #75, #121 ) ) REPRESENTATION_CONTEXT ( 'NONE', 'WORKASPACE' ) );
#18 = CARTESIAN_POINT ( 'NONE',  ( 0.03936999999999998140, 4.821434448243127714E-18, 0.1030719981370833843 ) ) ;
#19 = AXIS2_PLACEMENT_3D ( 'NONE', #141, #251, #227 ) ;
#20 = SURFACE_SIDE_STYLE ('',( #164 ) ) ;
#21 = DIRECTION ( 'NONE',  ( 1.000000000000000000, 0.0000000000000000000, 0.0000000000000000000 ) ) ;
#22 = CARTESIAN_POINT ( 'NONE',  ( 0.0000000000000000000, 0.0000000000000000000, 1.220471999999999779 ) ) ;
#23 = FACE_OUTER_BOUND ( 'NONE', #94, .T. ) ;
#24 = CARTESIAN_POINT ( 'NONE',  ( 0.0000000000000000000, 0.0000000000000000000, 0.0000000000000000000 ) ) ;
#25 = ORIENTED_EDGE ( 'NONE', *, *, #161, .F. ) ;
#26 = ADVANCED_FACE ( 'NONE', ( #14 ), #83, .T. ) ;
#27 = AXIS2_PLACEMENT_3D ( 'NONE', #255, #271, #341 ) ;
#28 = DIRECTION ( 'NONE',  ( 1.000000000000000000, 0.0000000000000000000, 0.0000000000000000000 ) ) ;
#29 = EDGE_CURVE ( 'NONE', #292, #120, #248, .T. ) ;
#30 = ORIENTED_EDGE ( 'NONE', *, *, #139, .F. ) ;
#31 = PRESENTATION_STYLE_ASSIGNMENT (( #53 ) ) ;
#32 = DIRECTION ( 'NONE',  ( -0.0000000000000000000, -0.0000000000000000000, -1.000000000000000000 ) ) ;
#33 = CARTESIAN_POINT ( 'NONE',  ( 0.0000000000000000000, 0.0000000000000000000, 0.3543310000000000071 ) ) ;
#34 = CARTESIAN_POINT ( 'NONE',  ( 0.1181100000000000344, 1.446430334472939084E-17, 2.952755999999999936 ) ) ;
#35 = ADVANCED_FACE ( 'NONE', ( #134 ), #254, .T. ) ;
#36 = DIRECTION ( 'NONE',  ( 0.0000000000000000000, 0.0000000000000000000, -1.000000000000000000 ) ) ;
#37 = CARTESIAN_POINT ( 'NONE',  ( 0.0000000000000000000, 0.0000000000000000000, 0.3543310000000000071 ) ) ;
#38 = DIMENSIONAL_EXPONENTS ( 1.000000000000000000, 0.0000000000000000000, 0.0000000000000000000, 0.0000000000000000000, 0.0000000000000000000, 0.0000000000000000000, 0.0000000000000000000 ) ;
#39 = DIRECTION ( 'NONE',  ( 1.000000000000000000, 0.0000000000000000000, 0.0000000000000000000 ) ) ;
#40 = EDGE_CURVE ( 'NONE', #186, #102, #91, .T. ) ;
#41 = ADVANCED_FACE ( 'NONE', ( #224 ), #291, .T. ) ;
#42 = VECTOR ( 'NONE', #55, 39.37007874015748143 ) ;
#43 = CYLINDRICAL_SURFACE ( 'NONE', #19, 0.1181100000000000344 ) ;
#44 = AXIS2_PLACEMENT_3D ( 'NONE', #22, #117, #39 ) ;
#45 = ORIENTED_EDGE ( 'NONE', *, *, #148, .T. ) ;
#46 = EDGE_CURVE ( 'NONE', #325, #107, #321, .T. ) ;
#47 = ORIENTED_EDGE ( 'NONE', *, *, #64, .F. ) ;
#48 = ORIENTED_EDGE ( 'NONE', *, *, #242, .F. ) ;
#49 = ORIENTED_EDGE ( 'NONE', *, *, #246, .F. ) ;
#50 = CONICAL_SURFACE ( 'NONE', #243, 0.1031099999999991745, 0.7853981633974500554 ) ;
#51 = AXIS2_PLACEMENT_3D ( 'NONE', #338, #299, #163 ) ;
#52 = VERTEX_POINT ( 'NONE', #229 ) ;
#53 = SURFACE_STYLE_USAGE ( .BOTH. , #230 ) ;
#54 = FACE_OUTER_BOUND ( 'NONE', #302, .T. ) ;
#55 = DIRECTION ( 'NONE',  ( -0.0000000000000000000, -0.0000000000000000000, -1.000000000000000000 ) ) ;
#56 = PRODUCT_RELATED_PRODUCT_CATEGORY ( 'part', '', ( #261 ) ) ;
#57 = CYLINDRICAL_SURFACE ( 'NONE', #244, 0.03936999999999997446 ) ;
#58 = DIRECTION ( 'NONE',  ( 1.000000000000000000, 0.0000000000000000000, 0.0000000000000000000 ) ) ;
#59 = CIRCLE ( 'NONE', #79, 0.05905499999999999639 ) ;
#60 = EDGE_CURVE ( 'NONE', #120, #90, #62, .T. ) ;
#61 = DIRECTION ( 'NONE',  ( -0.0000000000000000000, -0.0000000000000000000, -1.000000000000000000 ) ) ;
#62 = CIRCLE ( 'NONE', #109, 0.05905499999999998945 ) ;
#63 = DIRECTION ( 'NONE',  ( -1.000000000000000000, 0.0000000000000000000, 0.0000000000000000000 ) ) ;
#64 = EDGE_CURVE ( 'NONE', #107, #178, #12, .T. ) ;
#65 = LINE ( 'NONE', #16, #124 ) ;
#66 = DIRECTION ( 'NONE',  ( -1.000000000000000000, 0.0000000000000000000, 0.0000000000000000000 ) ) ;
#67 = ORIENTED_EDGE ( 'NONE', *, *, #169, .F. ) ;
#68 = VECTOR ( 'NONE', #125, 39.37007874015748854 ) ;
#69 = ORIENTED_EDGE ( 'NONE', *, *, #161, .T. ) ;
#70 = VERTEX_POINT ( 'NONE', #81 ) ;
#71 = APPLICATION_CONTEXT ( 'automotive_design' ) ;
#72 = ORIENTED_EDGE ( 'NONE', *, *, #64, .T. ) ;
#73 = DIRECTION ( 'NONE',  ( -0.09053564237157930850, 1.108741846391040808E-17, 0.9958932158923291533 ) ) ;
#74 = PRODUCT_DEFINITION_CONTEXT ( 'detailed design', #71, 'design' ) ;
#75 =( NAMED_UNIT ( * ) PLANE_ANGLE_UNIT ( ) SI_UNIT ( $, .RADIAN. ) );
#76 = AXIS2_PLACEMENT_3D ( 'NONE', #279, #311, #314 ) ;
#77 = CARTESIAN_POINT ( 'NONE',  ( 0.03936999999999996058, 0.0000000000000000000, 0.3543310000000000071 ) ) ;
#78 = LINE ( 'NONE', #269, #68 ) ;
#79 = AXIS2_PLACEMENT_3D ( 'NONE', #126, #327, #295 ) ;
#80 = DIRECTION ( 'NONE',  ( -0.0000000000000000000, -0.0000000000000000000, -1.000000000000000000 ) ) ;
#81 = CARTESIAN_POINT ( 'NONE',  ( 0.1031099999999991745, 1.354581824536882559E-17, 2.952755999999999936 ) ) ;
#82 = DIRECTION ( 'NONE',  ( 0.0000000000000000000, 0.0000000000000000000, 1.000000000000000000 ) ) ;
#83 = CONICAL_SURFACE ( 'NONE', #275, 0.1299209999999997867, 0.09065978310229555470 ) ;
#84 = CARTESIAN_POINT ( 'NONE',  ( 0.1299209999999997867, 0.0000000000000000000, 1.350393149999997044 ) ) ;
#85 = AXIS2_PLACEMENT_3D ( 'NONE', #245, #181, #247 ) ;
#86 = LENGTH_MEASURE_WITH_UNIT ( LENGTH_MEASURE( 0.02539999999999999897 ), #306 );
#87 = ORIENTED_EDGE ( 'NONE', *, *, #246, .T. ) ;
#88 = ORIENTED_EDGE ( 'NONE', *, *, #93, .T. ) ;
#89 = DIRECTION ( 'NONE',  ( 1.000000000000000000, 0.0000000000000000000, 0.0000000000000000000 ) ) ;
#90 = VERTEX_POINT ( 'NONE', #194 ) ;
#91 = LINE ( 'NONE', #165, #238 ) ;
#92 = MECHANICAL_DESIGN_GEOMETRIC_PRESENTATION_REPRESENTATION (  '', ( #183 ), #265 ) ;
#93 = EDGE_CURVE ( 'NONE', #102, #52, #310, .T. ) ;
#94 = EDGE_LOOP ( 'NONE', ( #2, #288, #231, #168, #250 ) ) ;
#95 = PRODUCT_CONTEXT ( 'NONE', #144, 'mechanical' ) ;
#96 = ADVANCED_FACE ( 'NONE', ( #23 ), #216, .T. ) ;
#97 = ORIENTED_EDGE ( 'NONE', *, *, #40, .F. ) ;
#98 = SHAPE_DEFINITION_REPRESENTATION ( #290, #218 ) ;
#99 = AXIS2_PLACEMENT_3D ( 'NONE', #1, #309, #167 ) ;
#100 = AXIS2_PLACEMENT_3D ( 'NONE', #174, #149, #89 ) ;
#101 = EDGE_LOOP ( 'NONE', ( #280, #234, #10, #205 ) ) ;
#102 = VERTEX_POINT ( 'NONE', #196 ) ;
#103 = CARTESIAN_POINT ( 'NONE',  ( 0.1181100000000000344, 1.446430334472939084E-17, 1.220471999999999779 ) ) ;
#104 = MANIFOLD_SOLID_BREP ( 'Cut-Revolve3', #158 ) ;
#105 = CARTESIAN_POINT ( 'NONE',  ( 0.0000000000000000000, 0.0000000000000000000, 2.937755999999999368 ) ) ;
#106 = CARTESIAN_POINT ( 'NONE',  ( 0.03936999999999997446, 4.821434448243126173E-18, 0.0000000000000000000 ) ) ;
#107 = VERTEX_POINT ( 'NONE', #77 ) ;
#108 = FACE_OUTER_BOUND ( 'NONE', #171, .T. ) ;
#109 = AXIS2_PLACEMENT_3D ( 'NONE', #220, #127, #111 ) ;
#110 = CIRCLE ( 'NONE', #44, 0.1181100000000000344 ) ;
#111 = DIRECTION ( 'NONE',  ( 0.0000000000000000000, 0.0000000000000000000, 1.000000000000000000 ) ) ;
#112 = CYLINDRICAL_SURFACE ( 'NONE', #150, 0.1181100000000000344 ) ;
#113 = CARTESIAN_POINT ( 'NONE',  ( 0.0000000000000000000, 0.0000000000000000000, 1.350393149999997044 ) ) ;
#114 = DIRECTION ( 'NONE',  ( -1.000000000000000000, 0.0000000000000000000, 0.0000000000000000000 ) ) ;
#115 = CARTESIAN_POINT ( 'NONE',  ( 0.0000000000000000000, 0.0000000000000000000, 2.952755999999999936 ) ) ;
#116 = CIRCLE ( 'NONE', #322, 0.1181100000000000344 ) ;
#117 = DIRECTION ( 'NONE',  ( 0.0000000000000000000, 0.0000000000000000000, 1.000000000000000000 ) ) ;
#118 = ORIENTED_EDGE ( 'NONE', *, *, #46, .T. ) ;
#119 = ORIENTED_EDGE ( 'NONE', *, *, #281, .F. ) ;
#120 = VERTEX_POINT ( 'NONE', #8 ) ;
#121 =( NAMED_UNIT ( * ) SI_UNIT ( $, .STERADIAN. ) SOLID_ANGLE_UNIT ( ) );
#122 = LINE ( 'NONE', #34, #343 ) ;
#123 = DIRECTION ( 'NONE',  ( -1.000000000000000000, 0.0000000000000000000, 0.0000000000000000000 ) ) ;
#124 = VECTOR ( 'NONE', #80, 39.37007874015748143 ) ;
#125 = DIRECTION ( 'NONE',  ( 0.7071067811865486830, 8.659560562354947649E-17, -0.7071067811865462405 ) ) ;
#126 = CARTESIAN_POINT ( 'NONE',  ( 0.0000000000000000000, 0.0000000000000000000, 0.05905500000000000332 ) ) ;
#127 = DIRECTION ( 'NONE',  ( -1.000000000000000000, 0.0000000000000000000, 0.0000000000000000000 ) ) ;
#128 = PLANE ( 'NONE',  #233 ) ;
#129 = CIRCLE ( 'NONE', #85, 0.1031099999999991745 ) ;
#130 = VERTEX_POINT ( 'NONE', #270 ) ;
#131 = EDGE_CURVE ( 'NONE', #107, #325, #146, .T. ) ;
#132 = DIRECTION ( 'NONE',  ( 1.000000000000000000, 0.0000000000000000000, -0.0000000000000000000 ) ) ;
#133 = CARTESIAN_POINT ( 'NONE',  ( -0.03936999999999996058, 9.642868896486258509E-18, 0.3543310000000000071 ) ) ;
#134 = FACE_OUTER_BOUND ( 'NONE', #199, .T. ) ;
#135 = DIRECTION ( 'NONE',  ( -0.0000000000000000000, -0.0000000000000000000, -1.000000000000000000 ) ) ;
#136 = ORIENTED_EDGE ( 'NONE', *, *, #40, .T. ) ;
#137 = APPLICATION_PROTOCOL_DEFINITION ( 'draft international standard', 'automotive_design', 1998, #144 ) ;
#138 = ORIENTED_EDGE ( 'NONE', *, *, #204, .T. ) ;
#139 = EDGE_CURVE ( 'NONE', #130, #102, #226, .T. ) ;
#140 = STYLED_ITEM ( 'NONE', ( #170 ), #104 ) ;
#141 = CARTESIAN_POINT ( 'NONE',  ( 0.0000000000000000000, 0.0000000000000000000, 2.952755999999999936 ) ) ;
#142 = ORIENTED_EDGE ( 'NONE', *, *, #326, .T. ) ;
#143 = LENGTH_MEASURE_WITH_UNIT ( LENGTH_MEASURE( 0.02539999999999999897 ), #201 );
#144 = APPLICATION_CONTEXT ( 'automotive_design' ) ;
#145 = ORIENTED_EDGE ( 'NONE', *, *, #185, .T. ) ;
#146 = CIRCLE ( 'NONE', #258, 0.03936999999999996058 ) ;
#147 = ORIENTED_EDGE ( 'NONE', *, *, #303, .F. ) ;
#148 = EDGE_CURVE ( 'NONE', #325, #52, #214, .T. ) ;
#149 = DIRECTION ( 'NONE',  ( 0.0000000000000000000, 0.0000000000000000000, 1.000000000000000000 ) ) ;
#150 = AXIS2_PLACEMENT_3D ( 'NONE', #334, #187, #256 ) ;
#151 = CARTESIAN_POINT ( 'NONE',  ( 0.0000000000000000000, 0.0000000000000000000, 0.0000000000000000000 ) ) ;
#152 = DIRECTION ( 'NONE',  ( 1.000000000000000000, 0.0000000000000000000, 0.0000000000000000000 ) ) ;
#153 = DIRECTION ( 'NONE',  ( 0.0000000000000000000, 0.0000000000000000000, 1.000000000000000000 ) ) ;
#154 = VECTOR ( 'NONE', #135, 39.37007874015748143 ) ;
#155 = AXIS2_PLACEMENT_3D ( 'NONE', #342, #82, #13 ) ;
#156 = AXIS2_PLACEMENT_3D ( 'NONE', #335, #61, #63 ) ;
#157 = ADVANCED_FACE ( 'NONE', ( #268 ), #50, .T. ) ;
#158 = CLOSED_SHELL ( 'NONE', ( #209, #35, #213, #157, #305, #294, #257, #41, #26, #286, #96 ) ) ;
#159 = EDGE_LOOP ( 'NONE', ( #3, #262, #72, #147 ) ) ;
#160 =( CONVERSION_BASED_UNIT ( 'INCH', #86 ) LENGTH_UNIT ( ) NAMED_UNIT ( #217 ) );
#161 = EDGE_CURVE ( 'NONE', #130, #178, #122, .T. ) ;
#162 = SURFACE_STYLE_USAGE ( .BOTH. , #20 ) ;
#163 = DIRECTION ( 'NONE',  ( -1.000000000000000000, 0.0000000000000000000, 0.0000000000000000000 ) ) ;
#164 = SURFACE_STYLE_FILL_AREA ( #312 ) ;
#165 = CARTESIAN_POINT ( 'NONE',  ( -0.1031099999999991745, 0.0000000000000000000, 2.952755999999999936 ) ) ;
#166 = CIRCLE ( 'NONE', #51, 0.03936999999999998140 ) ;
#167 = DIRECTION ( 'NONE',  ( 0.0000000000000000000, 1.000000000000000000, 0.0000000000000000000 ) ) ;
#168 = ORIENTED_EDGE ( 'NONE', *, *, #200, .F. ) ;
#169 = EDGE_CURVE ( 'NONE', #102, #130, #116, .T. ) ;
#170 = PRESENTATION_STYLE_ASSIGNMENT (( #162 ) ) ;
#171 = EDGE_LOOP ( 'NONE', ( #318, #45, #193, #47 ) ) ;
#172 = VECTOR ( 'NONE', #337, 39.37007874015748854 ) ;
#173 = AXIS2_PLACEMENT_3D ( 'NONE', #24, #316, #28 ) ;
#174 = CARTESIAN_POINT ( 'NONE',  ( 0.0000000000000000000, 0.0000000000000000000, 2.952755999999999936 ) ) ;
#175 = DIRECTION ( 'NONE',  ( -1.000000000000000000, 0.0000000000000000000, 0.0000000000000000000 ) ) ;
#176 = CARTESIAN_POINT ( 'NONE',  ( 0.0000000000000000000, 0.0000000000000000000, 2.937755999999999368 ) ) ;
#177 = DIMENSIONAL_EXPONENTS ( 1.000000000000000000, 0.0000000000000000000, 0.0000000000000000000, 0.0000000000000000000, 0.0000000000000000000, 0.0000000000000000000, 0.0000000000000000000 ) ;
#178 = VERTEX_POINT ( 'NONE', #103 ) ;
#179 = CARTESIAN_POINT ( 'NONE',  ( -0.1299209999999997867, 1.591073367920230035E-17, 1.350393149999997044 ) ) ;
#180 = ORIENTED_EDGE ( 'NONE', *, *, #235, .F. ) ;
#181 = DIRECTION ( 'NONE',  ( 0.0000000000000000000, 0.0000000000000000000, 1.000000000000000000 ) ) ;
#182 = CIRCLE ( 'NONE', #317, 0.03936999999999998140 ) ;
#183 = STYLED_ITEM ( 'NONE', ( #31 ), #218 ) ;
#184 = FACE_OUTER_BOUND ( 'NONE', #278, .T. ) ;
#185 = EDGE_CURVE ( 'NONE', #331, #90, #59, .T. ) ;
#186 = VERTEX_POINT ( 'NONE', #240 ) ;
#187 = DIRECTION ( 'NONE',  ( -0.0000000000000000000, -0.0000000000000000000, -1.000000000000000000 ) ) ;
#188 = ORIENTED_EDGE ( 'NONE', *, *, #93, .F. ) ;
#189 = DIRECTION ( 'NONE',  ( -0.7071067811865486830, 0.0000000000000000000, -0.7071067811865462405 ) ) ;
#190 = FACE_OUTER_BOUND ( 'NONE', #324, .T. ) ;
#191 = VECTOR ( 'NONE', #73, 39.37007874015748854 ) ;
#192 = AXIS2_PLACEMENT_3D ( 'NONE', #267, #153, #333 ) ;
#193 = ORIENTED_EDGE ( 'NONE', *, *, #326, .F. ) ;
#194 = CARTESIAN_POINT ( 'NONE',  ( 0.0000000000000000000, 3.616075836182346941E-18, 8.537024980200822558E-18 ) ) ;
#195 = SPHERICAL_SURFACE ( 'NONE', #76, 0.05905499999999999639 ) ;
#196 = CARTESIAN_POINT ( 'NONE',  ( -0.1181100000000000344, 0.0000000000000000000, 2.937755999999999368 ) ) ;
#197 =( NAMED_UNIT ( * ) PLANE_ANGLE_UNIT ( ) SI_UNIT ( $, .RADIAN. ) );
#198 = PRESENTATION_LAYER_ASSIGNMENT (  '', '', ( #183 ) ) ;
#199 = EDGE_LOOP ( 'NONE', ( #319, #259, #145, #236 ) ) ;
#200 = EDGE_CURVE ( 'NONE', #331, #292, #182, .T. ) ;
#201 =( LENGTH_UNIT ( ) NAMED_UNIT ( * ) SI_UNIT ( $, .METRE. ) );
#202 = PRESENTATION_LAYER_ASSIGNMENT (  '', '', ( #140 ) ) ;
#203 = ORIENTED_EDGE ( 'NONE', *, *, #169, .T. ) ;
#204 = EDGE_CURVE ( 'NONE', #107, #320, #208, .T. ) ;
#205 = ORIENTED_EDGE ( 'NONE', *, *, #60, .T. ) ;
#206 = UNCERTAINTY_MEASURE_WITH_UNIT (LENGTH_MEASURE( 1.000000000000000082E-05 ), #263, 'distance_accuracy_value', 'NONE');
#207 = DIRECTION ( 'NONE',  ( 0.0000000000000000000, 0.0000000000000000000, -1.000000000000000000 ) ) ;
#208 = LINE ( 'NONE', #106, #42 ) ;
#209 = ADVANCED_FACE ( 'NONE', ( #54 ), #57, .T. ) ;
#210 = DIRECTION ( 'NONE',  ( 0.0000000000000000000, 0.0000000000000000000, -1.000000000000000000 ) ) ;
#211 =( CONVERSION_BASED_UNIT ( 'INCH', #332 ) LENGTH_UNIT ( ) NAMED_UNIT ( #177 ) );
#212 = EDGE_LOOP ( 'NONE', ( #49, #282, #67, #97 ) ) ;
#213 = ADVANCED_FACE ( 'NONE', ( #108 ), #284, .T. ) ;
#214 = LINE ( 'NONE', #179, #191 ) ;
#215 =( GEOMETRIC_REPRESENTATION_CONTEXT ( 3 ) GLOBAL_UNCERTAINTY_ASSIGNED_CONTEXT ( ( #5 ) ) GLOBAL_UNIT_ASSIGNED_CONTEXT ( ( #160, #197, #221 ) ) REPRESENTATION_CONTEXT ( 'NONE', 'WORKASPACE' ) );
#216 = CYLINDRICAL_SURFACE ( 'NONE', #232, 0.03936999999999997446 ) ;
#217 = DIMENSIONAL_EXPONENTS ( 1.000000000000000000, 0.0000000000000000000, 0.0000000000000000000, 0.0000000000000000000, 0.0000000000000000000, 0.0000000000000000000, 0.0000000000000000000 ) ;
#218 = ADVANCED_BREP_SHAPE_REPRESENTATION ( 'Micro_SBMM-030-409X', ( #104, #173 ), #215 ) ;
#219 = CARTESIAN_POINT ( 'NONE',  ( 4.821434448243127714E-18, -0.03936999999999998140, 0.1030719981370833843 ) ) ;
#220 = CARTESIAN_POINT ( 'NONE',  ( 0.0000000000000000000, 0.0000000000000000000, 0.05905500000000000332 ) ) ;
#221 =( NAMED_UNIT ( * ) SI_UNIT ( $, .STERADIAN. ) SOLID_ANGLE_UNIT ( ) );
#222 = DIRECTION ( 'NONE',  ( -0.0000000000000000000, -0.0000000000000000000, -1.000000000000000000 ) ) ;
#223 = DIRECTION ( 'NONE',  ( 0.0000000000000000000, 0.0000000000000000000, 1.000000000000000000 ) ) ;
#224 = FACE_OUTER_BOUND ( 'NONE', #273, .T. ) ;
#225 = DIRECTION ( 'NONE',  ( 0.0000000000000000000, 0.0000000000000000000, 1.000000000000000000 ) ) ;
#226 = CIRCLE ( 'NONE', #7, 0.1181100000000000344 ) ;
#227 = DIRECTION ( 'NONE',  ( -1.000000000000000000, 0.0000000000000000000, 0.0000000000000000000 ) ) ;
#228 = DIRECTION ( 'NONE',  ( -1.000000000000000000, 0.0000000000000000000, 0.0000000000000000000 ) ) ;
#229 = CARTESIAN_POINT ( 'NONE',  ( -0.1181100000000000344, 0.0000000000000000000, 1.220471999999999779 ) ) ;
#230 = SURFACE_SIDE_STYLE ('',( #260 ) ) ;
#231 = ORIENTED_EDGE ( 'NONE', *, *, #328, .T. ) ;
#232 = AXIS2_PLACEMENT_3D ( 'NONE', #253, #222, #66 ) ;
#233 = AXIS2_PLACEMENT_3D ( 'NONE', #115, #225, #132 ) ;
#234 = ORIENTED_EDGE ( 'NONE', *, *, #200, .T. ) ;
#235 = EDGE_CURVE ( 'NONE', #70, #130, #78, .T. ) ;
#236 = ORIENTED_EDGE ( 'NONE', *, *, #60, .F. ) ;
#237 =( NAMED_UNIT ( * ) SI_UNIT ( $, .STERADIAN. ) SOLID_ANGLE_UNIT ( ) );
#238 = VECTOR ( 'NONE', #189, 39.37007874015748854 ) ;
#239 = ORIENTED_EDGE ( 'NONE', *, *, #242, .T. ) ;
#240 = CARTESIAN_POINT ( 'NONE',  ( -0.1031099999999991745, 0.0000000000000000000, 2.952755999999999936 ) ) ;
#241 =( LENGTH_UNIT ( ) NAMED_UNIT ( * ) SI_UNIT ( $, .METRE. ) );
#242 = EDGE_CURVE ( 'NONE', #186, #70, #129, .T. ) ;
#243 = AXIS2_PLACEMENT_3D ( 'NONE', #293, #36, #266 ) ;
#244 = AXIS2_PLACEMENT_3D ( 'NONE', #151, #9, #330 ) ;
#245 = CARTESIAN_POINT ( 'NONE',  ( 0.0000000000000000000, 0.0000000000000000000, 2.952755999999999936 ) ) ;
#246 = EDGE_CURVE ( 'NONE', #70, #186, #323, .T. ) ;
#247 = DIRECTION ( 'NONE',  ( 1.000000000000000000, 0.0000000000000000000, 0.0000000000000000000 ) ) ;
#248 = CIRCLE ( 'NONE', #329, 0.03936999999999998140 ) ;
#249 = CIRCLE ( 'NONE', #155, 0.1181100000000000344 ) ;
#250 = ORIENTED_EDGE ( 'NONE', *, *, #336, .F. ) ;
#251 = DIRECTION ( 'NONE',  ( -0.0000000000000000000, -0.0000000000000000000, -1.000000000000000000 ) ) ;
#252 = FILL_AREA_STYLE_COLOUR ( '', #4 ) ;
#253 = CARTESIAN_POINT ( 'NONE',  ( 0.0000000000000000000, 0.0000000000000000000, 0.0000000000000000000 ) ) ;
#254 = SPHERICAL_SURFACE ( 'NONE', #99, 0.05905499999999999639 ) ;
#255 = CARTESIAN_POINT ( 'NONE',  ( 0.0000000000000000000, 0.0000000000000000000, 2.952755999999999936 ) ) ;
#256 = DIRECTION ( 'NONE',  ( -1.000000000000000000, 0.0000000000000000000, 0.0000000000000000000 ) ) ;
#257 = ADVANCED_FACE ( 'NONE', ( #345 ), #128, .T. ) ;
#258 = AXIS2_PLACEMENT_3D ( 'NONE', #33, #289, #123 ) ;
#259 = ORIENTED_EDGE ( 'NONE', *, *, #336, .T. ) ;
#260 = SURFACE_STYLE_FILL_AREA ( #301 ) ;
#261 = PRODUCT ( 'Micro_SBMM-030-409X', 'Micro_SBMM-030-409X', '', ( #95 ) ) ;
#262 = ORIENTED_EDGE ( 'NONE', *, *, #131, .F. ) ;
#263 =( CONVERSION_BASED_UNIT ( 'INCH', #143 ) LENGTH_UNIT ( ) NAMED_UNIT ( #38 ) );
#264 = UNCERTAINTY_MEASURE_WITH_UNIT (LENGTH_MEASURE( 1.000000000000000082E-05 ), #211, 'distance_accuracy_value', 'NONE');
#265 =( GEOMETRIC_REPRESENTATION_CONTEXT ( 3 ) GLOBAL_UNCERTAINTY_ASSIGNED_CONTEXT ( ( #206 ) ) GLOBAL_UNIT_ASSIGNED_CONTEXT ( ( #263, #285, #237 ) ) REPRESENTATION_CONTEXT ( 'NONE', 'WORKASPACE' ) );
#266 = DIRECTION ( 'NONE',  ( -1.000000000000000000, 0.0000000000000000000, 0.0000000000000000000 ) ) ;
#267 = CARTESIAN_POINT ( 'NONE',  ( 0.0000000000000000000, 0.0000000000000000000, 1.350393149999997044 ) ) ;
#268 = FACE_OUTER_BOUND ( 'NONE', #212, .T. ) ;
#269 = CARTESIAN_POINT ( 'NONE',  ( 0.1031099999999991745, 1.262733314600825725E-17, 2.952755999999999936 ) ) ;
#270 = CARTESIAN_POINT ( 'NONE',  ( 0.1181100000000000344, 1.446430334472939084E-17, 2.937755999999999368 ) ) ;
#271 = DIRECTION ( 'NONE',  ( 0.0000000000000000000, 0.0000000000000000000, -1.000000000000000000 ) ) ;
#272 = FACE_OUTER_BOUND ( 'NONE', #101, .T. ) ;
#273 = EDGE_LOOP ( 'NONE', ( #180, #48, #136, #30 ) ) ;
#274 = CARTESIAN_POINT ( 'NONE',  ( -0.03936999999999998140, 0.0000000000000000000, 0.1030719981370833843 ) ) ;
#275 = AXIS2_PLACEMENT_3D ( 'NONE', #113, #223, #21 ) ;
#276 = ORIENTED_EDGE ( 'NONE', *, *, #139, .T. ) ;
#277 = CARTESIAN_POINT ( 'NONE',  ( -0.1181100000000000344, 0.0000000000000000000, 2.952755999999999936 ) ) ;
#278 = EDGE_LOOP ( 'NONE', ( #25, #276, #88, #297 ) ) ;
#279 = CARTESIAN_POINT ( 'NONE',  ( 0.0000000000000000000, 0.0000000000000000000, 0.05905500000000000332 ) ) ;
#280 = ORIENTED_EDGE ( 'NONE', *, *, #185, .F. ) ;
#281 = EDGE_CURVE ( 'NONE', #120, #320, #344, .T. ) ;
#282 = ORIENTED_EDGE ( 'NONE', *, *, #235, .T. ) ;
#283 = APPLICATION_PROTOCOL_DEFINITION ( 'draft international standard', 'automotive_design', 1998, #71 ) ;
#284 = CONICAL_SURFACE ( 'NONE', #192, 0.1299209999999997867, 0.09065978310229555470 ) ;
#285 =( NAMED_UNIT ( * ) PLANE_ANGLE_UNIT ( ) SI_UNIT ( $, .RADIAN. ) );
#286 = ADVANCED_FACE ( 'NONE', ( #272 ), #195, .T. ) ;
#287 = EDGE_LOOP ( 'NONE', ( #239, #87 ) ) ;
#288 = ORIENTED_EDGE ( 'NONE', *, *, #131, .T. ) ;
#289 = DIRECTION ( 'NONE',  ( -0.0000000000000000000, -0.0000000000000000000, -1.000000000000000000 ) ) ;
#290 = PRODUCT_DEFINITION_SHAPE ( 'NONE', 'NONE',  #315 ) ;
#291 = CONICAL_SURFACE ( 'NONE', #27, 0.1031099999999991745, 0.7853981633974500554 ) ;
#292 = VERTEX_POINT ( 'NONE', #274 ) ;
#293 = CARTESIAN_POINT ( 'NONE',  ( 0.0000000000000000000, 0.0000000000000000000, 2.952755999999999936 ) ) ;
#294 = ADVANCED_FACE ( 'NONE', ( #184 ), #43, .T. ) ;
#295 = DIRECTION ( 'NONE',  ( -1.224646799147353207E-16, 1.000000000000000000, 0.0000000000000000000 ) ) ;
#296 = DIRECTION ( 'NONE',  ( -0.0000000000000000000, -0.0000000000000000000, -1.000000000000000000 ) ) ;
#297 = ORIENTED_EDGE ( 'NONE', *, *, #303, .T. ) ;
#298 = COLOUR_RGB ( '',0.7921568627450980005, 0.8196078431372548767, 0.9333333333333333481 ) ;
#299 = DIRECTION ( 'NONE',  ( -0.0000000000000000000, -0.0000000000000000000, -1.000000000000000000 ) ) ;
#300 = ORIENTED_EDGE ( 'NONE', *, *, #328, .F. ) ;
#301 = FILL_AREA_STYLE ('',( #252 ) ) ;
#302 = EDGE_LOOP ( 'NONE', ( #118, #138, #119, #15, #300 ) ) ;
#303 = EDGE_CURVE ( 'NONE', #52, #178, #249, .T. ) ;
#304 = DIRECTION ( 'NONE',  ( -0.0000000000000000000, -0.0000000000000000000, -1.000000000000000000 ) ) ;
#305 = ADVANCED_FACE ( 'NONE', ( #190 ), #112, .T. ) ;
#306 =( LENGTH_UNIT ( ) NAMED_UNIT ( * ) SI_UNIT ( $, .METRE. ) );
#307 = AXIS2_PLACEMENT_3D ( 'NONE', #37, #304, #114 ) ;
#308 = PRODUCT_DEFINITION_FORMATION_WITH_SPECIFIED_SOURCE ( 'ANY', '', #261, .NOT_KNOWN. ) ;
#309 = DIRECTION ( 'NONE',  ( 1.000000000000000000, 0.0000000000000000000, 0.0000000000000000000 ) ) ;
#310 = LINE ( 'NONE', #277, #154 ) ;
#311 = DIRECTION ( 'NONE',  ( 1.000000000000000000, 0.0000000000000000000, 0.0000000000000000000 ) ) ;
#312 = FILL_AREA_STYLE ('',( #339 ) ) ;
#313 = CARTESIAN_POINT ( 'NONE',  ( 0.0000000000000000000, 0.0000000000000000000, 0.1030719981370833843 ) ) ;
#314 = DIRECTION ( 'NONE',  ( 0.0000000000000000000, 1.000000000000000000, 0.0000000000000000000 ) ) ;
#315 = PRODUCT_DEFINITION ( 'UNKNOWN', '', #308, #74 ) ;
#316 = DIRECTION ( 'NONE',  ( 0.0000000000000000000, 0.0000000000000000000, 1.000000000000000000 ) ) ;
#317 = AXIS2_PLACEMENT_3D ( 'NONE', #6, #32, #175 ) ;
#318 = ORIENTED_EDGE ( 'NONE', *, *, #46, .F. ) ;
#319 = ORIENTED_EDGE ( 'NONE', *, *, #281, .T. ) ;
#320 = VERTEX_POINT ( 'NONE', #18 ) ;
#321 = CIRCLE ( 'NONE', #307, 0.03936999999999996058 ) ;
#322 = AXIS2_PLACEMENT_3D ( 'NONE', #176, #207, #58 ) ;
#323 = CIRCLE ( 'NONE', #100, 0.1031099999999991745 ) ;
#324 = EDGE_LOOP ( 'NONE', ( #203, #69, #142, #188 ) ) ;
#325 = VERTEX_POINT ( 'NONE', #133 ) ;
#326 = EDGE_CURVE ( 'NONE', #178, #52, #110, .T. ) ;
#327 = DIRECTION ( 'NONE',  ( 1.000000000000000000, 1.224646799147353207E-16, -0.0000000000000000000 ) ) ;
#328 = EDGE_CURVE ( 'NONE', #325, #292, #65, .T. ) ;
#329 = AXIS2_PLACEMENT_3D ( 'NONE', #313, #340, #228 ) ;
#330 = DIRECTION ( 'NONE',  ( -1.000000000000000000, 0.0000000000000000000, 0.0000000000000000000 ) ) ;
#331 = VERTEX_POINT ( 'NONE', #219 ) ;
#332 = LENGTH_MEASURE_WITH_UNIT ( LENGTH_MEASURE( 0.02539999999999999897 ), #241 );
#333 = DIRECTION ( 'NONE',  ( 1.000000000000000000, 0.0000000000000000000, 0.0000000000000000000 ) ) ;
#334 = CARTESIAN_POINT ( 'NONE',  ( 0.0000000000000000000, 0.0000000000000000000, 2.952755999999999936 ) ) ;
#335 = CARTESIAN_POINT ( 'NONE',  ( 0.0000000000000000000, 0.0000000000000000000, 0.1030719981370833843 ) ) ;
#336 = EDGE_CURVE ( 'NONE', #320, #331, #166, .T. ) ;
#337 = DIRECTION ( 'NONE',  ( 0.09053564237157930850, 0.0000000000000000000, 0.9958932158923291533 ) ) ;
#338 = CARTESIAN_POINT ( 'NONE',  ( 0.0000000000000000000, 0.0000000000000000000, 0.1030719981370833843 ) ) ;
#339 = FILL_AREA_STYLE_COLOUR ( '', #298 ) ;
#340 = DIRECTION ( 'NONE',  ( -0.0000000000000000000, -0.0000000000000000000, -1.000000000000000000 ) ) ;
#341 = DIRECTION ( 'NONE',  ( -1.000000000000000000, 0.0000000000000000000, 0.0000000000000000000 ) ) ;
#342 = CARTESIAN_POINT ( 'NONE',  ( 0.0000000000000000000, 0.0000000000000000000, 1.220471999999999779 ) ) ;
#343 = VECTOR ( 'NONE', #296, 39.37007874015748143 ) ;
#344 = CIRCLE ( 'NONE', #156, 0.03936999999999998140 ) ;
#345 = FACE_OUTER_BOUND ( 'NONE', #287, .T. ) ;
ENDSEC;
END-ISO-10303-21;
