ISO-10303-21;
HEADER;
FILE_DESCRIPTION (( 'STEP AP214' ),
    '1' );
FILE_NAME ('00347.STEP',
    '2023-06-22T14:06:33',
    ( '' ),
    ( '' ),
    'SwSTEP 2.0',
    'SolidWorks 2023',
    '' );
FILE_SCHEMA (( 'AUTOMOTIVE_DESIGN' ));
ENDSEC;

DATA;
#1 =( GEOMETRIC_REPRESENTATION_CONTEXT ( 3 ) GLOBAL_UNCERTAINTY_ASSIGNED_CONTEXT ( ( #51 ) ) GLOBAL_UNIT_ASSIGNED_CONTEXT ( ( #197, #259, #202 ) ) REPRESENTATION_CONTEXT ( 'NONE', 'WORKASPACE' ) );
#2 = ORIENTED_EDGE ( 'NONE', *, *, #138, .T. ) ;
#3 = SURFACE_STYLE_FILL_AREA ( #247 ) ;
#4 = CARTESIAN_POINT ( 'NONE',  ( 0.000000000000000000, 1.000000000000000000, 0.000000000000000000 ) ) ;
#5 = AXIS2_PLACEMENT_3D ( 'NONE', #272, #44, #275 ) ;
#6 = CARTESIAN_POINT ( 'NONE',  ( -1.224646799147353700E-16, 3.000000000000000444, 0.000000000000000000 ) ) ;
#7 = DIRECTION ( 'NONE',  ( 0.000000000000000000, 0.000000000000000000, -1.000000000000000000 ) ) ;
#8 = AXIS2_PLACEMENT_3D ( 'NONE', #253, #58, #248 ) ;
#9 = SURFACE_SIDE_STYLE ('',( #165 ) ) ;
#10 = EDGE_CURVE ( 'NONE', #235, #96, #62, .T. ) ;
#11 = PRODUCT ( '00347', '00347', '', ( #215 ) ) ;
#12 = DIRECTION ( 'NONE',  ( -0.000000000000000000, -1.000000000000000000, -0.000000000000000000 ) ) ;
#13 = EDGE_CURVE ( 'NONE', #83, #91, #69, .T. ) ;
#14 = CIRCLE ( 'NONE', #8, 0.1875000000000000278 ) ;
#15 = AXIS2_PLACEMENT_3D ( 'NONE', #149, #31, #222 ) ;
#16 =( GEOMETRIC_REPRESENTATION_CONTEXT ( 3 ) GLOBAL_UNCERTAINTY_ASSIGNED_CONTEXT ( ( #158 ) ) GLOBAL_UNIT_ASSIGNED_CONTEXT ( ( #115, #238, #113 ) ) REPRESENTATION_CONTEXT ( 'NONE', 'WORKASPACE' ) );
#17 = EDGE_CURVE ( 'NONE', #235, #137, #14, .T. ) ;
#18 = AXIS2_PLACEMENT_3D ( 'NONE', #6, #150, #254 ) ;
#19 = ORIENTED_EDGE ( 'NONE', *, *, #293, .T. ) ;
#20 = CARTESIAN_POINT ( 'NONE',  ( 0.000000000000000000, 0.000000000000000000, -0.1875000000000000278 ) ) ;
#21 = FACE_OUTER_BOUND ( 'NONE', #47, .T. ) ;
#22 = ORIENTED_EDGE ( 'NONE', *, *, #241, .F. ) ;
#23 = CARTESIAN_POINT ( 'NONE',  ( -0.1875000000000002776, 3.000000000000000444, 0.000000000000000000 ) ) ;
#24 = PRESENTATION_STYLE_ASSIGNMENT (( #185 ) ) ;
#25 = ORIENTED_EDGE ( 'NONE', *, *, #138, .F. ) ;
#26 = AXIS2_PLACEMENT_3D ( 'NONE', #46, #172, #119 ) ;
#27 = DIRECTION ( 'NONE',  ( -6.123233995736769734E-17, 1.000000000000000000, -0.000000000000000000 ) ) ;
#28 = DIRECTION ( 'NONE',  ( 0.000000000000000000, 0.000000000000000000, -1.000000000000000000 ) ) ;
#29 = PRESENTATION_STYLE_ASSIGNMENT (( #303 ) ) ;
#30 = FILL_AREA_STYLE_COLOUR ( '', #82 ) ;
#31 = DIRECTION ( 'NONE',  ( -0.000000000000000000, -1.000000000000000000, -0.000000000000000000 ) ) ;
#32 = SURFACE_STYLE_FILL_AREA ( #77 ) ;
#33 = PRESENTATION_LAYER_ASSIGNMENT (  '', '', ( #141 ) ) ;
#34 = CARTESIAN_POINT ( 'NONE',  ( 0.1874999999999999445, 3.000000000000000444, 2.296212748401288342E-17 ) ) ;
#35 = PRESENTATION_STYLE_ASSIGNMENT (( #123 ) ) ;
#36 = LINE ( 'NONE', #124, #74 ) ;
#37 = PRESENTATION_LAYER_ASSIGNMENT (  '', '', ( #219 ) ) ;
#38 = EDGE_CURVE ( 'NONE', #91, #83, #152, .T. ) ;
#39 = CARTESIAN_POINT ( 'NONE',  ( -1.224646799147353700E-16, 3.000000000000000444, 0.000000000000000000 ) ) ;
#40 = UNCERTAINTY_MEASURE_WITH_UNIT (LENGTH_MEASURE( 1.000000000000000082E-05 ), #273, 'distance_accuracy_value', 'NONE');
#41 = ORIENTED_EDGE ( 'NONE', *, *, #121, .T. ) ;
#42 = PRESENTATION_LAYER_ASSIGNMENT (  '', '', ( #251 ) ) ;
#43 = ORIENTED_EDGE ( 'NONE', *, *, #13, .F. ) ;
#44 = DIRECTION ( 'NONE',  ( 0.000000000000000000, 0.000000000000000000, 1.000000000000000000 ) ) ;
#45 = FACE_OUTER_BOUND ( 'NONE', #132, .T. ) ;
#46 = CARTESIAN_POINT ( 'NONE',  ( 0.000000000000000000, 0.000000000000000000, 0.000000000000000000 ) ) ;
#47 = EDGE_LOOP ( 'NONE', ( #187, #237, #297, #139 ) ) ;
#48 =( NAMED_UNIT ( * ) SI_UNIT ( $, .STERADIAN. ) SOLID_ANGLE_UNIT ( ) );
#49 = ORIENTED_EDGE ( 'NONE', *, *, #196, .F. ) ;
#50 = FACE_OUTER_BOUND ( 'NONE', #112, .T. ) ;
#51 = UNCERTAINTY_MEASURE_WITH_UNIT (LENGTH_MEASURE( 1.000000000000000082E-05 ), #197, 'distance_accuracy_value', 'NONE');
#52 = COLOUR_RGB ( '',1.000000000000000000, 0.000000000000000000, 0.000000000000000000 ) ;
#53 = PRODUCT_DEFINITION_FORMATION_WITH_SPECIFIED_SOURCE ( 'ANY', '', #11, .NOT_KNOWN. ) ;
#54 = CARTESIAN_POINT ( 'NONE',  ( 0.1875000000000000278, 3.000000000000000444, 0.000000000000000000 ) ) ;
#55 = DIRECTION ( 'NONE',  ( -1.000000000000000000, 0.000000000000000000, 0.000000000000000000 ) ) ;
#56 = ADVANCED_FACE ( 'NONE', ( #79 ), #122, .T. ) ;
#57 = CARTESIAN_POINT ( 'NONE',  ( 0.000000000000000000, 0.000000000000000000, -0.1875000000000000278 ) ) ;
#58 = DIRECTION ( 'NONE',  ( -6.123233995736769734E-17, 1.000000000000000000, -0.000000000000000000 ) ) ;
#59 = DIRECTION ( 'NONE',  ( -6.123233995736769734E-17, 1.000000000000000000, -0.000000000000000000 ) ) ;
#60 = MECHANICAL_DESIGN_GEOMETRIC_PRESENTATION_REPRESENTATION (  '', ( #265 ), #212 ) ;
#61 = AXIS2_PLACEMENT_3D ( 'NONE', #188, #27, #167 ) ;
#62 = LINE ( 'NONE', #34, #201 ) ;
#63 = CIRCLE ( 'NONE', #160, 0.1875000000000000278 ) ;
#64 = COLOUR_RGB ( '',1.000000000000000000, 0.000000000000000000, 0.000000000000000000 ) ;
#65 = EDGE_CURVE ( 'NONE', #137, #104, #36, .T. ) ;
#66 = MANIFOLD_SOLID_BREP ( 'Revolve - Tool Body (Straight Shanked)', #298 ) ;
#67 = PRESENTATION_STYLE_ASSIGNMENT (( #307 ) ) ;
#68 = DIRECTION ( 'NONE',  ( -0.000000000000000000, -1.000000000000000000, -0.000000000000000000 ) ) ;
#69 = CIRCLE ( 'NONE', #146, 0.1875000000000000278 ) ;
#70 = ORIENTED_EDGE ( 'NONE', *, *, #13, .T. ) ;
#71 = DIRECTION ( 'NONE',  ( -0.000000000000000000, -1.000000000000000000, -0.000000000000000000 ) ) ;
#72 = ORIENTED_EDGE ( 'NONE', *, *, #17, .F. ) ;
#73 =( NAMED_UNIT ( * ) PLANE_ANGLE_UNIT ( ) SI_UNIT ( $, .RADIAN. ) );
#74 = VECTOR ( 'NONE', #75, 39.37007874015748143 ) ;
#75 = DIRECTION ( 'NONE',  ( -6.123233995736769734E-17, 1.000000000000000000, -0.000000000000000000 ) ) ;
#76 = FILL_AREA_STYLE_COLOUR ( '', #199 ) ;
#77 = FILL_AREA_STYLE ('',( #239 ) ) ;
#78 = CARTESIAN_POINT ( 'NONE',  ( 0.000000000000000000, 1.000000000000000000, 0.000000000000000000 ) ) ;
#79 = FACE_OUTER_BOUND ( 'NONE', #242, .T. ) ;
#80 = FILL_AREA_STYLE ('',( #300 ) ) ;
#81 = ADVANCED_FACE ( 'NONE', ( #106 ), #204, .F. ) ;
#82 = COLOUR_RGB ( '',1.000000000000000000, 0.000000000000000000, 0.000000000000000000 ) ;
#83 = VERTEX_POINT ( 'NONE', #105 ) ;
#84 = DIMENSIONAL_EXPONENTS ( 1.000000000000000000, 0.000000000000000000, 0.000000000000000000, 0.000000000000000000, 0.000000000000000000, 0.000000000000000000, 0.000000000000000000 ) ;
#85 = PRODUCT_DEFINITION ( 'UNKNOWN', '', #53, #306 ) ;
#86 = ADVANCED_FACE ( 'NONE', ( #21 ), #264, .T. ) ;
#87 = SHAPE_DEFINITION_REPRESENTATION ( #225, #125 ) ;
#88 = CARTESIAN_POINT ( 'NONE',  ( 2.296212748401287726E-17, 1.000000000000000000, 0.1875000000000000278 ) ) ;
#89 = CARTESIAN_POINT ( 'NONE',  ( -1.224646799147353700E-16, 3.000000000000000444, 0.000000000000000000 ) ) ;
#90 = ORIENTED_EDGE ( 'NONE', *, *, #283, .T. ) ;
#91 = VERTEX_POINT ( 'NONE', #88 ) ;
#92 =( CONVERSION_BASED_UNIT ( 'INCH', #286 ) LENGTH_UNIT ( ) NAMED_UNIT ( #179 ) );
#93 = CARTESIAN_POINT ( 'NONE',  ( 0.000000000000000000, 0.000000000000000000, 0.000000000000000000 ) ) ;
#94 = APPLICATION_CONTEXT ( 'automotive_design' ) ;
#95 =( NAMED_UNIT ( * ) PLANE_ANGLE_UNIT ( ) SI_UNIT ( $, .RADIAN. ) );
#96 = VERTEX_POINT ( 'NONE', #108 ) ;
#97 = LINE ( 'NONE', #20, #279 ) ;
#98 =( LENGTH_UNIT ( ) NAMED_UNIT ( * ) SI_UNIT ( $, .METRE. ) );
#99 = CARTESIAN_POINT ( 'NONE',  ( 2.296212748401287726E-17, 0.000000000000000000, 0.1875000000000000278 ) ) ;
#100 = COLOUR_RGB ( '',0.7921568627450980005, 0.8196078431372548767, 0.9333333333333333481 ) ;
#101 = AXIS2_PLACEMENT_3D ( 'NONE', #176, #131, #234 ) ;
#102 = AXIS2_PLACEMENT_3D ( 'NONE', #54, #217, #163 ) ;
#103 = DIMENSIONAL_EXPONENTS ( 1.000000000000000000, 0.000000000000000000, 0.000000000000000000, 0.000000000000000000, 0.000000000000000000, 0.000000000000000000, 0.000000000000000000 ) ;
#104 = VERTEX_POINT ( 'NONE', #23 ) ;
#105 = CARTESIAN_POINT ( 'NONE',  ( 0.000000000000000000, 1.000000000000000000, -0.1875000000000000278 ) ) ;
#106 = FACE_OUTER_BOUND ( 'NONE', #266, .T. ) ;
#107 = CIRCLE ( 'NONE', #129, 0.1875000000000001388 ) ;
#108 = CARTESIAN_POINT ( 'NONE',  ( 0.1875000000000000278, 3.000000000000000444, 2.296212748401288650E-17 ) ) ;
#109 = ORIENTED_EDGE ( 'NONE', *, *, #10, .F. ) ;
#110 = APPLICATION_PROTOCOL_DEFINITION ( 'draft international standard', 'automotive_design', 1998, #94 ) ;
#111 = PLANE ( 'NONE',  #174 ) ;
#112 = EDGE_LOOP ( 'NONE', ( #70, #19, #49, #178 ) ) ;
#113 =( NAMED_UNIT ( * ) SI_UNIT ( $, .STERADIAN. ) SOLID_ANGLE_UNIT ( ) );
#114 =( LENGTH_UNIT ( ) NAMED_UNIT ( * ) SI_UNIT ( $, .METRE. ) );
#115 =( CONVERSION_BASED_UNIT ( 'INCH', #294 ) LENGTH_UNIT ( ) NAMED_UNIT ( #103 ) );
#116 =( NAMED_UNIT ( * ) SI_UNIT ( $, .STERADIAN. ) SOLID_ANGLE_UNIT ( ) );
#117 =( CONVERSION_BASED_UNIT ( 'INCH', #245 ) LENGTH_UNIT ( ) NAMED_UNIT ( #154 ) );
#118 = PRESENTATION_STYLE_ASSIGNMENT (( #296 ) ) ;
#119 = DIRECTION ( 'NONE',  ( 0.000000000000000000, 0.000000000000000000, -1.000000000000000000 ) ) ;
#120 = PRESENTATION_LAYER_ASSIGNMENT (  '', '', ( #265 ) ) ;
#121 = EDGE_CURVE ( 'NONE', #104, #96, #107, .T. ) ;
#122 = CYLINDRICAL_SURFACE ( 'NONE', #18, 0.1875000000000000833 ) ;
#123 = SURFACE_STYLE_USAGE ( .BOTH. , #9 ) ;
#124 = CARTESIAN_POINT ( 'NONE',  ( -0.1875000000000002220, 3.000000000000000444, 0.000000000000000000 ) ) ;
#125 = ADVANCED_BREP_SHAPE_REPRESENTATION ( '00347', ( #281, #66, #5 ), #16 ) ;
#126 =( NAMED_UNIT ( * ) SI_UNIT ( $, .STERADIAN. ) SOLID_ANGLE_UNIT ( ) );
#127 = UNCERTAINTY_MEASURE_WITH_UNIT (LENGTH_MEASURE( 1.000000000000000082E-05 ), #218, 'distance_accuracy_value', 'NONE');
#128 =( LENGTH_UNIT ( ) NAMED_UNIT ( * ) SI_UNIT ( $, .METRE. ) );
#129 = AXIS2_PLACEMENT_3D ( 'NONE', #39, #256, #184 ) ;
#130 = VECTOR ( 'NONE', #140, 39.37007874015748143 ) ;
#131 = DIRECTION ( 'NONE',  ( -6.123233995736769734E-17, 1.000000000000000000, -0.000000000000000000 ) ) ;
#132 = EDGE_LOOP ( 'NONE', ( #43, #166 ) ) ;
#133 = CARTESIAN_POINT ( 'NONE',  ( 3.515061990613733472E-34, 1.000000000000000000, 0.000000000000000000 ) ) ;
#134 = CYLINDRICAL_SURFACE ( 'NONE', #26, 0.1875000000000000278 ) ;
#135 = EDGE_LOOP ( 'NONE', ( #208, #287, #90, #25 ) ) ;
#136 = UNCERTAINTY_MEASURE_WITH_UNIT (LENGTH_MEASURE( 1.000000000000000082E-05 ), #92, 'distance_accuracy_value', 'NONE');
#137 = VERTEX_POINT ( 'NONE', #285 ) ;
#138 = EDGE_CURVE ( 'NONE', #270, #155, #63, .T. ) ;
#139 = ORIENTED_EDGE ( 'NONE', *, *, #65, .F. ) ;
#140 = DIRECTION ( 'NONE',  ( -0.000000000000000000, -1.000000000000000000, -0.000000000000000000 ) ) ;
#141 = STYLED_ITEM ( 'NONE', ( #67 ), #66 ) ;
#142 =( LENGTH_UNIT ( ) NAMED_UNIT ( * ) SI_UNIT ( $, .METRE. ) );
#143 = ADVANCED_FACE ( 'NONE', ( #45 ), #111, .T. ) ;
#144 = FILL_AREA_STYLE_COLOUR ( '', #64 ) ;
#145 = SURFACE_SIDE_STYLE ('',( #236 ) ) ;
#146 = AXIS2_PLACEMENT_3D ( 'NONE', #78, #280, #7 ) ;
#147 = CIRCLE ( 'NONE', #156, 0.1875000000000000278 ) ;
#148 =( GEOMETRIC_REPRESENTATION_CONTEXT ( 3 ) GLOBAL_UNCERTAINTY_ASSIGNED_CONTEXT ( ( #127 ) ) GLOBAL_UNIT_ASSIGNED_CONTEXT ( ( #218, #214, #193 ) ) REPRESENTATION_CONTEXT ( 'NONE', 'WORKASPACE' ) );
#149 = CARTESIAN_POINT ( 'NONE',  ( 0.000000000000000000, 1.000000000000000000, 0.000000000000000000 ) ) ;
#150 = DIRECTION ( 'NONE',  ( -6.123233995736769734E-17, 1.000000000000000000, -0.000000000000000000 ) ) ;
#151 = SURFACE_SIDE_STYLE ('',( #282 ) ) ;
#152 = CIRCLE ( 'NONE', #15, 0.1875000000000000278 ) ;
#153 = AXIS2_PLACEMENT_3D ( 'NONE', #161, #71, #246 ) ;
#154 = DIMENSIONAL_EXPONENTS ( 1.000000000000000000, 0.000000000000000000, 0.000000000000000000, 0.000000000000000000, 0.000000000000000000, 0.000000000000000000, 0.000000000000000000 ) ;
#155 = VERTEX_POINT ( 'NONE', #57 ) ;
#156 = AXIS2_PLACEMENT_3D ( 'NONE', #93, #12, #271 ) ;
#157 = FILL_AREA_STYLE_COLOUR ( '', #100 ) ;
#158 = UNCERTAINTY_MEASURE_WITH_UNIT (LENGTH_MEASURE( 1.000000000000000082E-05 ), #115, 'distance_accuracy_value', 'NONE');
#159 =( NAMED_UNIT ( * ) PLANE_ANGLE_UNIT ( ) SI_UNIT ( $, .RADIAN. ) );
#160 = AXIS2_PLACEMENT_3D ( 'NONE', #203, #68, #267 ) ;
#161 = CARTESIAN_POINT ( 'NONE',  ( 0.000000000000000000, 0.000000000000000000, 0.000000000000000000 ) ) ;
#162 = ORIENTED_EDGE ( 'NONE', *, *, #299, .F. ) ;
#163 = DIRECTION ( 'NONE',  ( 1.000000000000000000, 6.123233995736769734E-17, 0.000000000000000000 ) ) ;
#164 =( NAMED_UNIT ( * ) PLANE_ANGLE_UNIT ( ) SI_UNIT ( $, .RADIAN. ) );
#165 = SURFACE_STYLE_FILL_AREA ( #292 ) ;
#166 = ORIENTED_EDGE ( 'NONE', *, *, #38, .F. ) ;
#167 = DIRECTION ( 'NONE',  ( -1.000000000000000000, 0.000000000000000000, 0.000000000000000000 ) ) ;
#168 =( NAMED_UNIT ( * ) SI_UNIT ( $, .STERADIAN. ) SOLID_ANGLE_UNIT ( ) );
#169 =( LENGTH_UNIT ( ) NAMED_UNIT ( * ) SI_UNIT ( $, .METRE. ) );
#170 = COLOUR_RGB ( '',1.000000000000000000, 0.000000000000000000, 0.000000000000000000 ) ;
#171 = FACE_OUTER_BOUND ( 'NONE', #191, .T. ) ;
#172 = DIRECTION ( 'NONE',  ( -0.000000000000000000, -1.000000000000000000, -0.000000000000000000 ) ) ;
#173 = CIRCLE ( 'NONE', #61, 0.1875000000000000278 ) ;
#174 = AXIS2_PLACEMENT_3D ( 'NONE', #4, #210, #252 ) ;
#175 = EDGE_LOOP ( 'NONE', ( #41, #308 ) ) ;
#176 = CARTESIAN_POINT ( 'NONE',  ( -1.224646799147353700E-16, 3.000000000000000444, 0.000000000000000000 ) ) ;
#177 = MECHANICAL_DESIGN_GEOMETRIC_PRESENTATION_REPRESENTATION (  '', ( #251 ), #226 ) ;
#178 = ORIENTED_EDGE ( 'NONE', *, *, #283, .F. ) ;
#179 = DIMENSIONAL_EXPONENTS ( 1.000000000000000000, 0.000000000000000000, 0.000000000000000000, 0.000000000000000000, 0.000000000000000000, 0.000000000000000000, 0.000000000000000000 ) ;
#180 =( CONVERSION_BASED_UNIT ( 'INCH', #229 ) LENGTH_UNIT ( ) NAMED_UNIT ( #230 ) );
#181 = UNCERTAINTY_MEASURE_WITH_UNIT (LENGTH_MEASURE( 1.000000000000000082E-05 ), #180, 'distance_accuracy_value', 'NONE');
#182 = SURFACE_SIDE_STYLE ('',( #207 ) ) ;
#183 = CARTESIAN_POINT ( 'NONE',  ( 2.296212748401287726E-17, 0.000000000000000000, 0.1875000000000000278 ) ) ;
#184 = DIRECTION ( 'NONE',  ( -1.000000000000000000, 0.000000000000000000, 0.000000000000000000 ) ) ;
#185 = SURFACE_STYLE_USAGE ( .BOTH. , #145 ) ;
#186 =( GEOMETRIC_REPRESENTATION_CONTEXT ( 3 ) GLOBAL_UNCERTAINTY_ASSIGNED_CONTEXT ( ( #40 ) ) GLOBAL_UNIT_ASSIGNED_CONTEXT ( ( #273, #164, #48 ) ) REPRESENTATION_CONTEXT ( 'NONE', 'WORKASPACE' ) );
#187 = ORIENTED_EDGE ( 'NONE', *, *, #299, .T. ) ;
#188 = CARTESIAN_POINT ( 'NONE',  ( 3.032960542342103792E-32, 1.000000000000000000, 0.000000000000000000 ) ) ;
#189 = ADVANCED_FACE ( 'NONE', ( #171 ), #291, .T. ) ;
#190 = LENGTH_MEASURE_WITH_UNIT ( LENGTH_MEASURE( 0.02539999999999999897 ), #114 );
#191 = EDGE_LOOP ( 'NONE', ( #268, #2 ) ) ;
#192 =( LENGTH_UNIT ( ) NAMED_UNIT ( * ) SI_UNIT ( $, .METRE. ) );
#193 =( NAMED_UNIT ( * ) SI_UNIT ( $, .STERADIAN. ) SOLID_ANGLE_UNIT ( ) );
#194 = APPLICATION_CONTEXT ( 'automotive_design' ) ;
#195 = LINE ( 'NONE', #183, #130 ) ;
#196 = EDGE_CURVE ( 'NONE', #155, #270, #147, .T. ) ;
#197 =( CONVERSION_BASED_UNIT ( 'INCH', #223 ) LENGTH_UNIT ( ) NAMED_UNIT ( #258 ) );
#198 = AXIS2_PLACEMENT_3D ( 'NONE', #89, #269, #55 ) ;
#199 = COLOUR_RGB ( '',0.7921568627450980005, 0.8196078431372548767, 0.9333333333333333481 ) ;
#200 = PRODUCT_RELATED_PRODUCT_CATEGORY ( 'part', '', ( #11 ) ) ;
#201 = VECTOR ( 'NONE', #59, 39.37007874015748143 ) ;
#202 =( NAMED_UNIT ( * ) SI_UNIT ( $, .STERADIAN. ) SOLID_ANGLE_UNIT ( ) );
#203 = CARTESIAN_POINT ( 'NONE',  ( 0.000000000000000000, 0.000000000000000000, 0.000000000000000000 ) ) ;
#204 = PLANE ( 'NONE',  #232 ) ;
#205 = AXIS2_PLACEMENT_3D ( 'NONE', #216, #249, #28 ) ;
#206 = APPLICATION_PROTOCOL_DEFINITION ( 'draft international standard', 'automotive_design', 1998, #194 ) ;
#207 = SURFACE_STYLE_FILL_AREA ( #262 ) ;
#208 = ORIENTED_EDGE ( 'NONE', *, *, #293, .F. ) ;
#209 = PLANE ( 'NONE',  #102 ) ;
#210 = DIRECTION ( 'NONE',  ( 0.000000000000000000, 1.000000000000000000, 0.000000000000000000 ) ) ;
#211 = SURFACE_SIDE_STYLE ('',( #3 ) ) ;
#212 =( GEOMETRIC_REPRESENTATION_CONTEXT ( 3 ) GLOBAL_UNCERTAINTY_ASSIGNED_CONTEXT ( ( #136 ) ) GLOBAL_UNIT_ASSIGNED_CONTEXT ( ( #92, #95, #116 ) ) REPRESENTATION_CONTEXT ( 'NONE', 'WORKASPACE' ) );
#213 = ORIENTED_EDGE ( 'NONE', *, *, #65, .T. ) ;
#214 =( NAMED_UNIT ( * ) PLANE_ANGLE_UNIT ( ) SI_UNIT ( $, .RADIAN. ) );
#215 = PRODUCT_CONTEXT ( 'NONE', #94, 'mechanical' ) ;
#216 = CARTESIAN_POINT ( 'NONE',  ( 0.000000000000000000, 0.000000000000000000, 0.000000000000000000 ) ) ;
#217 = DIRECTION ( 'NONE',  ( 6.123233995736769734E-17, -1.000000000000000000, 0.000000000000000000 ) ) ;
#218 =( CONVERSION_BASED_UNIT ( 'INCH', #276 ) LENGTH_UNIT ( ) NAMED_UNIT ( #84 ) );
#219 = STYLED_ITEM ( 'NONE', ( #277 ), #189 ) ;
#220 = SURFACE_STYLE_USAGE ( .BOTH. , #295 ) ;
#221 = CARTESIAN_POINT ( 'NONE',  ( 0.1875000000000000278, 1.000000000000000000, 2.296212748401288650E-17 ) ) ;
#222 = DIRECTION ( 'NONE',  ( 0.000000000000000000, 0.000000000000000000, -1.000000000000000000 ) ) ;
#223 = LENGTH_MEASURE_WITH_UNIT ( LENGTH_MEASURE( 0.02539999999999999897 ), #257 );
#224 = CLOSED_SHELL ( 'NONE', ( #263, #143, #228, #189 ) ) ;
#225 = PRODUCT_DEFINITION_SHAPE ( 'NONE', 'NONE',  #85 ) ;
#226 =( GEOMETRIC_REPRESENTATION_CONTEXT ( 3 ) GLOBAL_UNCERTAINTY_ASSIGNED_CONTEXT ( ( #309 ) ) GLOBAL_UNIT_ASSIGNED_CONTEXT ( ( #117, #73, #168 ) ) REPRESENTATION_CONTEXT ( 'NONE', 'WORKASPACE' ) );
#227 = DIRECTION ( 'NONE',  ( -1.000000000000000000, -6.123233995736769734E-17, 0.000000000000000000 ) ) ;
#228 = ADVANCED_FACE ( 'NONE', ( #274 ), #134, .T. ) ;
#229 = LENGTH_MEASURE_WITH_UNIT ( LENGTH_MEASURE( 0.02539999999999999897 ), #128 );
#230 = DIMENSIONAL_EXPONENTS ( 1.000000000000000000, 0.000000000000000000, 0.000000000000000000, 0.000000000000000000, 0.000000000000000000, 0.000000000000000000, 0.000000000000000000 ) ;
#231 = DIRECTION ( 'NONE',  ( -6.123233995736769734E-17, 1.000000000000000000, 0.000000000000000000 ) ) ;
#232 = AXIS2_PLACEMENT_3D ( 'NONE', #133, #231, #227 ) ;
#233 = PRESENTATION_LAYER_ASSIGNMENT (  '', '', ( #240 ) ) ;
#234 = DIRECTION ( 'NONE',  ( -1.000000000000000000, 0.000000000000000000, 0.000000000000000000 ) ) ;
#235 = VERTEX_POINT ( 'NONE', #221 ) ;
#236 = SURFACE_STYLE_FILL_AREA ( #250 ) ;
#237 = ORIENTED_EDGE ( 'NONE', *, *, #10, .T. ) ;
#238 =( NAMED_UNIT ( * ) PLANE_ANGLE_UNIT ( ) SI_UNIT ( $, .RADIAN. ) );
#239 = FILL_AREA_STYLE_COLOUR ( '', #52 ) ;
#240 = STYLED_ITEM ( 'NONE', ( #118 ), #263 ) ;
#241 = EDGE_CURVE ( 'NONE', #96, #104, #260, .T. ) ;
#242 = EDGE_LOOP ( 'NONE', ( #109, #289, #213, #22 ) ) ;
#243 = STYLED_ITEM ( 'NONE', ( #35 ), #281 ) ;
#244 = DIRECTION ( 'NONE',  ( -0.000000000000000000, -1.000000000000000000, -0.000000000000000000 ) ) ;
#245 = LENGTH_MEASURE_WITH_UNIT ( LENGTH_MEASURE( 0.02539999999999999897 ), #98 );
#246 = DIRECTION ( 'NONE',  ( 0.000000000000000000, 0.000000000000000000, -1.000000000000000000 ) ) ;
#247 = FILL_AREA_STYLE ('',( #144 ) ) ;
#248 = DIRECTION ( 'NONE',  ( -1.000000000000000000, 0.000000000000000000, 0.000000000000000000 ) ) ;
#249 = DIRECTION ( 'NONE',  ( 0.000000000000000000, -1.000000000000000000, -0.000000000000000000 ) ) ;
#250 = FILL_AREA_STYLE ('',( #30 ) ) ;
#251 = STYLED_ITEM ( 'NONE', ( #29 ), #143 ) ;
#252 = DIRECTION ( 'NONE',  ( 0.000000000000000000, -0.000000000000000000, 1.000000000000000000 ) ) ;
#253 = CARTESIAN_POINT ( 'NONE',  ( 3.032960542342103792E-32, 1.000000000000000000, 0.000000000000000000 ) ) ;
#254 = DIRECTION ( 'NONE',  ( -1.000000000000000000, 0.000000000000000000, 0.000000000000000000 ) ) ;
#255 = MECHANICAL_DESIGN_GEOMETRIC_PRESENTATION_REPRESENTATION (  '', ( #240 ), #148 ) ;
#256 = DIRECTION ( 'NONE',  ( -6.123233995736769734E-17, 1.000000000000000000, -0.000000000000000000 ) ) ;
#257 =( LENGTH_UNIT ( ) NAMED_UNIT ( * ) SI_UNIT ( $, .METRE. ) );
#258 = DIMENSIONAL_EXPONENTS ( 1.000000000000000000, 0.000000000000000000, 0.000000000000000000, 0.000000000000000000, 0.000000000000000000, 0.000000000000000000, 0.000000000000000000 ) ;
#259 =( NAMED_UNIT ( * ) PLANE_ANGLE_UNIT ( ) SI_UNIT ( $, .RADIAN. ) );
#260 = CIRCLE ( 'NONE', #198, 0.1875000000000001388 ) ;
#261 = DIMENSIONAL_EXPONENTS ( 1.000000000000000000, 0.000000000000000000, 0.000000000000000000, 0.000000000000000000, 0.000000000000000000, 0.000000000000000000, 0.000000000000000000 ) ;
#262 = FILL_AREA_STYLE ('',( #157 ) ) ;
#263 = ADVANCED_FACE ( 'NONE', ( #50 ), #288, .T. ) ;
#264 = CYLINDRICAL_SURFACE ( 'NONE', #101, 0.1875000000000000833 ) ;
#265 = STYLED_ITEM ( 'NONE', ( #24 ), #228 ) ;
#266 = EDGE_LOOP ( 'NONE', ( #162, #72 ) ) ;
#267 = DIRECTION ( 'NONE',  ( 0.000000000000000000, 0.000000000000000000, -1.000000000000000000 ) ) ;
#268 = ORIENTED_EDGE ( 'NONE', *, *, #196, .T. ) ;
#269 = DIRECTION ( 'NONE',  ( -6.123233995736769734E-17, 1.000000000000000000, -0.000000000000000000 ) ) ;
#270 = VERTEX_POINT ( 'NONE', #99 ) ;
#271 = DIRECTION ( 'NONE',  ( 0.000000000000000000, 0.000000000000000000, -1.000000000000000000 ) ) ;
#272 = CARTESIAN_POINT ( 'NONE',  ( 0.000000000000000000, 0.000000000000000000, 0.000000000000000000 ) ) ;
#273 =( CONVERSION_BASED_UNIT ( 'INCH', #190 ) LENGTH_UNIT ( ) NAMED_UNIT ( #261 ) );
#274 = FACE_OUTER_BOUND ( 'NONE', #135, .T. ) ;
#275 = DIRECTION ( 'NONE',  ( 1.000000000000000000, 0.000000000000000000, 0.000000000000000000 ) ) ;
#276 = LENGTH_MEASURE_WITH_UNIT ( LENGTH_MEASURE( 0.02539999999999999897 ), #142 );
#277 = PRESENTATION_STYLE_ASSIGNMENT (( #220 ) ) ;
#278 = MECHANICAL_DESIGN_GEOMETRIC_PRESENTATION_REPRESENTATION (  '', ( #219 ), #186 ) ;
#279 = VECTOR ( 'NONE', #244, 39.37007874015748143 ) ;
#280 = DIRECTION ( 'NONE',  ( -0.000000000000000000, -1.000000000000000000, -0.000000000000000000 ) ) ;
#281 = MANIFOLD_SOLID_BREP ( 'Revolve - Cutting Edge', #224 ) ;
#282 = SURFACE_STYLE_FILL_AREA ( #80 ) ;
#283 = EDGE_CURVE ( 'NONE', #83, #155, #97, .T. ) ;
#284 = MECHANICAL_DESIGN_GEOMETRIC_PRESENTATION_REPRESENTATION (  '', ( #141 ), #301 ) ;
#285 = CARTESIAN_POINT ( 'NONE',  ( -0.1875000000000000278, 1.000000000000000000, 0.000000000000000000 ) ) ;
#286 = LENGTH_MEASURE_WITH_UNIT ( LENGTH_MEASURE( 0.02539999999999999897 ), #169 );
#287 = ORIENTED_EDGE ( 'NONE', *, *, #38, .T. ) ;
#288 = CYLINDRICAL_SURFACE ( 'NONE', #153, 0.1875000000000000278 ) ;
#289 = ORIENTED_EDGE ( 'NONE', *, *, #17, .T. ) ;
#290 = FACE_OUTER_BOUND ( 'NONE', #175, .T. ) ;
#291 = PLANE ( 'NONE',  #205 ) ;
#292 = FILL_AREA_STYLE ('',( #76 ) ) ;
#293 = EDGE_CURVE ( 'NONE', #91, #270, #195, .T. ) ;
#294 = LENGTH_MEASURE_WITH_UNIT ( LENGTH_MEASURE( 0.02539999999999999897 ), #192 );
#295 = SURFACE_SIDE_STYLE ('',( #32 ) ) ;
#296 = SURFACE_STYLE_USAGE ( .BOTH. , #211 ) ;
#297 = ORIENTED_EDGE ( 'NONE', *, *, #121, .F. ) ;
#298 = CLOSED_SHELL ( 'NONE', ( #86, #81, #56, #304 ) ) ;
#299 = EDGE_CURVE ( 'NONE', #137, #235, #173, .T. ) ;
#300 = FILL_AREA_STYLE_COLOUR ( '', #170 ) ;
#301 =( GEOMETRIC_REPRESENTATION_CONTEXT ( 3 ) GLOBAL_UNCERTAINTY_ASSIGNED_CONTEXT ( ( #181 ) ) GLOBAL_UNIT_ASSIGNED_CONTEXT ( ( #180, #159, #126 ) ) REPRESENTATION_CONTEXT ( 'NONE', 'WORKASPACE' ) );
#302 = PRESENTATION_LAYER_ASSIGNMENT (  '', '', ( #243 ) ) ;
#303 = SURFACE_STYLE_USAGE ( .BOTH. , #151 ) ;
#304 = ADVANCED_FACE ( 'NONE', ( #290 ), #209, .F. ) ;
#305 = MECHANICAL_DESIGN_GEOMETRIC_PRESENTATION_REPRESENTATION (  '', ( #243 ), #1 ) ;
#306 = PRODUCT_DEFINITION_CONTEXT ( 'detailed design', #194, 'design' ) ;
#307 = SURFACE_STYLE_USAGE ( .BOTH. , #182 ) ;
#308 = ORIENTED_EDGE ( 'NONE', *, *, #241, .T. ) ;
#309 = UNCERTAINTY_MEASURE_WITH_UNIT (LENGTH_MEASURE( 1.000000000000000082E-05 ), #117, 'distance_accuracy_value', 'NONE');
ENDSEC;
END-ISO-10303-21;
