ISO-10303-21;
HEADER;
FILE_DESCRIPTION (( 'STEP AP214' ),
    '1' );
FILE_NAME ('Micro_RSC-125-23.STEP',
    '2021-09-03T17:44:36',
    ( '' ),
    ( '' ),
    'SwSTEP 2.0',
    'SolidWorks 2020',
    '' );
FILE_SCHEMA (( 'AUTOMOTIVE_DESIGN' ));
ENDSEC;

DATA;
#1 = CIRCLE ( 'NONE', #23, 0.003999999999999999216 ) ;
#2 = CARTESIAN_POINT ( 'NONE',  ( 0.0000000000000000000, 0.0000000000000000000, 0.0000000000000000000 ) ) ;
#3 = VERTEX_POINT ( 'NONE', #232 ) ;
#4 = VECTOR ( 'NONE', #125, 39.37007874015748143 ) ;
#5 = ADVANCED_FACE ( 'NONE', ( #14 ), #106, .T. ) ;
#6 = FACE_OUTER_BOUND ( 'NONE', #49, .T. ) ;
#7 = DIRECTION ( 'NONE',  ( 1.000000000000000000, 0.0000000000000000000, -0.0000000000000000000 ) ) ;
#8 = AXIS2_PLACEMENT_3D ( 'NONE', #129, #36, #161 ) ;
#9 = CYLINDRICAL_SURFACE ( 'NONE', #152, 0.06249999999999997918 ) ;
#10 = ORIENTED_EDGE ( 'NONE', *, *, #116, .T. ) ;
#11 = DIRECTION ( 'NONE',  ( 0.0000000000000000000, 0.0000000000000000000, 1.000000000000000000 ) ) ;
#12 = DIRECTION ( 'NONE',  ( 0.0000000000000000000, 0.0000000000000000000, -1.000000000000000000 ) ) ;
#13 = CARTESIAN_POINT ( 'NONE',  ( 0.06249999999999997918, 7.654042494670954463E-18, 3.000000000000000444 ) ) ;
#14 = FACE_OUTER_BOUND ( 'NONE', #62, .T. ) ;
#15 = CARTESIAN_POINT ( 'NONE',  ( 0.0000000000000000000, 0.0000000000000000000, 0.0000000000000000000 ) ) ;
#16 =( GEOMETRIC_REPRESENTATION_CONTEXT ( 3 ) GLOBAL_UNCERTAINTY_ASSIGNED_CONTEXT ( ( #213 ) ) GLOBAL_UNIT_ASSIGNED_CONTEXT ( ( #156, #151, #117 ) ) REPRESENTATION_CONTEXT ( 'NONE', 'WORKASPACE' ) );
#17 = DIRECTION ( 'NONE',  ( 0.0000000000000000000, 0.0000000000000000000, -1.000000000000000000 ) ) ;
#18 = FILL_AREA_STYLE ('',( #148 ) ) ;
#19 = ORIENTED_EDGE ( 'NONE', *, *, #217, .F. ) ;
#21 = ORIENTED_EDGE ( 'NONE', *, *, #72, .F. ) ;
#20 = CONICAL_SURFACE ( 'NONE', #8, 0.003999999999999999216, 0.5235987755983000369 ) ;
#22 = APPLICATION_PROTOCOL_DEFINITION ( 'draft international standard', 'automotive_design', 1998, #79 ) ;
#23 = AXIS2_PLACEMENT_3D ( 'NONE', #78, #139, #28 ) ;
#24 = APPLICATION_PROTOCOL_DEFINITION ( 'draft international standard', 'automotive_design', 1998, #52 ) ;
#25 = DIRECTION ( 'NONE',  ( 0.0000000000000000000, 0.0000000000000000000, -1.000000000000000000 ) ) ;
#26 = AXIS2_PLACEMENT_3D ( 'NONE', #168, #202, #75 ) ;
#27 = CARTESIAN_POINT ( 'NONE',  ( 0.0000000000000000000, 0.0000000000000000000, 3.000000000000000444 ) ) ;
#28 = DIRECTION ( 'NONE',  ( -1.000000000000000000, 0.0000000000000000000, 0.0000000000000000000 ) ) ;
#29 = CONICAL_SURFACE ( 'NONE', #93, 0.003999999999999999216, 0.5235987755983000369 ) ;
#30 = ORIENTED_EDGE ( 'NONE', *, *, #237, .F. ) ;
#31 = DIRECTION ( 'NONE',  ( 0.5000000000000009992, 0.0000000000000000000, 0.8660254037844380415 ) ) ;
#32 = DIRECTION ( 'NONE',  ( -1.000000000000000000, 0.0000000000000000000, 0.0000000000000000000 ) ) ;
#33 = EDGE_CURVE ( 'NONE', #3, #221, #242, .T. ) ;
#34 =( CONVERSION_BASED_UNIT ( 'INCH', #55 ) LENGTH_UNIT ( ) NAMED_UNIT ( #201 ) );
#35 = CARTESIAN_POINT ( 'NONE',  ( 0.0000000000000000000, 0.0000000000000000000, 3.000000000000000444 ) ) ;
#36 = DIRECTION ( 'NONE',  ( 0.0000000000000000000, 0.0000000000000000000, -1.000000000000000000 ) ) ;
#37 = EDGE_LOOP ( 'NONE', ( #47, #101, #175, #208 ) ) ;
#38 = ORIENTED_EDGE ( 'NONE', *, *, #179, .T. ) ;
#39 = SURFACE_STYLE_USAGE ( .BOTH. , #187 ) ;
#40 = SURFACE_SIDE_STYLE ('',( #157 ) ) ;
#41 = VECTOR ( 'NONE', #31, 39.37007874015748143 ) ;
#42 = ADVANCED_FACE ( 'NONE', ( #171 ), #20, .T. ) ;
#43 = COLOUR_RGB ( '',0.7921568627450980005, 0.8196078431372548767, 0.9333333333333333481 ) ;
#44 = ORIENTED_EDGE ( 'NONE', *, *, #146, .T. ) ;
#45 = PLANE ( 'NONE',  #60 ) ;
#46 = EDGE_CURVE ( 'NONE', #3, #115, #239, .T. ) ;
#47 = ORIENTED_EDGE ( 'NONE', *, *, #190, .F. ) ;
#48 = DIRECTION ( 'NONE',  ( -0.0000000000000000000, -0.0000000000000000000, -1.000000000000000000 ) ) ;
#49 = EDGE_LOOP ( 'NONE', ( #244, #150 ) ) ;
#50 = VECTOR ( 'NONE', #165, 39.37007874015748143 ) ;
#51 = AXIS2_PLACEMENT_3D ( 'NONE', #235, #132, #189 ) ;
#52 = APPLICATION_CONTEXT ( 'automotive_design' ) ;
#53 = CIRCLE ( 'NONE', #166, 0.06249999999999997918 ) ;
#54 =( NAMED_UNIT ( * ) SI_UNIT ( $, .STERADIAN. ) SOLID_ANGLE_UNIT ( ) );
#55 = LENGTH_MEASURE_WITH_UNIT ( LENGTH_MEASURE( 0.02539999999999999897 ), #207 );
#56 = EDGE_CURVE ( 'NONE', #206, #103, #1, .T. ) ;
#57 = CARTESIAN_POINT ( 'NONE',  ( 0.003999999999999999216, 0.0000000000000000000, 3.000000000000000444 ) ) ;
#58 = PRODUCT_DEFINITION_CONTEXT ( 'detailed design', #52, 'design' ) ;
#59 = DIRECTION ( 'NONE',  ( 0.0000000000000000000, 0.0000000000000000000, -1.000000000000000000 ) ) ;
#60 = AXIS2_PLACEMENT_3D ( 'NONE', #27, #11, #7 ) ;
#61 = PRODUCT_DEFINITION_FORMATION_WITH_SPECIFIED_SOURCE ( 'ANY', '', #180, .NOT_KNOWN. ) ;
#62 = EDGE_LOOP ( 'NONE', ( #130, #216, #178, #19 ) ) ;
#63 = ORIENTED_EDGE ( 'NONE', *, *, #179, .F. ) ;
#64 = PRESENTATION_STYLE_ASSIGNMENT (( #39 ) ) ;
#65 = ORIENTED_EDGE ( 'NONE', *, *, #85, .F. ) ;
#66 = LENGTH_MEASURE_WITH_UNIT ( LENGTH_MEASURE( 0.02539999999999999897 ), #231 );
#67 = VECTOR ( 'NONE', #82, 39.37007874015748143 ) ;
#68 = CARTESIAN_POINT ( 'NONE',  ( -0.003999999999999999216, -4.898587196589411612E-19, 3.000000000000000444 ) ) ;
#69 = SHAPE_DEFINITION_REPRESENTATION ( #229, #91 ) ;
#70 = CARTESIAN_POINT ( 'NONE',  ( -0.06249999999999997918, 0.0000000000000000000, 0.1013249722427790322 ) ) ;
#71 = CIRCLE ( 'NONE', #114, 0.003999999999999999216 ) ;
#72 = EDGE_CURVE ( 'NONE', #87, #115, #181, .T. ) ;
#73 = DIRECTION ( 'NONE',  ( -1.000000000000000000, 0.0000000000000000000, 0.0000000000000000000 ) ) ;
#74 = UNCERTAINTY_MEASURE_WITH_UNIT (LENGTH_MEASURE( 1.000000000000000082E-05 ), #209, 'distance_accuracy_value', 'NONE');
#75 = DIRECTION ( 'NONE',  ( 1.000000000000000000, 0.0000000000000000000, 0.0000000000000000000 ) ) ;
#76 =( NAMED_UNIT ( * ) PLANE_ANGLE_UNIT ( ) SI_UNIT ( $, .RADIAN. ) );
#77 = AXIS2_PLACEMENT_3D ( 'NONE', #140, #17, #110 ) ;
#78 = CARTESIAN_POINT ( 'NONE',  ( 0.0000000000000000000, 0.0000000000000000000, 0.0000000000000000000 ) ) ;
#79 = APPLICATION_CONTEXT ( 'automotive_design' ) ;
#80 = FACE_OUTER_BOUND ( 'NONE', #133, .T. ) ;
#81 = ADVANCED_FACE ( 'NONE', ( #243 ), #9, .T. ) ;
#82 = DIRECTION ( 'NONE',  ( 0.5000000000000009992, 0.0000000000000000000, -0.8660254037844380415 ) ) ;
#83 = DIRECTION ( 'NONE',  ( 1.000000000000000000, 0.0000000000000000000, -0.0000000000000000000 ) ) ;
#84 = AXIS2_PLACEMENT_3D ( 'NONE', #158, #48, #159 ) ;
#85 = EDGE_CURVE ( 'NONE', #221, #3, #226, .T. ) ;
#86 = FILL_AREA_STYLE ('',( #90 ) ) ;
#87 = VERTEX_POINT ( 'NONE', #70 ) ;
#88 = ORIENTED_EDGE ( 'NONE', *, *, #183, .T. ) ;
#89 = SURFACE_STYLE_USAGE ( .BOTH. , #40 ) ;
#90 = FILL_AREA_STYLE_COLOUR ( '', #43 ) ;
#91 = ADVANCED_BREP_SHAPE_REPRESENTATION ( 'Micro_RSC-125-23', ( #238, #51 ), #120 ) ;
#92 = ADVANCED_FACE ( 'NONE', ( #135 ), #215, .T. ) ;
#93 = AXIS2_PLACEMENT_3D ( 'NONE', #2, #111, #126 ) ;
#94 = ORIENTED_EDGE ( 'NONE', *, *, #237, .T. ) ;
#95 = DIRECTION ( 'NONE',  ( -1.000000000000000000, 0.0000000000000000000, 0.0000000000000000000 ) ) ;
#96 = CLOSED_SHELL ( 'NONE', ( #42, #5, #92, #81, #121, #142, #234, #108 ) ) ;
#97 = DIRECTION ( 'NONE',  ( -1.000000000000000000, 0.0000000000000000000, 0.0000000000000000000 ) ) ;
#98 = CARTESIAN_POINT ( 'NONE',  ( 0.0000000000000000000, 0.0000000000000000000, 3.000000000000000444 ) ) ;
#99 = DIRECTION ( 'NONE',  ( -1.000000000000000000, 0.0000000000000000000, 0.0000000000000000000 ) ) ;
#100 = SURFACE_STYLE_FILL_AREA ( #18 ) ;
#101 = ORIENTED_EDGE ( 'NONE', *, *, #56, .F. ) ;
#102 = LENGTH_MEASURE_WITH_UNIT ( LENGTH_MEASURE( 0.02539999999999999897 ), #222 );
#103 = VERTEX_POINT ( 'NONE', #136 ) ;
#104 = VERTEX_POINT ( 'NONE', #195 ) ;
#105 = CARTESIAN_POINT ( 'NONE',  ( 0.0000000000000000000, 0.0000000000000000000, 2.898675027757221301 ) ) ;
#106 = CONICAL_SURFACE ( 'NONE', #26, 0.003999999999999999216, 0.5235987755983000369 ) ;
#107 = PRODUCT_RELATED_PRODUCT_CATEGORY ( 'part', '', ( #180 ) ) ;
#108 = ADVANCED_FACE ( 'NONE', ( #6 ), #45, .T. ) ;
#109 = CARTESIAN_POINT ( 'NONE',  ( -0.06249999999999997918, 0.0000000000000000000, 3.000000000000000444 ) ) ;
#110 = DIRECTION ( 'NONE',  ( -1.000000000000000000, 0.0000000000000000000, 0.0000000000000000000 ) ) ;
#111 = DIRECTION ( 'NONE',  ( 0.0000000000000000000, 0.0000000000000000000, 1.000000000000000000 ) ) ;
#112 = LINE ( 'NONE', #198, #41 ) ;
#113 = EDGE_LOOP ( 'NONE', ( #88, #10, #144, #63 ) ) ;
#114 = AXIS2_PLACEMENT_3D ( 'NONE', #225, #59, #95 ) ;
#115 = VERTEX_POINT ( 'NONE', #182 ) ;
#116 = EDGE_CURVE ( 'NONE', #104, #221, #212, .T. ) ;
#117 =( NAMED_UNIT ( * ) SI_UNIT ( $, .STERADIAN. ) SOLID_ANGLE_UNIT ( ) );
#118 = FACE_OUTER_BOUND ( 'NONE', #37, .T. ) ;
#119 =( GEOMETRIC_REPRESENTATION_CONTEXT ( 3 ) GLOBAL_UNCERTAINTY_ASSIGNED_CONTEXT ( ( #134 ) ) GLOBAL_UNIT_ASSIGNED_CONTEXT ( ( #34, #76, #54 ) ) REPRESENTATION_CONTEXT ( 'NONE', 'WORKASPACE' ) );
#120 =( GEOMETRIC_REPRESENTATION_CONTEXT ( 3 ) GLOBAL_UNCERTAINTY_ASSIGNED_CONTEXT ( ( #74 ) ) GLOBAL_UNIT_ASSIGNED_CONTEXT ( ( #209, #174, #214 ) ) REPRESENTATION_CONTEXT ( 'NONE', 'WORKASPACE' ) );
#121 = ADVANCED_FACE ( 'NONE', ( #118 ), #29, .T. ) ;
#122 = MECHANICAL_DESIGN_GEOMETRIC_PRESENTATION_REPRESENTATION (  '', ( #233 ), #119 ) ;
#123 = EDGE_CURVE ( 'NONE', #115, #87, #53, .T. ) ;
#124 = CIRCLE ( 'NONE', #220, 0.003999999999999999216 ) ;
#125 = DIRECTION ( 'NONE',  ( -0.5000000000000009992, 6.123233995736778362E-17, 0.8660254037844380415 ) ) ;
#126 = DIRECTION ( 'NONE',  ( 1.000000000000000000, 0.0000000000000000000, 0.0000000000000000000 ) ) ;
#127 = ORIENTED_EDGE ( 'NONE', *, *, #33, .T. ) ;
#128 = DIRECTION ( 'NONE',  ( -1.000000000000000000, 0.0000000000000000000, 0.0000000000000000000 ) ) ;
#129 = CARTESIAN_POINT ( 'NONE',  ( 0.0000000000000000000, 0.0000000000000000000, 3.000000000000000444 ) ) ;
#130 = ORIENTED_EDGE ( 'NONE', *, *, #146, .F. ) ;
#131 = EDGE_CURVE ( 'NONE', #104, #249, #124, .T. ) ;
#132 = DIRECTION ( 'NONE',  ( 0.0000000000000000000, 0.0000000000000000000, 1.000000000000000000 ) ) ;
#133 = EDGE_LOOP ( 'NONE', ( #188, #44 ) ) ;
#134 = UNCERTAINTY_MEASURE_WITH_UNIT (LENGTH_MEASURE( 1.000000000000000082E-05 ), #34, 'distance_accuracy_value', 'NONE');
#135 = FACE_OUTER_BOUND ( 'NONE', #143, .T. ) ;
#136 = CARTESIAN_POINT ( 'NONE',  ( -0.003999999999999999216, 4.071950607164948101E-18, 0.0000000000000000000 ) ) ;
#137 = ORIENTED_EDGE ( 'NONE', *, *, #131, .T. ) ;
#138 = DIRECTION ( 'NONE',  ( -0.0000000000000000000, -0.0000000000000000000, -1.000000000000000000 ) ) ;
#139 = DIRECTION ( 'NONE',  ( -0.0000000000000000000, -0.0000000000000000000, -1.000000000000000000 ) ) ;
#140 = CARTESIAN_POINT ( 'NONE',  ( 0.0000000000000000000, 0.0000000000000000000, 2.898675027757221301 ) ) ;
#141 = LINE ( 'NONE', #109, #192 ) ;
#142 = ADVANCED_FACE ( 'NONE', ( #80 ), #224, .F. ) ;
#143 = EDGE_LOOP ( 'NONE', ( #210, #172, #21, #30 ) ) ;
#144 = ORIENTED_EDGE ( 'NONE', *, *, #33, .F. ) ;
#145 = CARTESIAN_POINT ( 'NONE',  ( 0.0000000000000000000, 0.0000000000000000000, 0.1013249722427790322 ) ) ;
#146 = EDGE_CURVE ( 'NONE', #103, #206, #204, .T. ) ;
#147 = DIRECTION ( 'NONE',  ( 0.0000000000000000000, 0.0000000000000000000, -1.000000000000000000 ) ) ;
#148 = FILL_AREA_STYLE_COLOUR ( '', #193 ) ;
#149 = PRESENTATION_STYLE_ASSIGNMENT (( #89 ) ) ;
#150 = ORIENTED_EDGE ( 'NONE', *, *, #131, .F. ) ;
#151 =( NAMED_UNIT ( * ) PLANE_ANGLE_UNIT ( ) SI_UNIT ( $, .RADIAN. ) );
#152 = AXIS2_PLACEMENT_3D ( 'NONE', #98, #138, #240 ) ;
#153 = PRESENTATION_LAYER_ASSIGNMENT (  '', '', ( #167 ) ) ;
#154 = DIRECTION ( 'NONE',  ( -0.5000000000000009992, -6.123233995736778362E-17, -0.8660254037844380415 ) ) ;
#155 = EDGE_LOOP ( 'NONE', ( #199, #137, #38, #65 ) ) ;
#156 =( CONVERSION_BASED_UNIT ( 'INCH', #66 ) LENGTH_UNIT ( ) NAMED_UNIT ( #218 ) );
#157 = SURFACE_STYLE_FILL_AREA ( #86 ) ;
#158 = CARTESIAN_POINT ( 'NONE',  ( 0.0000000000000000000, 0.0000000000000000000, 3.000000000000000444 ) ) ;
#159 = DIRECTION ( 'NONE',  ( -1.000000000000000000, 0.0000000000000000000, 0.0000000000000000000 ) ) ;
#160 = AXIS2_PLACEMENT_3D ( 'NONE', #105, #25, #73 ) ;
#161 = DIRECTION ( 'NONE',  ( 1.000000000000000000, 0.0000000000000000000, 0.0000000000000000000 ) ) ;
#162 = CARTESIAN_POINT ( 'NONE',  ( -0.003999999999999999216, 4.898587196589411612E-19, 0.0000000000000000000 ) ) ;
#163 = DIRECTION ( 'NONE',  ( -0.0000000000000000000, -0.0000000000000000000, -1.000000000000000000 ) ) ;
#164 = LINE ( 'NONE', #162, #4 ) ;
#165 = DIRECTION ( 'NONE',  ( -0.0000000000000000000, -0.0000000000000000000, -1.000000000000000000 ) ) ;
#166 = AXIS2_PLACEMENT_3D ( 'NONE', #145, #185, #99 ) ;
#167 = STYLED_ITEM ( 'NONE', ( #149 ), #91 ) ;
#168 = CARTESIAN_POINT ( 'NONE',  ( 0.0000000000000000000, 0.0000000000000000000, 0.0000000000000000000 ) ) ;
#169 = LINE ( 'NONE', #57, #67 ) ;
#170 = CARTESIAN_POINT ( 'NONE',  ( 0.0000000000000000000, 0.0000000000000000000, 3.000000000000000444 ) ) ;
#171 = FACE_OUTER_BOUND ( 'NONE', #113, .T. ) ;
#172 = ORIENTED_EDGE ( 'NONE', *, *, #46, .T. ) ;
#173 = AXIS2_PLACEMENT_3D ( 'NONE', #15, #246, #83 ) ;
#174 =( NAMED_UNIT ( * ) PLANE_ANGLE_UNIT ( ) SI_UNIT ( $, .RADIAN. ) );
#175 = ORIENTED_EDGE ( 'NONE', *, *, #217, .T. ) ;
#176 = PRODUCT_CONTEXT ( 'NONE', #79, 'mechanical' ) ;
#177 = VECTOR ( 'NONE', #154, 39.37007874015748143 ) ;
#178 = ORIENTED_EDGE ( 'NONE', *, *, #72, .T. ) ;
#179 = EDGE_CURVE ( 'NONE', #249, #3, #169, .T. ) ;
#180 = PRODUCT ( 'Micro_RSC-125-23', 'Micro_RSC-125-23', '', ( #176 ) ) ;
#181 = CIRCLE ( 'NONE', #236, 0.06249999999999997918 ) ;
#182 = CARTESIAN_POINT ( 'NONE',  ( 0.06249999999999997918, 7.654042494670954463E-18, 0.1013249722427790322 ) ) ;
#183 = EDGE_CURVE ( 'NONE', #249, #104, #71, .T. ) ;
#184 = CARTESIAN_POINT ( 'NONE',  ( 0.003999999999999999216, 0.0000000000000000000, 3.000000000000000444 ) ) ;
#185 = DIRECTION ( 'NONE',  ( -0.0000000000000000000, -0.0000000000000000000, -1.000000000000000000 ) ) ;
#186 = CONICAL_SURFACE ( 'NONE', #211, 0.003999999999999999216, 0.5235987755983000369 ) ;
#187 = SURFACE_SIDE_STYLE ('',( #100 ) ) ;
#188 = ORIENTED_EDGE ( 'NONE', *, *, #56, .T. ) ;
#189 = DIRECTION ( 'NONE',  ( 1.000000000000000000, 0.0000000000000000000, 0.0000000000000000000 ) ) ;
#190 = EDGE_CURVE ( 'NONE', #103, #87, #164, .T. ) ;
#191 = PRESENTATION_LAYER_ASSIGNMENT (  '', '', ( #233 ) ) ;
#192 = VECTOR ( 'NONE', #245, 39.37007874015748143 ) ;
#193 = COLOUR_RGB ( '',0.7921568627450980005, 0.8196078431372548767, 0.9333333333333333481 ) ;
#194 = MECHANICAL_DESIGN_GEOMETRIC_PRESENTATION_REPRESENTATION (  '', ( #167 ), #16 ) ;
#195 = CARTESIAN_POINT ( 'NONE',  ( -0.003999999999999999216, -4.071950607164948101E-18, 3.000000000000000444 ) ) ;
#196 = DIMENSIONAL_EXPONENTS ( 1.000000000000000000, 0.0000000000000000000, 0.0000000000000000000, 0.0000000000000000000, 0.0000000000000000000, 0.0000000000000000000, 0.0000000000000000000 ) ;
#197 = AXIS2_PLACEMENT_3D ( 'NONE', #248, #228, #97 ) ;
#198 = CARTESIAN_POINT ( 'NONE',  ( 0.003999999999999999216, 0.0000000000000000000, 0.0000000000000000000 ) ) ;
#199 = ORIENTED_EDGE ( 'NONE', *, *, #116, .F. ) ;
#200 = CARTESIAN_POINT ( 'NONE',  ( 0.003999999999999999216, 0.0000000000000000000, 0.0000000000000000000 ) ) ;
#201 = DIMENSIONAL_EXPONENTS ( 1.000000000000000000, 0.0000000000000000000, 0.0000000000000000000, 0.0000000000000000000, 0.0000000000000000000, 0.0000000000000000000, 0.0000000000000000000 ) ;
#202 = DIRECTION ( 'NONE',  ( 0.0000000000000000000, 0.0000000000000000000, 1.000000000000000000 ) ) ;
#203 = DIRECTION ( 'NONE',  ( 1.000000000000000000, 0.0000000000000000000, 0.0000000000000000000 ) ) ;
#204 = CIRCLE ( 'NONE', #197, 0.003999999999999999216 ) ;
#205 = FACE_OUTER_BOUND ( 'NONE', #155, .T. ) ;
#206 = VERTEX_POINT ( 'NONE', #200 ) ;
#207 =( LENGTH_UNIT ( ) NAMED_UNIT ( * ) SI_UNIT ( $, .METRE. ) );
#208 = ORIENTED_EDGE ( 'NONE', *, *, #123, .T. ) ;
#209 =( CONVERSION_BASED_UNIT ( 'INCH', #102 ) LENGTH_UNIT ( ) NAMED_UNIT ( #196 ) );
#210 = ORIENTED_EDGE ( 'NONE', *, *, #85, .T. ) ;
#211 = AXIS2_PLACEMENT_3D ( 'NONE', #35, #12, #203 ) ;
#212 = LINE ( 'NONE', #68, #177 ) ;
#213 = UNCERTAINTY_MEASURE_WITH_UNIT (LENGTH_MEASURE( 1.000000000000000082E-05 ), #156, 'distance_accuracy_value', 'NONE');
#214 =( NAMED_UNIT ( * ) SI_UNIT ( $, .STERADIAN. ) SOLID_ANGLE_UNIT ( ) );
#215 = CYLINDRICAL_SURFACE ( 'NONE', #84, 0.06249999999999997918 ) ;
#216 = ORIENTED_EDGE ( 'NONE', *, *, #190, .T. ) ;
#217 = EDGE_CURVE ( 'NONE', #206, #115, #112, .T. ) ;
#218 = DIMENSIONAL_EXPONENTS ( 1.000000000000000000, 0.0000000000000000000, 0.0000000000000000000, 0.0000000000000000000, 0.0000000000000000000, 0.0000000000000000000, 0.0000000000000000000 ) ;
#219 = EDGE_LOOP ( 'NONE', ( #227, #127, #94, #230 ) ) ;
#220 = AXIS2_PLACEMENT_3D ( 'NONE', #170, #147, #128 ) ;
#221 = VERTEX_POINT ( 'NONE', #241 ) ;
#222 =( LENGTH_UNIT ( ) NAMED_UNIT ( * ) SI_UNIT ( $, .METRE. ) );
#223 = CARTESIAN_POINT ( 'NONE',  ( 0.0000000000000000000, 0.0000000000000000000, 0.1013249722427790322 ) ) ;
#224 = PLANE ( 'NONE',  #173 ) ;
#225 = CARTESIAN_POINT ( 'NONE',  ( 0.0000000000000000000, 0.0000000000000000000, 3.000000000000000444 ) ) ;
#227 = ORIENTED_EDGE ( 'NONE', *, *, #46, .F. ) ;
#226 = CIRCLE ( 'NONE', #160, 0.06249999999999997918 ) ;
#228 = DIRECTION ( 'NONE',  ( -0.0000000000000000000, -0.0000000000000000000, -1.000000000000000000 ) ) ;
#229 = PRODUCT_DEFINITION_SHAPE ( 'NONE', 'NONE',  #247 ) ;
#230 = ORIENTED_EDGE ( 'NONE', *, *, #123, .F. ) ;
#231 =( LENGTH_UNIT ( ) NAMED_UNIT ( * ) SI_UNIT ( $, .METRE. ) );
#232 = CARTESIAN_POINT ( 'NONE',  ( 0.06249999999999997918, 7.654042494670954463E-18, 2.898675027757221301 ) ) ;
#233 = STYLED_ITEM ( 'NONE', ( #64 ), #238 ) ;
#234 = ADVANCED_FACE ( 'NONE', ( #205 ), #186, .T. ) ;
#235 = CARTESIAN_POINT ( 'NONE',  ( 0.0000000000000000000, 0.0000000000000000000, 0.0000000000000000000 ) ) ;
#236 = AXIS2_PLACEMENT_3D ( 'NONE', #223, #163, #32 ) ;
#237 = EDGE_CURVE ( 'NONE', #221, #87, #141, .T. ) ;
#238 = MANIFOLD_SOLID_BREP ( 'Mirror1', #96 ) ;
#239 = LINE ( 'NONE', #13, #50 ) ;
#240 = DIRECTION ( 'NONE',  ( -1.000000000000000000, 0.0000000000000000000, 0.0000000000000000000 ) ) ;
#241 = CARTESIAN_POINT ( 'NONE',  ( -0.06249999999999997918, 0.0000000000000000000, 2.898675027757221301 ) ) ;
#242 = CIRCLE ( 'NONE', #77, 0.06249999999999997918 ) ;
#243 = FACE_OUTER_BOUND ( 'NONE', #219, .T. ) ;
#244 = ORIENTED_EDGE ( 'NONE', *, *, #183, .F. ) ;
#245 = DIRECTION ( 'NONE',  ( -0.0000000000000000000, -0.0000000000000000000, -1.000000000000000000 ) ) ;
#246 = DIRECTION ( 'NONE',  ( 0.0000000000000000000, 0.0000000000000000000, 1.000000000000000000 ) ) ;
#247 = PRODUCT_DEFINITION ( 'UNKNOWN', '', #61, #58 ) ;
#248 = CARTESIAN_POINT ( 'NONE',  ( 0.0000000000000000000, 0.0000000000000000000, 0.0000000000000000000 ) ) ;
#249 = VERTEX_POINT ( 'NONE', #184 ) ;
ENDSEC;
END-ISO-10303-21;
