ISO-10303-21;
HEADER;
FILE_DESCRIPTION (( 'STEP AP214' ),
    '1' );
FILE_NAME ('Micro_SFL-125-44.STEP',
    '2021-09-02T04:42:35',
    ( '' ),
    ( '' ),
    'SwSTEP 2.0',
    'SolidWorks 2020',
    '' );
FILE_SCHEMA (( 'AUTOMOTIVE_DESIGN' ));
ENDSEC;

DATA;
#1 = APPLICATION_PROTOCOL_DEFINITION ( 'draft international standard', 'automotive_design', 1998, #67 ) ;
#2 = ORIENTED_EDGE ( 'NONE', *, *, #162, .F. ) ;
#3 =( GEOMETRIC_REPRESENTATION_CONTEXT ( 3 ) GLOBAL_UNCERTAINTY_ASSIGNED_CONTEXT ( ( #121 ) ) GLOBAL_UNIT_ASSIGNED_CONTEXT ( ( #184, #227, #98 ) ) REPRESENTATION_CONTEXT ( 'NONE', 'WORKASPACE' ) );
#4 = SURFACE_STYLE_USAGE ( .BOTH. , #71 ) ;
#5 = ORIENTED_EDGE ( 'NONE', *, *, #10, .T. ) ;
#6 = DIRECTION ( 'NONE',  ( 0.0000000000000000000, 0.0000000000000000000, 1.000000000000000000 ) ) ;
#7 = DIRECTION ( 'NONE',  ( 1.000000000000000000, 0.0000000000000000000, 0.0000000000000000000 ) ) ;
#8 = DIRECTION ( 'NONE',  ( -1.224646799147353207E-16, -0.0000000000000000000, -1.000000000000000000 ) ) ;
#9 = AXIS2_PLACEMENT_3D ( 'NONE', #189, #82, #281 ) ;
#10 = EDGE_CURVE ( 'NONE', #89, #116, #181, .T. ) ;
#11 = PRESENTATION_STYLE_ASSIGNMENT (( #257 ) ) ;
#12 = VECTOR ( 'NONE', #125, 39.37007874015748143 ) ;
#13 = EDGE_CURVE ( 'NONE', #142, #275, #213, .T. ) ;
#14 = AXIS2_PLACEMENT_3D ( 'NONE', #155, #17, #247 ) ;
#15 = CARTESIAN_POINT ( 'NONE',  ( 9.364125142994975765E-34, 0.0000000000000000000, 7.646388452176288915E-18 ) ) ;
#16 = SURFACE_STYLE_FILL_AREA ( #216 ) ;
#17 = DIRECTION ( 'NONE',  ( -1.224646799147353207E-16, -0.0000000000000000000, -1.000000000000000000 ) ) ;
#18 = DIRECTION ( 'NONE',  ( 0.0000000000000000000, 0.0000000000000000000, -1.000000000000000000 ) ) ;
#19 = EDGE_LOOP ( 'NONE', ( #68, #176, #157, #221 ) ) ;
#20 =( NAMED_UNIT ( * ) SI_UNIT ( $, .STERADIAN. ) SOLID_ANGLE_UNIT ( ) );
#21 = ORIENTED_EDGE ( 'NONE', *, *, #129, .F. ) ;
#22 = DIRECTION ( 'NONE',  ( 1.000000000000000000, 0.0000000000000000000, 0.0000000000000000000 ) ) ;
#23 = AXIS2_PLACEMENT_3D ( 'NONE', #76, #6, #69 ) ;
#24 = SURFACE_STYLE_FILL_AREA ( #147 ) ;
#25 = EDGE_LOOP ( 'NONE', ( #282, #226, #5, #295 ) ) ;
#26 = CARTESIAN_POINT ( 'NONE',  ( 0.0000000000000000000, 0.0000000000000000000, 2.000000000000000000 ) ) ;
#27 = DIRECTION ( 'NONE',  ( -0.0000000000000000000, -0.0000000000000000000, -1.000000000000000000 ) ) ;
#28 =( GEOMETRIC_REPRESENTATION_CONTEXT ( 3 ) GLOBAL_UNCERTAINTY_ASSIGNED_CONTEXT ( ( #249 ) ) GLOBAL_UNIT_ASSIGNED_CONTEXT ( ( #91, #160, #175 ) ) REPRESENTATION_CONTEXT ( 'NONE', 'WORKASPACE' ) );
#29 = CARTESIAN_POINT ( 'NONE',  ( 0.1250000000000000000, 1.530808498934191509E-17, 2.000000000000000000 ) ) ;
#30 = SHAPE_DEFINITION_REPRESENTATION ( #150, #172 ) ;
#31 = ORIENTED_EDGE ( 'NONE', *, *, #94, .F. ) ;
#32 = ADVANCED_FACE ( 'NONE', ( #206 ), #233, .T. ) ;
#33 = DIRECTION ( 'NONE',  ( -0.7071067811865434649, 0.0000000000000000000, -0.7071067811865515695 ) ) ;
#34 = ADVANCED_FACE ( 'NONE', ( #207 ), #50, .T. ) ;
#35 = AXIS2_PLACEMENT_3D ( 'NONE', #127, #84, #259 ) ;
#36 = DIRECTION ( 'NONE',  ( 1.000000000000000000, 0.0000000000000000000, 0.0000000000000000000 ) ) ;
#37 = DIRECTION ( 'NONE',  ( -1.224646799147353207E-16, -0.0000000000000000000, -1.000000000000000000 ) ) ;
#38 = PRODUCT_DEFINITION_CONTEXT ( 'detailed design', #241, 'design' ) ;
#39 = DIRECTION ( 'NONE',  ( 1.000000000000000000, 0.0000000000000000000, 0.0000000000000000000 ) ) ;
#40 = CARTESIAN_POINT ( 'NONE',  ( 0.1099999999999996397, 1.438959988998137757E-17, 2.000000000000000000 ) ) ;
#41 = EDGE_LOOP ( 'NONE', ( #113, #96, #203, #287 ) ) ;
#42 = ADVANCED_FACE ( 'NONE', ( #164 ), #99, .T. ) ;
#43 = VERTEX_POINT ( 'NONE', #146 ) ;
#44 = FILL_AREA_STYLE_COLOUR ( '', #236 ) ;
#45 = AXIS2_PLACEMENT_3D ( 'NONE', #26, #185, #7 ) ;
#46 = ORIENTED_EDGE ( 'NONE', *, *, #47, .T. ) ;
#47 = EDGE_CURVE ( 'NONE', #100, #70, #231, .T. ) ;
#48 = EDGE_CURVE ( 'NONE', #63, #43, #254, .T. ) ;
#49 = ORIENTED_EDGE ( 'NONE', *, *, #103, .T. ) ;
#50 = PLANE ( 'NONE',  #58 ) ;
#51 = ORIENTED_EDGE ( 'NONE', *, *, #240, .F. ) ;
#52 = DIRECTION ( 'NONE',  ( -1.000000000000000000, 0.0000000000000000000, 0.0000000000000000000 ) ) ;
#53 = AXIS2_PLACEMENT_3D ( 'NONE', #294, #156, #137 ) ;
#54 = EDGE_CURVE ( 'NONE', #63, #271, #101, .T. ) ;
#55 = EDGE_CURVE ( 'NONE', #89, #100, #65, .T. ) ;
#56 = CARTESIAN_POINT ( 'NONE',  ( -0.06243749999999994443, 7.646388452176287375E-18, 0.5000000000000000000 ) ) ;
#57 = CARTESIAN_POINT ( 'NONE',  ( 1.046839802360228124E-16, 0.0000000000000000000, 0.8548095688398309466 ) ) ;
#58 = AXIS2_PLACEMENT_3D ( 'NONE', #183, #97, #273 ) ;
#59 = PRODUCT_DEFINITION_FORMATION_WITH_SPECIFIED_SOURCE ( 'ANY', '', #158, .NOT_KNOWN. ) ;
#60 = CARTESIAN_POINT ( 'NONE',  ( 0.06243750000000001382, 7.646388452176288915E-18, -7.646388452176288915E-18 ) ) ;
#61 = PRODUCT_RELATED_PRODUCT_CATEGORY ( 'part', '', ( #158 ) ) ;
#62 = CARTESIAN_POINT ( 'NONE',  ( 0.0000000000000000000, 0.0000000000000000000, 0.0000000000000000000 ) ) ;
#63 = VERTEX_POINT ( 'NONE', #299 ) ;
#64 = CARTESIAN_POINT ( 'NONE',  ( 6.123233995736766036E-17, 0.0000000000000000000, 0.5000000000000000000 ) ) ;
#65 = CIRCLE ( 'NONE', #128, 0.1250000000000000000 ) ;
#66 = AXIS2_PLACEMENT_3D ( 'NONE', #291, #18, #199 ) ;
#67 = APPLICATION_CONTEXT ( 'automotive_design' ) ;
#68 = ORIENTED_EDGE ( 'NONE', *, *, #288, .F. ) ;
#69 = DIRECTION ( 'NONE',  ( 1.000000000000000000, 0.0000000000000000000, 0.0000000000000000000 ) ) ;
#70 = VERTEX_POINT ( 'NONE', #237 ) ;
#71 = SURFACE_SIDE_STYLE ('',( #24 ) ) ;
#72 = AXIS2_PLACEMENT_3D ( 'NONE', #285, #201, #39 ) ;
#73 = EDGE_LOOP ( 'NONE', ( #243, #228 ) ) ;
#74 = DIRECTION ( 'NONE',  ( -1.000000000000000000, 0.0000000000000000000, 0.0000000000000000000 ) ) ;
#75 = DIRECTION ( 'NONE',  ( -0.0000000000000000000, -0.0000000000000000000, -1.000000000000000000 ) ) ;
#76 = CARTESIAN_POINT ( 'NONE',  ( 0.0000000000000000000, 0.0000000000000000000, 0.0000000000000000000 ) ) ;
#77 = DIRECTION ( 'NONE',  ( -0.0000000000000000000, -0.0000000000000000000, -1.000000000000000000 ) ) ;
#78 = STYLED_ITEM ( 'NONE', ( #11 ), #235 ) ;
#79 = ORIENTED_EDGE ( 'NONE', *, *, #103, .F. ) ;
#80 = CARTESIAN_POINT ( 'NONE',  ( -0.1099999999999996397, 0.0000000000000000000, 2.000000000000000000 ) ) ;
#81 = EDGE_CURVE ( 'NONE', #142, #89, #152, .T. ) ;
#82 = DIRECTION ( 'NONE',  ( -1.224646799147353207E-16, -0.0000000000000000000, -1.000000000000000000 ) ) ;
#83 = CIRCLE ( 'NONE', #14, 0.06243750000000001382 ) ;
#84 = DIRECTION ( 'NONE',  ( 0.0000000000000000000, 0.0000000000000000000, -1.000000000000000000 ) ) ;
#85 = DIRECTION ( 'NONE',  ( 0.0000000000000000000, 0.0000000000000000000, 1.000000000000000000 ) ) ;
#86 = CARTESIAN_POINT ( 'NONE',  ( 0.1250000000000000000, 1.530808498934191509E-17, 1.984999999999999432 ) ) ;
#87 = LINE ( 'NONE', #264, #187 ) ;
#88 =( NAMED_UNIT ( * ) PLANE_ANGLE_UNIT ( ) SI_UNIT ( $, .RADIAN. ) );
#89 = VERTEX_POINT ( 'NONE', #107 ) ;
#90 = MECHANICAL_DESIGN_GEOMETRIC_PRESENTATION_REPRESENTATION (  '', ( #253 ), #3 ) ;
#91 =( CONVERSION_BASED_UNIT ( 'INCH', #242 ) LENGTH_UNIT ( ) NAMED_UNIT ( #283 ) );
#92 =( LENGTH_UNIT ( ) NAMED_UNIT ( * ) SI_UNIT ( $, .METRE. ) );
#93 = ORIENTED_EDGE ( 'NONE', *, *, #81, .T. ) ;
#94 = EDGE_CURVE ( 'NONE', #63, #116, #260, .T. ) ;
#95 = VECTOR ( 'NONE', #191, 39.37007874015748143 ) ;
#96 = ORIENTED_EDGE ( 'NONE', *, *, #223, .T. ) ;
#97 = DIRECTION ( 'NONE',  ( 0.0000000000000000000, 0.0000000000000000000, 1.000000000000000000 ) ) ;
#98 =( NAMED_UNIT ( * ) SI_UNIT ( $, .STERADIAN. ) SOLID_ANGLE_UNIT ( ) );
#99 = CYLINDRICAL_SURFACE ( 'NONE', #229, 0.1250000000000000000 ) ;
#100 = VERTEX_POINT ( 'NONE', #86 ) ;
#101 = CIRCLE ( 'NONE', #145, 0.06243749999999999994 ) ;
#102 = CARTESIAN_POINT ( 'NONE',  ( 0.0000000000000000000, 0.0000000000000000000, 0.0000000000000000000 ) ) ;
#103 = EDGE_CURVE ( 'NONE', #245, #43, #196, .T. ) ;
#104 = DIRECTION ( 'NONE',  ( -1.224646799147353207E-16, -0.0000000000000000000, -1.000000000000000000 ) ) ;
#105 = VECTOR ( 'NONE', #33, 39.37007874015748143 ) ;
#106 = CONICAL_SURFACE ( 'NONE', #124, 0.1099999999999996397, 0.7853981633974426169 ) ;
#107 = CARTESIAN_POINT ( 'NONE',  ( -0.1250000000000000000, 0.0000000000000000000, 1.984999999999999432 ) ) ;
#108 = SURFACE_SIDE_STYLE ('',( #16 ) ) ;
#109 = CARTESIAN_POINT ( 'NONE',  ( 0.0000000000000000000, 0.0000000000000000000, 2.000000000000000000 ) ) ;
#110 = AXIS2_PLACEMENT_3D ( 'NONE', #15, #194, #131 ) ;
#111 = PRESENTATION_LAYER_ASSIGNMENT (  '', '', ( #253 ) ) ;
#112 = FACE_OUTER_BOUND ( 'NONE', #179, .T. ) ;
#113 = ORIENTED_EDGE ( 'NONE', *, *, #54, .T. ) ;
#114 = EDGE_CURVE ( 'NONE', #100, #89, #246, .T. ) ;
#115 = DIRECTION ( 'NONE',  ( 1.224646799147353207E-16, 0.0000000000000000000, 1.000000000000000000 ) ) ;
#116 = VERTEX_POINT ( 'NONE', #151 ) ;
#117 = AXIS2_PLACEMENT_3D ( 'NONE', #62, #37, #220 ) ;
#118 = DIRECTION ( 'NONE',  ( 0.1736481776669313581, 0.0000000000000000000, 0.9848077530122077983 ) ) ;
#119 = ORIENTED_EDGE ( 'NONE', *, *, #248, .T. ) ;
#120 = ADVANCED_FACE ( 'NONE', ( #211 ), #170, .T. ) ;
#121 = UNCERTAINTY_MEASURE_WITH_UNIT (LENGTH_MEASURE( 1.000000000000000082E-05 ), #184, 'distance_accuracy_value', 'NONE');
#122 = DIRECTION ( 'NONE',  ( 0.0000000000000000000, 0.0000000000000000000, -1.000000000000000000 ) ) ;
#123 = APPLICATION_PROTOCOL_DEFINITION ( 'draft international standard', 'automotive_design', 1998, #241 ) ;
#124 = AXIS2_PLACEMENT_3D ( 'NONE', #109, #159, #263 ) ;
#125 = DIRECTION ( 'NONE',  ( -0.0000000000000000000, -0.0000000000000000000, -1.000000000000000000 ) ) ;
#126 = CARTESIAN_POINT ( 'NONE',  ( -0.06243750000000001382, 0.0000000000000000000, 7.646388452176288915E-18 ) ) ;
#127 = CARTESIAN_POINT ( 'NONE',  ( 0.0000000000000000000, 0.0000000000000000000, 1.984999999999999432 ) ) ;
#128 = AXIS2_PLACEMENT_3D ( 'NONE', #149, #122, #204 ) ;
#129 = EDGE_CURVE ( 'NONE', #271, #63, #133, .T. ) ;
#130 = CARTESIAN_POINT ( 'NONE',  ( 0.0000000000000000000, 0.0000000000000000000, 0.0000000000000000000 ) ) ;
#131 = DIRECTION ( 'NONE',  ( -1.000000000000000000, 0.0000000000000000000, 1.224646799147353207E-16 ) ) ;
#132 = DIRECTION ( 'NONE',  ( 0.7071067811865434649, 8.659560562354883554E-17, -0.7071067811865515695 ) ) ;
#133 = CIRCLE ( 'NONE', #9, 0.06243749999999999994 ) ;
#134 = FILL_AREA_STYLE_COLOUR ( '', #193 ) ;
#135 = FACE_OUTER_BOUND ( 'NONE', #186, .T. ) ;
#136 = CONICAL_SURFACE ( 'NONE', #66, 0.1099999999999996397, 0.7853981633974426169 ) ;
#137 = DIRECTION ( 'NONE',  ( 1.000000000000000000, 0.0000000000000000000, 0.0000000000000000000 ) ) ;
#138 = ORIENTED_EDGE ( 'NONE', *, *, #223, .F. ) ;
#139 = FACE_OUTER_BOUND ( 'NONE', #197, .T. ) ;
#140 = VECTOR ( 'NONE', #209, 39.37007874015748143 ) ;
#141 = ORIENTED_EDGE ( 'NONE', *, *, #10, .F. ) ;
#142 = VERTEX_POINT ( 'NONE', #80 ) ;
#143 = LENGTH_MEASURE_WITH_UNIT ( LENGTH_MEASURE( 0.02539999999999999897 ), #163 );
#144 = ORIENTED_EDGE ( 'NONE', *, *, #129, .T. ) ;
#145 = AXIS2_PLACEMENT_3D ( 'NONE', #188, #8, #52 ) ;
#146 = CARTESIAN_POINT ( 'NONE',  ( -0.06243750000000001382, 0.0000000000000000000, 1.529277690435257783E-17 ) ) ;
#147 = FILL_AREA_STYLE ('',( #44 ) ) ;
#148 = ORIENTED_EDGE ( 'NONE', *, *, #114, .F. ) ;
#149 = CARTESIAN_POINT ( 'NONE',  ( 0.0000000000000000000, 0.0000000000000000000, 1.984999999999999432 ) ) ;
#150 = PRODUCT_DEFINITION_SHAPE ( 'NONE', 'NONE',  #205 ) ;
#151 = CARTESIAN_POINT ( 'NONE',  ( -0.1249999999999999029, 0.0000000000000000000, 0.8548095688398309466 ) ) ;
#152 = LINE ( 'NONE', #261, #105 ) ;
#153 =( GEOMETRIC_REPRESENTATION_CONTEXT ( 3 ) GLOBAL_UNCERTAINTY_ASSIGNED_CONTEXT ( ( #293 ) ) GLOBAL_UNIT_ASSIGNED_CONTEXT ( ( #154, #88, #20 ) ) REPRESENTATION_CONTEXT ( 'NONE', 'WORKASPACE' ) );
#154 =( CONVERSION_BASED_UNIT ( 'INCH', #195 ) LENGTH_UNIT ( ) NAMED_UNIT ( #171 ) );
#155 = CARTESIAN_POINT ( 'NONE',  ( 9.364125142994975765E-34, 0.0000000000000000000, 7.646388452176288915E-18 ) ) ;
#156 = DIRECTION ( 'NONE',  ( -1.224646799147353207E-16, -0.0000000000000000000, -1.000000000000000000 ) ) ;
#157 = ORIENTED_EDGE ( 'NONE', *, *, #55, .F. ) ;
#158 = PRODUCT ( 'Micro_SFL-125-44', 'Micro_SFL-125-44', '', ( #250 ) ) ;
#159 = DIRECTION ( 'NONE',  ( 0.0000000000000000000, 0.0000000000000000000, -1.000000000000000000 ) ) ;
#160 =( NAMED_UNIT ( * ) PLANE_ANGLE_UNIT ( ) SI_UNIT ( $, .RADIAN. ) );
#161 = MECHANICAL_DESIGN_GEOMETRIC_PRESENTATION_REPRESENTATION (  '', ( #78 ), #153 ) ;
#162 = EDGE_CURVE ( 'NONE', #275, #100, #279, .T. ) ;
#163 =( LENGTH_UNIT ( ) NAMED_UNIT ( * ) SI_UNIT ( $, .METRE. ) );
#164 = FACE_OUTER_BOUND ( 'NONE', #251, .T. ) ;
#165 = CARTESIAN_POINT ( 'NONE',  ( 0.0000000000000000000, 0.0000000000000000000, 2.000000000000000000 ) ) ;
#166 = CIRCLE ( 'NONE', #230, 0.1250000000000000000 ) ;
#167 = EDGE_LOOP ( 'NONE', ( #119, #49 ) ) ;
#168 = ORIENTED_EDGE ( 'NONE', *, *, #232, .F. ) ;
#169 = DIRECTION ( 'NONE',  ( 1.000000000000000000, 0.0000000000000000000, -0.0000000000000000000 ) ) ;
#170 = CYLINDRICAL_SURFACE ( 'NONE', #262, 0.06243750000000001382 ) ;
#171 = DIMENSIONAL_EXPONENTS ( 1.000000000000000000, 0.0000000000000000000, 0.0000000000000000000, 0.0000000000000000000, 0.0000000000000000000, 0.0000000000000000000, 0.0000000000000000000 ) ;
#172 = ADVANCED_BREP_SHAPE_REPRESENTATION ( 'Micro_SFL-125-44', ( #235, #23 ), #28 ) ;
#173 = LINE ( 'NONE', #60, #95 ) ;
#174 = CARTESIAN_POINT ( 'NONE',  ( 0.1099999999999996397, 1.347111479062084158E-17, 2.000000000000000000 ) ) ;
#175 =( NAMED_UNIT ( * ) SI_UNIT ( $, .STERADIAN. ) SOLID_ANGLE_UNIT ( ) );
#176 = ORIENTED_EDGE ( 'NONE', *, *, #162, .T. ) ;
#177 =( LENGTH_UNIT ( ) NAMED_UNIT ( * ) SI_UNIT ( $, .METRE. ) );
#178 = PRESENTATION_LAYER_ASSIGNMENT (  '', '', ( #78 ) ) ;
#179 = EDGE_LOOP ( 'NONE', ( #31, #21, #224, #298 ) ) ;
#180 = EDGE_LOOP ( 'NONE', ( #269, #292, #289, #51 ) ) ;
#181 = LINE ( 'NONE', #255, #12 ) ;
#182 = AXIS2_PLACEMENT_3D ( 'NONE', #219, #268, #217 ) ;
#183 = CARTESIAN_POINT ( 'NONE',  ( 0.0000000000000000000, 0.0000000000000000000, 2.000000000000000000 ) ) ;
#184 =( CONVERSION_BASED_UNIT ( 'INCH', #143 ) LENGTH_UNIT ( ) NAMED_UNIT ( #256 ) );
#185 = DIRECTION ( 'NONE',  ( 0.0000000000000000000, 0.0000000000000000000, 1.000000000000000000 ) ) ;
#186 = EDGE_LOOP ( 'NONE', ( #138, #144, #200, #79 ) ) ;
#187 = VECTOR ( 'NONE', #118, 39.37007874015748143 ) ;
#188 = CARTESIAN_POINT ( 'NONE',  ( 6.123233995736766036E-17, 0.0000000000000000000, 0.5000000000000000000 ) ) ;
#189 = CARTESIAN_POINT ( 'NONE',  ( 6.123233995736766036E-17, 0.0000000000000000000, 0.5000000000000000000 ) ) ;
#190 = CLOSED_SHELL ( 'NONE', ( #120, #265, #274, #42, #32, #34, #290, #296, #258, #208 ) ) ;
#191 = DIRECTION ( 'NONE',  ( -1.224646799147353207E-16, -0.0000000000000000000, -1.000000000000000000 ) ) ;
#192 = AXIS2_PLACEMENT_3D ( 'NONE', #165, #27, #74 ) ;
#193 = COLOUR_RGB ( '',0.7921568627450980005, 0.8196078431372548767, 0.9333333333333333481 ) ;
#194 = DIRECTION ( 'NONE',  ( -1.224646799147353207E-16, -0.0000000000000000000, -1.000000000000000000 ) ) ;
#195 = LENGTH_MEASURE_WITH_UNIT ( LENGTH_MEASURE( 0.02539999999999999897 ), #177 );
#196 = CIRCLE ( 'NONE', #110, 0.06243750000000001382 ) ;
#197 = EDGE_LOOP ( 'NONE', ( #2, #278, #93, #148 ) ) ;
#198 = CONICAL_SURFACE ( 'NONE', #277, 0.06243749999999999994, 0.1745329251994338637 ) ;
#199 = DIRECTION ( 'NONE',  ( -1.000000000000000000, 0.0000000000000000000, 0.0000000000000000000 ) ) ;
#200 = ORIENTED_EDGE ( 'NONE', *, *, #48, .T. ) ;
#201 = DIRECTION ( 'NONE',  ( 1.224646799147353207E-16, 0.0000000000000000000, 1.000000000000000000 ) ) ;
#202 = FACE_OUTER_BOUND ( 'NONE', #180, .T. ) ;
#203 = ORIENTED_EDGE ( 'NONE', *, *, #248, .F. ) ;
#204 = DIRECTION ( 'NONE',  ( 1.000000000000000000, 0.0000000000000000000, 0.0000000000000000000 ) ) ;
#205 = PRODUCT_DEFINITION ( 'UNKNOWN', '', #59, #38 ) ;
#206 = FACE_OUTER_BOUND ( 'NONE', #25, .T. ) ;
#207 = FACE_OUTER_BOUND ( 'NONE', #73, .T. ) ;
#208 = ADVANCED_FACE ( 'NONE', ( #214 ), #284, .F. ) ;
#209 = DIRECTION ( 'NONE',  ( -1.224646799147353207E-16, -0.0000000000000000000, -1.000000000000000000 ) ) ;
#210 = CIRCLE ( 'NONE', #182, 0.1099999999999996397 ) ;
#211 = FACE_OUTER_BOUND ( 'NONE', #41, .T. ) ;
#212 = CARTESIAN_POINT ( 'NONE',  ( 0.06243750000000001382, 7.646388452176288915E-18, 0.0000000000000000000 ) ) ;
#213 = CIRCLE ( 'NONE', #45, 0.1099999999999996397 ) ;
#214 = FACE_OUTER_BOUND ( 'NONE', #167, .T. ) ;
#215 = VECTOR ( 'NONE', #132, 39.37007874015748143 ) ;
#216 = FILL_AREA_STYLE ('',( #134 ) ) ;
#217 = DIRECTION ( 'NONE',  ( 1.000000000000000000, 0.0000000000000000000, 0.0000000000000000000 ) ) ;
#218 = ORIENTED_EDGE ( 'NONE', *, *, #55, .T. ) ;
#219 = CARTESIAN_POINT ( 'NONE',  ( 0.0000000000000000000, 0.0000000000000000000, 2.000000000000000000 ) ) ;
#220 = DIRECTION ( 'NONE',  ( -1.000000000000000000, 0.0000000000000000000, 1.224646799147353207E-16 ) ) ;
#221 = ORIENTED_EDGE ( 'NONE', *, *, #81, .F. ) ;
#222 = VECTOR ( 'NONE', #77, 39.37007874015748143 ) ;
#223 = EDGE_CURVE ( 'NONE', #271, #245, #173, .T. ) ;
#224 = ORIENTED_EDGE ( 'NONE', *, *, #240, .T. ) ;
#225 = PRESENTATION_STYLE_ASSIGNMENT (( #4 ) ) ;
#226 = ORIENTED_EDGE ( 'NONE', *, *, #114, .T. ) ;
#227 =( NAMED_UNIT ( * ) PLANE_ANGLE_UNIT ( ) SI_UNIT ( $, .RADIAN. ) );
#228 = ORIENTED_EDGE ( 'NONE', *, *, #288, .T. ) ;
#229 = AXIS2_PLACEMENT_3D ( 'NONE', #276, #75, #252 ) ;
#230 = AXIS2_PLACEMENT_3D ( 'NONE', #57, #239, #36 ) ;
#231 = LINE ( 'NONE', #29, #222 ) ;
#232 = EDGE_CURVE ( 'NONE', #116, #70, #166, .T. ) ;
#233 = CYLINDRICAL_SURFACE ( 'NONE', #192, 0.1250000000000000000 ) ;
#234 = DIRECTION ( 'NONE',  ( -0.1736481776669311639, 2.126576849575783008E-17, 0.9848077530122080203 ) ) ;
#235 = MANIFOLD_SOLID_BREP ( 'Cut-Revolve1', #190 ) ;
#236 = COLOUR_RGB ( '',0.7921568627450980005, 0.8196078431372548767, 0.9333333333333333481 ) ;
#237 = CARTESIAN_POINT ( 'NONE',  ( 0.1250000000000001110, 1.530808498934192742E-17, 0.8548095688398309466 ) ) ;
#238 = DIRECTION ( 'NONE',  ( -1.000000000000000000, 0.0000000000000000000, 1.224646799147353207E-16 ) ) ;
#239 = DIRECTION ( 'NONE',  ( -1.224646799147353207E-16, -0.0000000000000000000, -1.000000000000000000 ) ) ;
#240 = EDGE_CURVE ( 'NONE', #271, #70, #87, .T. ) ;
#241 = APPLICATION_CONTEXT ( 'automotive_design' ) ;
#242 = LENGTH_MEASURE_WITH_UNIT ( LENGTH_MEASURE( 0.02539999999999999897 ), #92 );
#243 = ORIENTED_EDGE ( 'NONE', *, *, #13, .T. ) ;
#244 = FACE_OUTER_BOUND ( 'NONE', #19, .T. ) ;
#245 = VERTEX_POINT ( 'NONE', #212 ) ;
#246 = CIRCLE ( 'NONE', #35, 0.1250000000000000000 ) ;
#247 = DIRECTION ( 'NONE',  ( -1.000000000000000000, 0.0000000000000000000, 1.224646799147353207E-16 ) ) ;
#248 = EDGE_CURVE ( 'NONE', #43, #245, #83, .T. ) ;
#249 = UNCERTAINTY_MEASURE_WITH_UNIT (LENGTH_MEASURE( 1.000000000000000082E-05 ), #91, 'distance_accuracy_value', 'NONE');
#250 = PRODUCT_CONTEXT ( 'NONE', #67, 'mechanical' ) ;
#251 = EDGE_LOOP ( 'NONE', ( #218, #46, #168, #141 ) ) ;
#252 = DIRECTION ( 'NONE',  ( -1.000000000000000000, 0.0000000000000000000, 0.0000000000000000000 ) ) ;
#253 = STYLED_ITEM ( 'NONE', ( #225 ), #172 ) ;
#254 = LINE ( 'NONE', #126, #140 ) ;
#255 = CARTESIAN_POINT ( 'NONE',  ( -0.1250000000000000000, 0.0000000000000000000, 2.000000000000000000 ) ) ;
#256 = DIMENSIONAL_EXPONENTS ( 1.000000000000000000, 0.0000000000000000000, 0.0000000000000000000, 0.0000000000000000000, 0.0000000000000000000, 0.0000000000000000000, 0.0000000000000000000 ) ;
#257 = SURFACE_STYLE_USAGE ( .BOTH. , #108 ) ;
#258 = ADVANCED_FACE ( 'NONE', ( #135 ), #266, .T. ) ;
#259 = DIRECTION ( 'NONE',  ( 1.000000000000000000, 0.0000000000000000000, 0.0000000000000000000 ) ) ;
#260 = LINE ( 'NONE', #56, #267 ) ;
#261 = CARTESIAN_POINT ( 'NONE',  ( -0.1099999999999996397, 0.0000000000000000000, 2.000000000000000000 ) ) ;
#262 = AXIS2_PLACEMENT_3D ( 'NONE', #130, #104, #238 ) ;
#263 = DIRECTION ( 'NONE',  ( -1.000000000000000000, 0.0000000000000000000, 0.0000000000000000000 ) ) ;
#264 = CARTESIAN_POINT ( 'NONE',  ( 0.06243750000000006239, 0.0000000000000000000, 0.5000000000000000000 ) ) ;
#265 = ADVANCED_FACE ( 'NONE', ( #202 ), #198, .T. ) ;
#266 = CYLINDRICAL_SURFACE ( 'NONE', #117, 0.06243750000000001382 ) ;
#267 = VECTOR ( 'NONE', #234, 39.37007874015747433 ) ;
#268 = DIRECTION ( 'NONE',  ( 0.0000000000000000000, 0.0000000000000000000, 1.000000000000000000 ) ) ;
#269 = ORIENTED_EDGE ( 'NONE', *, *, #54, .F. ) ;
#270 = EDGE_CURVE ( 'NONE', #70, #116, #272, .T. ) ;
#271 = VERTEX_POINT ( 'NONE', #297 ) ;
#272 = CIRCLE ( 'NONE', #53, 0.1250000000000000000 ) ;
#273 = DIRECTION ( 'NONE',  ( 1.000000000000000000, 0.0000000000000000000, -0.0000000000000000000 ) ) ;
#274 = ADVANCED_FACE ( 'NONE', ( #244 ), #106, .T. ) ;
#275 = VERTEX_POINT ( 'NONE', #40 ) ;
#276 = CARTESIAN_POINT ( 'NONE',  ( 0.0000000000000000000, 0.0000000000000000000, 2.000000000000000000 ) ) ;
#277 = AXIS2_PLACEMENT_3D ( 'NONE', #64, #115, #22 ) ;
#278 = ORIENTED_EDGE ( 'NONE', *, *, #13, .F. ) ;
#279 = LINE ( 'NONE', #174, #215 ) ;
#280 = CONICAL_SURFACE ( 'NONE', #72, 0.06243749999999999994, 0.1745329251994338637 ) ;
#281 = DIRECTION ( 'NONE',  ( -1.000000000000000000, 0.0000000000000000000, 0.0000000000000000000 ) ) ;
#282 = ORIENTED_EDGE ( 'NONE', *, *, #47, .F. ) ;
#283 = DIMENSIONAL_EXPONENTS ( 1.000000000000000000, 0.0000000000000000000, 0.0000000000000000000, 0.0000000000000000000, 0.0000000000000000000, 0.0000000000000000000, 0.0000000000000000000 ) ;
#284 = PLANE ( 'NONE',  #286 ) ;
#285 = CARTESIAN_POINT ( 'NONE',  ( 6.123233995736766036E-17, 0.0000000000000000000, 0.5000000000000000000 ) ) ;
#286 = AXIS2_PLACEMENT_3D ( 'NONE', #102, #85, #169 ) ;
#287 = ORIENTED_EDGE ( 'NONE', *, *, #48, .F. ) ;
#288 = EDGE_CURVE ( 'NONE', #275, #142, #210, .T. ) ;
#289 = ORIENTED_EDGE ( 'NONE', *, *, #232, .T. ) ;
#290 = ADVANCED_FACE ( 'NONE', ( #139 ), #136, .T. ) ;
#291 = CARTESIAN_POINT ( 'NONE',  ( 0.0000000000000000000, 0.0000000000000000000, 2.000000000000000000 ) ) ;
#292 = ORIENTED_EDGE ( 'NONE', *, *, #94, .T. ) ;
#293 = UNCERTAINTY_MEASURE_WITH_UNIT (LENGTH_MEASURE( 1.000000000000000082E-05 ), #154, 'distance_accuracy_value', 'NONE');
#294 = CARTESIAN_POINT ( 'NONE',  ( 1.046839802360228124E-16, 0.0000000000000000000, 0.8548095688398309466 ) ) ;
#295 = ORIENTED_EDGE ( 'NONE', *, *, #270, .F. ) ;
#296 = ADVANCED_FACE ( 'NONE', ( #112 ), #280, .T. ) ;
#297 = CARTESIAN_POINT ( 'NONE',  ( 0.06243750000000006239, 0.0000000000000000000, 0.5000000000000000000 ) ) ;
#298 = ORIENTED_EDGE ( 'NONE', *, *, #270, .T. ) ;
#299 = CARTESIAN_POINT ( 'NONE',  ( -0.06243749999999994443, 1.147723672075910277E-17, 0.5000000000000000000 ) ) ;
ENDSEC;
END-ISO-10303-21;
