ISO-10303-21;
HEADER;
FILE_DESCRIPTION (( 'STEP AP214' ),
    '1' );
FILE_NAME ('Micro_GELM-250-4X.STEP',
    '2021-09-01T18:43:07',
    ( '' ),
    ( '' ),
    'SwSTEP 2.0',
    'SolidWorks 2020',
    '' );
FILE_SCHEMA (( 'AUTOMOTIVE_DESIGN' ));
ENDSEC;

DATA;
#1 = DIRECTION ( 'NONE',  ( 1.000000000000000000, 0.0000000000000000000, 0.0000000000000000000 ) ) ;
#2 = DIRECTION ( 'NONE',  ( -0.0000000000000000000, -0.0000000000000000000, -1.000000000000000000 ) ) ;
#3 = DIMENSIONAL_EXPONENTS ( 1.000000000000000000, 0.0000000000000000000, 0.0000000000000000000, 0.0000000000000000000, 0.0000000000000000000, 0.0000000000000000000, 0.0000000000000000000 ) ;
#4 =( CONVERSION_BASED_UNIT ( 'INCH', #167 ) LENGTH_UNIT ( ) NAMED_UNIT ( #267 ) );
#5 = DIRECTION ( 'NONE',  ( -1.224646799147353207E-16, -0.0000000000000000000, -1.000000000000000000 ) ) ;
#6 = PRODUCT_DEFINITION_FORMATION_WITH_SPECIFIED_SOURCE ( 'ANY', '', #191, .NOT_KNOWN. ) ;
#7 = ADVANCED_FACE ( 'NONE', ( #86 ), #272, .T. ) ;
#8 = DIRECTION ( 'NONE',  ( 0.7071067811865330288, 8.659560562354755364E-17, -0.7071067811865620056 ) ) ;
#9 = ORIENTED_EDGE ( 'NONE', *, *, #120, .F. ) ;
#10 = CLOSED_SHELL ( 'NONE', ( #171, #66, #216, #254, #297, #7, #240, #293, #221, #76 ) ) ;
#11 = ORIENTED_EDGE ( 'NONE', *, *, #183, .F. ) ;
#12 = EDGE_LOOP ( 'NONE', ( #15, #113 ) ) ;
#13 = VERTEX_POINT ( 'NONE', #63 ) ;
#14 = APPLICATION_PROTOCOL_DEFINITION ( 'draft international standard', 'automotive_design', 1998, #200 ) ;
#15 = ORIENTED_EDGE ( 'NONE', *, *, #58, .T. ) ;
#16 = DIRECTION ( 'NONE',  ( 0.0000000000000000000, 0.0000000000000000000, 1.000000000000000000 ) ) ;
#17 = VERTEX_POINT ( 'NONE', #249 ) ;
#18 = CARTESIAN_POINT ( 'NONE',  ( 0.4771260000000020485, 5.934956796835864798E-17, 5.905511999999999873 ) ) ;
#19 = ORIENTED_EDGE ( 'NONE', *, *, #80, .F. ) ;
#20 = DIRECTION ( 'NONE',  ( 0.0000000000000000000, 0.0000000000000000000, 1.000000000000000000 ) ) ;
#21 = CONICAL_SURFACE ( 'NONE', #239, 0.4771260000000020485, 0.7853981633974278509 ) ;
#22 = DIRECTION ( 'NONE',  ( -1.000000000000000000, 0.0000000000000000000, 0.0000000000000000000 ) ) ;
#23 = DIRECTION ( 'NONE',  ( -0.0000000000000000000, -0.0000000000000000000, -1.000000000000000000 ) ) ;
#24 = SURFACE_SIDE_STYLE ('',( #121 ) ) ;
#25 = LINE ( 'NONE', #73, #296 ) ;
#26 = CARTESIAN_POINT ( 'NONE',  ( 0.0000000000000000000, 0.0000000000000000000, 0.0000000000000000000 ) ) ;
#27 = EDGE_CURVE ( 'NONE', #129, #125, #154, .T. ) ;
#28 = DIRECTION ( 'NONE',  ( -1.224646799147353207E-16, -0.0000000000000000000, -1.000000000000000000 ) ) ;
#29 = CIRCLE ( 'NONE', #72, 0.4916338740000000262 ) ;
#30 = AXIS2_PLACEMENT_3D ( 'NONE', #241, #79, #244 ) ;
#31 = SHAPE_DEFINITION_REPRESENTATION ( #243, #33 ) ;
#32 = SURFACE_STYLE_USAGE ( .BOTH. , #35 ) ;
#33 = ADVANCED_BREP_SHAPE_REPRESENTATION ( 'Micro_GELM-250-4X', ( #268, #147 ), #40 ) ;
#34 = AXIS2_PLACEMENT_3D ( 'NONE', #237, #28, #139 ) ;
#35 = SURFACE_SIDE_STYLE ('',( #172 ) ) ;
#36 = DIRECTION ( 'NONE',  ( 1.000000000000000000, 0.0000000000000000000, 0.0000000000000000000 ) ) ;
#37 = EDGE_LOOP ( 'NONE', ( #269, #85, #286, #219 ) ) ;
#38 = CARTESIAN_POINT ( 'NONE',  ( -0.4771260000000020485, 0.0000000000000000000, 5.905511999999999873 ) ) ;
#39 = MECHANICAL_DESIGN_GEOMETRIC_PRESENTATION_REPRESENTATION (  '', ( #91 ), #173 ) ;
#40 =( GEOMETRIC_REPRESENTATION_CONTEXT ( 3 ) GLOBAL_UNCERTAINTY_ASSIGNED_CONTEXT ( ( #165 ) ) GLOBAL_UNIT_ASSIGNED_CONTEXT ( ( #217, #264, #247 ) ) REPRESENTATION_CONTEXT ( 'NONE', 'WORKASPACE' ) );
#41 = DIRECTION ( 'NONE',  ( -1.224646799147353207E-16, -0.0000000000000000000, -1.000000000000000000 ) ) ;
#42 = CARTESIAN_POINT ( 'NONE',  ( -0.4921259999999997303, 0.0000000000000000000, 2.955546985236761071 ) ) ;
#43 = ORIENTED_EDGE ( 'NONE', *, *, #124, .T. ) ;
#44 = AXIS2_PLACEMENT_3D ( 'NONE', #26, #169, #142 ) ;
#45 = MECHANICAL_DESIGN_GEOMETRIC_PRESENTATION_REPRESENTATION (  '', ( #246 ), #283 ) ;
#46 = CARTESIAN_POINT ( 'NONE',  ( 0.0000000000000000000, 0.0000000000000000000, 0.0000000000000000000 ) ) ;
#47 = DIRECTION ( 'NONE',  ( -1.000000000000000000, 0.0000000000000000000, 0.0000000000000000000 ) ) ;
#48 = CIRCLE ( 'NONE', #270, 0.4916338740000000262 ) ;
#49 = CARTESIAN_POINT ( 'NONE',  ( 0.0000000000000000000, 0.0000000000000000000, 5.890512000000001969 ) ) ;
#50 = DIMENSIONAL_EXPONENTS ( 1.000000000000000000, 0.0000000000000000000, 0.0000000000000000000, 0.0000000000000000000, 0.0000000000000000000, 0.0000000000000000000, 0.0000000000000000000 ) ;
#51 = EDGE_CURVE ( 'NONE', #125, #129, #214, .T. ) ;
#52 = EDGE_LOOP ( 'NONE', ( #97, #9, #81, #215 ) ) ;
#53 = VERTEX_POINT ( 'NONE', #18 ) ;
#54 = CONICAL_SURFACE ( 'NONE', #30, 0.4916338740000000262, 0.1745329251994338082 ) ;
#55 = APPLICATION_PROTOCOL_DEFINITION ( 'draft international standard', 'automotive_design', 1998, #189 ) ;
#56 = EDGE_CURVE ( 'NONE', #13, #193, #203, .T. ) ;
#57 = EDGE_LOOP ( 'NONE', ( #208, #242, #164, #223 ) ) ;
#58 = EDGE_CURVE ( 'NONE', #265, #53, #155, .T. ) ;
#59 = ORIENTED_EDGE ( 'NONE', *, *, #58, .F. ) ;
#60 = DIRECTION ( 'NONE',  ( 0.0000000000000000000, 0.0000000000000000000, 1.000000000000000000 ) ) ;
#61 = CARTESIAN_POINT ( 'NONE',  ( 0.4916338740000000262, 6.020778501465132931E-17, -6.020778501465132931E-17 ) ) ;
#62 = EDGE_CURVE ( 'NONE', #265, #13, #274, .T. ) ;
#63 = CARTESIAN_POINT ( 'NONE',  ( -0.4921260000000000634, 0.0000000000000000000, 5.890512000000001969 ) ) ;
#64 = DIRECTION ( 'NONE',  ( -0.1736481776669311083, 2.126576849575782084E-17, 0.9848077530122080203 ) ) ;
#65 = CIRCLE ( 'NONE', #229, 0.4916338740000000262 ) ;
#66 = ADVANCED_FACE ( 'NONE', ( #226 ), #282, .T. ) ;
#67 = DIRECTION ( 'NONE',  ( 0.0000000000000000000, 0.0000000000000000000, -1.000000000000000000 ) ) ;
#68 = EDGE_LOOP ( 'NONE', ( #232, #84, #103, #156 ) ) ;
#69 = CARTESIAN_POINT ( 'NONE',  ( -0.4771260000000020485, 0.0000000000000000000, 5.905511999999999873 ) ) ;
#70 = ORIENTED_EDGE ( 'NONE', *, *, #56, .T. ) ;
#71 = EDGE_CURVE ( 'NONE', #148, #17, #48, .T. ) ;
#72 = AXIS2_PLACEMENT_3D ( 'NONE', #199, #115, #83 ) ;
#73 = CARTESIAN_POINT ( 'NONE',  ( 0.4771260000000020485, 5.843108286899826453E-17, 5.905511999999999873 ) ) ;
#74 = ORIENTED_EDGE ( 'NONE', *, *, #101, .T. ) ;
#75 = CYLINDRICAL_SURFACE ( 'NONE', #290, 0.4921260000000000634 ) ;
#76 = ADVANCED_FACE ( 'NONE', ( #111 ), #161, .F. ) ;
#77 = DIRECTION ( 'NONE',  ( -1.000000000000000000, 0.0000000000000000000, 0.0000000000000000000 ) ) ;
#78 = EDGE_LOOP ( 'NONE', ( #74, #222 ) ) ;
#79 = DIRECTION ( 'NONE',  ( 1.224646799147353207E-16, 0.0000000000000000000, 1.000000000000000000 ) ) ;
#80 = EDGE_CURVE ( 'NONE', #17, #129, #201, .T. ) ;
#81 = ORIENTED_EDGE ( 'NONE', *, *, #80, .T. ) ;
#82 = AXIS2_PLACEMENT_3D ( 'NONE', #188, #196, #279 ) ;
#83 = DIRECTION ( 'NONE',  ( -1.000000000000000000, 0.0000000000000000000, 1.224646799147353454E-16 ) ) ;
#84 = ORIENTED_EDGE ( 'NONE', *, *, #276, .T. ) ;
#85 = ORIENTED_EDGE ( 'NONE', *, *, #178, .T. ) ;
#86 = FACE_OUTER_BOUND ( 'NONE', #12, .T. ) ;
#87 = DIRECTION ( 'NONE',  ( 1.000000000000000000, 0.0000000000000000000, 0.0000000000000000000 ) ) ;
#88 = DIRECTION ( 'NONE',  ( 0.1736481776669313026, 0.0000000000000000000, 0.9848077530122077983 ) ) ;
#89 = EDGE_CURVE ( 'NONE', #17, #151, #275, .T. ) ;
#90 = DIRECTION ( 'NONE',  ( 0.0000000000000000000, 0.0000000000000000000, 1.000000000000000000 ) ) ;
#91 = STYLED_ITEM ( 'NONE', ( #259 ), #268 ) ;
#92 = CARTESIAN_POINT ( 'NONE',  ( 0.4916338740000000262, 6.020778501465132931E-17, 0.0000000000000000000 ) ) ;
#93 = PRODUCT_DEFINITION_CONTEXT ( 'detailed design', #200, 'design' ) ;
#94 = SURFACE_STYLE_USAGE ( .BOTH. , #24 ) ;
#95 = ORIENTED_EDGE ( 'NONE', *, *, #62, .T. ) ;
#96 = FACE_OUTER_BOUND ( 'NONE', #98, .T. ) ;
#97 = ORIENTED_EDGE ( 'NONE', *, *, #136, .F. ) ;
#98 = EDGE_LOOP ( 'NONE', ( #144, #105, #253, #11 ) ) ;
#99 = ORIENTED_EDGE ( 'NONE', *, *, #71, .F. ) ;
#100 = DIRECTION ( 'NONE',  ( 1.000000000000000000, 0.0000000000000000000, 0.0000000000000000000 ) ) ;
#101 = EDGE_CURVE ( 'NONE', #127, #151, #29, .T. ) ;
#102 =( NAMED_UNIT ( * ) PLANE_ANGLE_UNIT ( ) SI_UNIT ( $, .RADIAN. ) );
#103 = ORIENTED_EDGE ( 'NONE', *, *, #231, .T. ) ;
#104 =( LENGTH_UNIT ( ) NAMED_UNIT ( * ) SI_UNIT ( $, .METRE. ) );
#105 = ORIENTED_EDGE ( 'NONE', *, *, #120, .T. ) ;
#106 = EDGE_CURVE ( 'NONE', #148, #127, #181, .T. ) ;
#107 = FILL_AREA_STYLE ('',( #153 ) ) ;
#108 = VECTOR ( 'NONE', #134, 39.37007874015748143 ) ;
#109 = CARTESIAN_POINT ( 'NONE',  ( 0.4916338740000004148, 0.0000000000000000000, 2.952755999999999936 ) ) ;
#110 = ORIENTED_EDGE ( 'NONE', *, *, #276, .F. ) ;
#111 = FACE_OUTER_BOUND ( 'NONE', #78, .T. ) ;
#112 = LINE ( 'NONE', #202, #218 ) ;
#113 = ORIENTED_EDGE ( 'NONE', *, *, #285, .T. ) ;
#114 = DIRECTION ( 'NONE',  ( 1.000000000000000000, 0.0000000000000000000, 0.0000000000000000000 ) ) ;
#115 = DIRECTION ( 'NONE',  ( -1.224646799147353207E-16, -0.0000000000000000000, -1.000000000000000000 ) ) ;
#116 =( NAMED_UNIT ( * ) SI_UNIT ( $, .STERADIAN. ) SOLID_ANGLE_UNIT ( ) );
#117 = UNCERTAINTY_MEASURE_WITH_UNIT (LENGTH_MEASURE( 1.000000000000000082E-05 ), #260, 'distance_accuracy_value', 'NONE');
#118 = LINE ( 'NONE', #257, #278 ) ;
#119 = AXIS2_PLACEMENT_3D ( 'NONE', #184, #162, #158 ) ;
#120 = EDGE_CURVE ( 'NONE', #17, #148, #65, .T. ) ;
#121 = SURFACE_STYLE_FILL_AREA ( #234 ) ;
#122 =( LENGTH_UNIT ( ) NAMED_UNIT ( * ) SI_UNIT ( $, .METRE. ) );
#123 = COLOUR_RGB ( '',0.7921568627450980005, 0.8196078431372548767, 0.9333333333333333481 ) ;
#124 = EDGE_CURVE ( 'NONE', #193, #129, #112, .T. ) ;
#125 = VERTEX_POINT ( 'NONE', #42 ) ;
#126 = LENGTH_MEASURE_WITH_UNIT ( LENGTH_MEASURE( 0.02539999999999999897 ), #175 );
#127 = VERTEX_POINT ( 'NONE', #135 ) ;
#128 = DIRECTION ( 'NONE',  ( 0.0000000000000000000, 0.0000000000000000000, -1.000000000000000000 ) ) ;
#129 = VERTEX_POINT ( 'NONE', #228 ) ;
#130 = PRESENTATION_LAYER_ASSIGNMENT (  '', '', ( #91 ) ) ;
#131 = PRESENTATION_LAYER_ASSIGNMENT (  '', '', ( #246 ) ) ;
#132 = PRODUCT_DEFINITION ( 'UNKNOWN', '', #6, #93 ) ;
#133 = CARTESIAN_POINT ( 'NONE',  ( 0.0000000000000000000, 0.0000000000000000000, 5.905511999999999873 ) ) ;
#134 = DIRECTION ( 'NONE',  ( -0.7071067811865330288, 0.0000000000000000000, -0.7071067811865620056 ) ) ;
#135 = CARTESIAN_POINT ( 'NONE',  ( -0.4916338740000000262, 0.0000000000000000000, 1.204155700293026586E-16 ) ) ;
#136 = EDGE_CURVE ( 'NONE', #148, #125, #298, .T. ) ;
#137 = CARTESIAN_POINT ( 'NONE',  ( 3.616083184063142379E-16, 0.0000000000000000000, 2.952755999999999936 ) ) ;
#138 = CYLINDRICAL_SURFACE ( 'NONE', #146, 0.4921260000000000634 ) ;
#139 = DIRECTION ( 'NONE',  ( -1.000000000000000000, 0.0000000000000000000, 1.224646799147353454E-16 ) ) ;
#140 = EDGE_LOOP ( 'NONE', ( #99, #291, #263, #19 ) ) ;
#141 = AXIS2_PLACEMENT_3D ( 'NONE', #206, #16, #252 ) ;
#142 = DIRECTION ( 'NONE',  ( -1.000000000000000000, 0.0000000000000000000, 1.224646799147353454E-16 ) ) ;
#143 =( NAMED_UNIT ( * ) PLANE_ANGLE_UNIT ( ) SI_UNIT ( $, .RADIAN. ) );
#144 = ORIENTED_EDGE ( 'NONE', *, *, #89, .F. ) ;
#145 =( NAMED_UNIT ( * ) SI_UNIT ( $, .STERADIAN. ) SOLID_ANGLE_UNIT ( ) );
#146 = AXIS2_PLACEMENT_3D ( 'NONE', #280, #23, #47 ) ;
#147 = AXIS2_PLACEMENT_3D ( 'NONE', #198, #289, #100 ) ;
#148 = VERTEX_POINT ( 'NONE', #209 ) ;
#149 = PRODUCT_CONTEXT ( 'NONE', #189, 'mechanical' ) ;
#150 = ORIENTED_EDGE ( 'NONE', *, *, #51, .F. ) ;
#151 = VERTEX_POINT ( 'NONE', #92 ) ;
#152 = ORIENTED_EDGE ( 'NONE', *, *, #178, .F. ) ;
#153 = FILL_AREA_STYLE_COLOUR ( '', #262 ) ;
#154 = CIRCLE ( 'NONE', #119, 0.4921260000000000634 ) ;
#155 = CIRCLE ( 'NONE', #261, 0.4771260000000020485 ) ;
#156 = ORIENTED_EDGE ( 'NONE', *, *, #27, .F. ) ;
#157 = DIRECTION ( 'NONE',  ( 1.224646799147353207E-16, 0.0000000000000000000, 1.000000000000000000 ) ) ;
#158 = DIRECTION ( 'NONE',  ( 1.000000000000000000, 0.0000000000000000000, 0.0000000000000000000 ) ) ;
#159 = AXIS2_PLACEMENT_3D ( 'NONE', #46, #5, #256 ) ;
#160 = DIRECTION ( 'NONE',  ( 1.000000000000000000, 0.0000000000000000000, 0.0000000000000000000 ) ) ;
#161 = PLANE ( 'NONE',  #141 ) ;
#162 = DIRECTION ( 'NONE',  ( -1.224646799147353207E-16, -0.0000000000000000000, -1.000000000000000000 ) ) ;
#163 = CYLINDRICAL_SURFACE ( 'NONE', #159, 0.4916338740000000262 ) ;
#164 = ORIENTED_EDGE ( 'NONE', *, *, #101, .F. ) ;
#165 = UNCERTAINTY_MEASURE_WITH_UNIT (LENGTH_MEASURE( 1.000000000000000082E-05 ), #217, 'distance_accuracy_value', 'NONE');
#166 = DIRECTION ( 'NONE',  ( 1.000000000000000000, 0.0000000000000000000, 0.0000000000000000000 ) ) ;
#167 = LENGTH_MEASURE_WITH_UNIT ( LENGTH_MEASURE( 0.02539999999999999897 ), #122 );
#168 = UNCERTAINTY_MEASURE_WITH_UNIT (LENGTH_MEASURE( 1.000000000000000082E-05 ), #4, 'distance_accuracy_value', 'NONE');
#169 = DIRECTION ( 'NONE',  ( -1.224646799147353207E-16, -0.0000000000000000000, -1.000000000000000000 ) ) ;
#170 = CIRCLE ( 'NONE', #34, 0.4916338740000000262 ) ;
#171 = ADVANCED_FACE ( 'NONE', ( #238 ), #163, .T. ) ;
#172 = SURFACE_STYLE_FILL_AREA ( #107 ) ;
#173 =( GEOMETRIC_REPRESENTATION_CONTEXT ( 3 ) GLOBAL_UNCERTAINTY_ASSIGNED_CONTEXT ( ( #168 ) ) GLOBAL_UNIT_ASSIGNED_CONTEXT ( ( #4, #143, #116 ) ) REPRESENTATION_CONTEXT ( 'NONE', 'WORKASPACE' ) );
#174 = FACE_OUTER_BOUND ( 'NONE', #52, .T. ) ;
#175 =( LENGTH_UNIT ( ) NAMED_UNIT ( * ) SI_UNIT ( $, .METRE. ) );
#176 = FACE_OUTER_BOUND ( 'NONE', #68, .T. ) ;
#177 = CIRCLE ( 'NONE', #204, 0.4921260000000000634 ) ;
#178 = EDGE_CURVE ( 'NONE', #53, #193, #25, .T. ) ;
#179 = AXIS2_PLACEMENT_3D ( 'NONE', #277, #60, #292 ) ;
#180 = EDGE_LOOP ( 'NONE', ( #70, #43, #150, #213 ) ) ;
#181 = LINE ( 'NONE', #299, #245 ) ;
#182 = VECTOR ( 'NONE', #205, 39.37007874015748143 ) ;
#183 = EDGE_CURVE ( 'NONE', #151, #127, #170, .T. ) ;
#184 = CARTESIAN_POINT ( 'NONE',  ( 3.619501155199809429E-16, 0.0000000000000000000, 2.955546985236761071 ) ) ;
#185 = CARTESIAN_POINT ( 'NONE',  ( -0.4916338739999996932, 6.020778501465132931E-17, 2.952755999999999936 ) ) ;
#186 = DIRECTION ( 'NONE',  ( -1.224646799147353207E-16, -0.0000000000000000000, -1.000000000000000000 ) ) ;
#187 = AXIS2_PLACEMENT_3D ( 'NONE', #137, #157, #114 ) ;
#188 = CARTESIAN_POINT ( 'NONE',  ( 0.0000000000000000000, 0.0000000000000000000, 5.905511999999999873 ) ) ;
#189 = APPLICATION_CONTEXT ( 'automotive_design' ) ;
#190 = FACE_OUTER_BOUND ( 'NONE', #37, .T. ) ;
#191 = PRODUCT ( 'Micro_GELM-250-4X', 'Micro_GELM-250-4X', '', ( #149 ) ) ;
#192 = DIRECTION ( 'NONE',  ( -1.000000000000000000, 0.0000000000000000000, 0.0000000000000000000 ) ) ;
#193 = VERTEX_POINT ( 'NONE', #212 ) ;
#194 = CARTESIAN_POINT ( 'NONE',  ( 0.0000000000000000000, 0.0000000000000000000, 5.905511999999999873 ) ) ;
#195 = VECTOR ( 'NONE', #88, 39.37007874015748143 ) ;
#196 = DIRECTION ( 'NONE',  ( 0.0000000000000000000, 0.0000000000000000000, -1.000000000000000000 ) ) ;
#197 = CARTESIAN_POINT ( 'NONE',  ( 0.0000000000000000000, 0.0000000000000000000, 5.905511999999999873 ) ) ;
#198 = CARTESIAN_POINT ( 'NONE',  ( 0.0000000000000000000, 0.0000000000000000000, 0.0000000000000000000 ) ) ;
#199 = CARTESIAN_POINT ( 'NONE',  ( 7.373327120194471968E-33, 0.0000000000000000000, 6.020778501465132931E-17 ) ) ;
#200 = APPLICATION_CONTEXT ( 'automotive_design' ) ;
#201 = LINE ( 'NONE', #109, #195 ) ;
#202 = CARTESIAN_POINT ( 'NONE',  ( 0.4921260000000000634, 6.026805306771904375E-17, 5.905511999999999873 ) ) ;
#203 = CIRCLE ( 'NONE', #235, 0.4921260000000000634 ) ;
#204 = AXIS2_PLACEMENT_3D ( 'NONE', #49, #207, #1 ) ;
#205 = DIRECTION ( 'NONE',  ( -1.224646799147353207E-16, -0.0000000000000000000, -1.000000000000000000 ) ) ;
#206 = CARTESIAN_POINT ( 'NONE',  ( 0.0000000000000000000, 0.0000000000000000000, 0.0000000000000000000 ) ) ;
#207 = DIRECTION ( 'NONE',  ( 0.0000000000000000000, 0.0000000000000000000, -1.000000000000000000 ) ) ;
#208 = ORIENTED_EDGE ( 'NONE', *, *, #71, .T. ) ;
#209 = CARTESIAN_POINT ( 'NONE',  ( -0.4916338739999996932, 6.023791904118518653E-17, 2.952755999999999936 ) ) ;
#210 = CIRCLE ( 'NONE', #236, 0.4771260000000020485 ) ;
#211 = CARTESIAN_POINT ( 'NONE',  ( 0.0000000000000000000, 0.0000000000000000000, 5.905511999999999873 ) ) ;
#212 = CARTESIAN_POINT ( 'NONE',  ( 0.4921260000000000634, 6.026805306771904375E-17, 5.890512000000001969 ) ) ;
#213 = ORIENTED_EDGE ( 'NONE', *, *, #231, .F. ) ;
#214 = CIRCLE ( 'NONE', #250, 0.4921260000000000634 ) ;
#215 = ORIENTED_EDGE ( 'NONE', *, *, #27, .T. ) ;
#216 = ADVANCED_FACE ( 'NONE', ( #190 ), #21, .T. ) ;
#217 =( CONVERSION_BASED_UNIT ( 'INCH', #126 ) LENGTH_UNIT ( ) NAMED_UNIT ( #50 ) );
#218 = VECTOR ( 'NONE', #295, 39.37007874015748143 ) ;
#219 = ORIENTED_EDGE ( 'NONE', *, *, #62, .F. ) ;
#220 = PRESENTATION_STYLE_ASSIGNMENT (( #32 ) ) ;
#221 = ADVANCED_FACE ( 'NONE', ( #96 ), #255, .T. ) ;
#222 = ORIENTED_EDGE ( 'NONE', *, *, #183, .T. ) ;
#223 = ORIENTED_EDGE ( 'NONE', *, *, #106, .F. ) ;
#224 = DIRECTION ( 'NONE',  ( -1.224646799147353207E-16, -0.0000000000000000000, -1.000000000000000000 ) ) ;
#225 = VECTOR ( 'NONE', #64, 39.37007874015747433 ) ;
#226 = FACE_OUTER_BOUND ( 'NONE', #140, .T. ) ;
#227 = DIRECTION ( 'NONE',  ( -1.000000000000000000, 0.0000000000000000000, 0.0000000000000000000 ) ) ;
#228 = CARTESIAN_POINT ( 'NONE',  ( 0.4921260000000003965, 6.026805306771908073E-17, 2.955546985236761071 ) ) ;
#229 = AXIS2_PLACEMENT_3D ( 'NONE', #251, #41, #227 ) ;
#230 = DIRECTION ( 'NONE',  ( -1.224646799147353207E-16, -0.0000000000000000000, -1.000000000000000000 ) ) ;
#231 = EDGE_CURVE ( 'NONE', #13, #125, #118, .T. ) ;
#232 = ORIENTED_EDGE ( 'NONE', *, *, #124, .F. ) ;
#233 = FILL_AREA_STYLE_COLOUR ( '', #123 ) ;
#234 = FILL_AREA_STYLE ('',( #233 ) ) ;
#235 = AXIS2_PLACEMENT_3D ( 'NONE', #248, #128, #87 ) ;
#236 = AXIS2_PLACEMENT_3D ( 'NONE', #211, #90, #166 ) ;
#237 = CARTESIAN_POINT ( 'NONE',  ( 7.373327120194471968E-33, 0.0000000000000000000, 6.020778501465132931E-17 ) ) ;
#238 = FACE_OUTER_BOUND ( 'NONE', #57, .T. ) ;
#239 = AXIS2_PLACEMENT_3D ( 'NONE', #194, #67, #192 ) ;
#240 = ADVANCED_FACE ( 'NONE', ( #284 ), #287, .T. ) ;
#241 = CARTESIAN_POINT ( 'NONE',  ( 3.616083184063142379E-16, 0.0000000000000000000, 2.952755999999999936 ) ) ;
#242 = ORIENTED_EDGE ( 'NONE', *, *, #89, .T. ) ;
#243 = PRODUCT_DEFINITION_SHAPE ( 'NONE', 'NONE',  #132 ) ;
#244 = DIRECTION ( 'NONE',  ( 1.000000000000000000, 0.0000000000000000000, 0.0000000000000000000 ) ) ;
#245 = VECTOR ( 'NONE', #186, 39.37007874015748143 ) ;
#246 = STYLED_ITEM ( 'NONE', ( #220 ), #33 ) ;
#247 =( NAMED_UNIT ( * ) SI_UNIT ( $, .STERADIAN. ) SOLID_ANGLE_UNIT ( ) );
#248 = CARTESIAN_POINT ( 'NONE',  ( 0.0000000000000000000, 0.0000000000000000000, 5.890512000000001969 ) ) ;
#249 = CARTESIAN_POINT ( 'NONE',  ( 0.4916338740000004148, 0.0000000000000000000, 2.952755999999999936 ) ) ;
#250 = AXIS2_PLACEMENT_3D ( 'NONE', #273, #230, #160 ) ;
#251 = CARTESIAN_POINT ( 'NONE',  ( 3.616083184063142379E-16, 0.0000000000000000000, 2.952755999999999936 ) ) ;
#252 = DIRECTION ( 'NONE',  ( 1.000000000000000000, 0.0000000000000000000, -0.0000000000000000000 ) ) ;
#253 = ORIENTED_EDGE ( 'NONE', *, *, #106, .T. ) ;
#254 = ADVANCED_FACE ( 'NONE', ( #258 ), #138, .T. ) ;
#255 = CYLINDRICAL_SURFACE ( 'NONE', #44, 0.4916338740000000262 ) ;
#256 = DIRECTION ( 'NONE',  ( -1.000000000000000000, 0.0000000000000000000, 1.224646799147353454E-16 ) ) ;
#257 = CARTESIAN_POINT ( 'NONE',  ( -0.4921260000000000634, 0.0000000000000000000, 5.905511999999999873 ) ) ;
#258 = FACE_OUTER_BOUND ( 'NONE', #180, .T. ) ;
#259 = PRESENTATION_STYLE_ASSIGNMENT (( #94 ) ) ;
#260 =( CONVERSION_BASED_UNIT ( 'INCH', #266 ) LENGTH_UNIT ( ) NAMED_UNIT ( #3 ) );
#261 = AXIS2_PLACEMENT_3D ( 'NONE', #133, #20, #36 ) ;
#262 = COLOUR_RGB ( '',0.7921568627450980005, 0.8196078431372548767, 0.9333333333333333481 ) ;
#263 = ORIENTED_EDGE ( 'NONE', *, *, #51, .T. ) ;
#264 =( NAMED_UNIT ( * ) PLANE_ANGLE_UNIT ( ) SI_UNIT ( $, .RADIAN. ) );
#265 = VERTEX_POINT ( 'NONE', #69 ) ;
#266 = LENGTH_MEASURE_WITH_UNIT ( LENGTH_MEASURE( 0.02539999999999999897 ), #104 );
#267 = DIMENSIONAL_EXPONENTS ( 1.000000000000000000, 0.0000000000000000000, 0.0000000000000000000, 0.0000000000000000000, 0.0000000000000000000, 0.0000000000000000000, 0.0000000000000000000 ) ;
#268 = MANIFOLD_SOLID_BREP ( 'Cut-Revolve1', #10 ) ;
#269 = ORIENTED_EDGE ( 'NONE', *, *, #285, .F. ) ;
#270 = AXIS2_PLACEMENT_3D ( 'NONE', #294, #224, #22 ) ;
#271 = EDGE_LOOP ( 'NONE', ( #152, #59, #95, #110 ) ) ;
#272 = PLANE ( 'NONE',  #179 ) ;
#273 = CARTESIAN_POINT ( 'NONE',  ( 3.619501155199809429E-16, 0.0000000000000000000, 2.955546985236761071 ) ) ;
#274 = LINE ( 'NONE', #38, #108 ) ;
#275 = LINE ( 'NONE', #61, #182 ) ;
#276 = EDGE_CURVE ( 'NONE', #193, #13, #177, .T. ) ;
#277 = CARTESIAN_POINT ( 'NONE',  ( 0.0000000000000000000, 0.0000000000000000000, 5.905511999999999873 ) ) ;
#278 = VECTOR ( 'NONE', #2, 39.37007874015748143 ) ;
#279 = DIRECTION ( 'NONE',  ( -1.000000000000000000, 0.0000000000000000000, 0.0000000000000000000 ) ) ;
#280 = CARTESIAN_POINT ( 'NONE',  ( 0.0000000000000000000, 0.0000000000000000000, 5.905511999999999873 ) ) ;
#281 = PRODUCT_RELATED_PRODUCT_CATEGORY ( 'part', '', ( #191 ) ) ;
#282 = CONICAL_SURFACE ( 'NONE', #187, 0.4916338740000000262, 0.1745329251994338082 ) ;
#283 =( GEOMETRIC_REPRESENTATION_CONTEXT ( 3 ) GLOBAL_UNCERTAINTY_ASSIGNED_CONTEXT ( ( #117 ) ) GLOBAL_UNIT_ASSIGNED_CONTEXT ( ( #260, #102, #145 ) ) REPRESENTATION_CONTEXT ( 'NONE', 'WORKASPACE' ) );
#284 = FACE_OUTER_BOUND ( 'NONE', #271, .T. ) ;
#285 = EDGE_CURVE ( 'NONE', #53, #265, #210, .T. ) ;
#286 = ORIENTED_EDGE ( 'NONE', *, *, #56, .F. ) ;
#287 = CONICAL_SURFACE ( 'NONE', #82, 0.4771260000000020485, 0.7853981633974278509 ) ;
#288 = DIRECTION ( 'NONE',  ( -0.0000000000000000000, -0.0000000000000000000, -1.000000000000000000 ) ) ;
#289 = DIRECTION ( 'NONE',  ( 0.0000000000000000000, 0.0000000000000000000, 1.000000000000000000 ) ) ;
#290 = AXIS2_PLACEMENT_3D ( 'NONE', #197, #288, #77 ) ;
#291 = ORIENTED_EDGE ( 'NONE', *, *, #136, .T. ) ;
#292 = DIRECTION ( 'NONE',  ( 1.000000000000000000, 0.0000000000000000000, -0.0000000000000000000 ) ) ;
#293 = ADVANCED_FACE ( 'NONE', ( #174 ), #54, .T. ) ;
#294 = CARTESIAN_POINT ( 'NONE',  ( 3.616083184063142379E-16, 0.0000000000000000000, 2.952755999999999936 ) ) ;
#295 = DIRECTION ( 'NONE',  ( -0.0000000000000000000, -0.0000000000000000000, -1.000000000000000000 ) ) ;
#296 = VECTOR ( 'NONE', #8, 39.37007874015748143 ) ;
#297 = ADVANCED_FACE ( 'NONE', ( #176 ), #75, .T. ) ;
#298 = LINE ( 'NONE', #185, #225 ) ;
#299 = CARTESIAN_POINT ( 'NONE',  ( -0.4916338740000000262, 0.0000000000000000000, 6.020778501465132931E-17 ) ) ;
ENDSEC;
END-ISO-10303-21;
