ISO-10303-21;
HEADER;
FILE_DESCRIPTION (( 'STEP AP214' ),
    '1' );
FILE_NAME ('59570.STEP',
    '2023-07-24T15:11:48',
    ( '' ),
    ( '' ),
    'SwSTEP 2.0',
    'SolidWorks 2023',
    '' );
FILE_SCHEMA (( 'AUTOMOTIVE_DESIGN' ));
ENDSEC;

DATA;
#1 = ORIENTED_EDGE ( 'NONE', *, *, #127, .T. ) ;
#2 = PRODUCT_CONTEXT ( 'NONE', #218, 'mechanical' ) ;
#3 = SURFACE_SIDE_STYLE ('',( #267 ) ) ;
#4 = AXIS2_PLACEMENT_3D ( 'NONE', #352, #153, #213 ) ;
#5 = DIRECTION ( 'NONE',  ( -1.000000000000000000, 0.000000000000000000, 0.000000000000000000 ) ) ;
#6 = ORIENTED_EDGE ( 'NONE', *, *, #313, .F. ) ;
#7 = FACE_OUTER_BOUND ( 'NONE', #345, .T. ) ;
#8 =( NAMED_UNIT ( * ) SI_UNIT ( $, .STERADIAN. ) SOLID_ANGLE_UNIT ( ) );
#9 = ORIENTED_EDGE ( 'NONE', *, *, #235, .F. ) ;
#10 = CYLINDRICAL_SURFACE ( 'NONE', #4, 2.999999999999999556 ) ;
#11 = FILL_AREA_STYLE_COLOUR ( '', #76 ) ;
#12 =( GEOMETRIC_REPRESENTATION_CONTEXT ( 3 ) GLOBAL_UNCERTAINTY_ASSIGNED_CONTEXT ( ( #110 ) ) GLOBAL_UNIT_ASSIGNED_CONTEXT ( ( #106, #222, #326 ) ) REPRESENTATION_CONTEXT ( 'NONE', 'WORKASPACE' ) );
#13 =( LENGTH_UNIT ( ) NAMED_UNIT ( * ) SI_UNIT ( .MILLI., .METRE. ) );
#14 = AXIS2_PLACEMENT_3D ( 'NONE', #321, #237, #343 ) ;
#15 = DIRECTION ( 'NONE',  ( -0.000000000000000000, -1.000000000000000000, -0.000000000000000000 ) ) ;
#16 = MECHANICAL_DESIGN_GEOMETRIC_PRESENTATION_REPRESENTATION (  '', ( #136 ), #288 ) ;
#17 = ADVANCED_FACE ( 'NONE', ( #23 ), #26, .F. ) ;
#18 = CLOSED_SHELL ( 'NONE', ( #254, #17, #156, #193 ) ) ;
#19 = AXIS2_PLACEMENT_3D ( 'NONE', #44, #165, #73 ) ;
#20 = EDGE_CURVE ( 'NONE', #244, #28, #367, .T. ) ;
#21 = FACE_OUTER_BOUND ( 'NONE', #234, .T. ) ;
#22 = APPLICATION_PROTOCOL_DEFINITION ( 'draft international standard', 'automotive_design', 1998, #218 ) ;
#23 = FACE_OUTER_BOUND ( 'NONE', #111, .T. ) ;
#24 = MECHANICAL_DESIGN_GEOMETRIC_PRESENTATION_REPRESENTATION (  '', ( #40 ), #12 ) ;
#25 = DIRECTION ( 'NONE',  ( -1.444848463910660280E-16, 1.000000000000000000, -0.000000000000000000 ) ) ;
#26 = PLANE ( 'NONE',  #126 ) ;
#27 = EDGE_CURVE ( 'NONE', #214, #330, #115, .T. ) ;
#28 = VERTEX_POINT ( 'NONE', #125 ) ;
#29 = CARTESIAN_POINT ( 'NONE',  ( 2.999999999999999556, 63.00000000000000000, 3.673940397442047542E-16 ) ) ;
#30 = FILL_AREA_STYLE_COLOUR ( '', #181 ) ;
#31 = FILL_AREA_STYLE ('',( #366 ) ) ;
#32 = PLANE ( 'NONE',  #224 ) ;
#33 = PLANE ( 'NONE',  #327 ) ;
#34 = ADVANCED_FACE ( 'NONE', ( #7 ), #32, .T. ) ;
#35 = CIRCLE ( 'NONE', #172, 2.999999999999991562 ) ;
#36 = DIRECTION ( 'NONE',  ( 0.000000000000000000, 0.000000000000000000, -1.000000000000000000 ) ) ;
#37 = CARTESIAN_POINT ( 'NONE',  ( 7.592810154713587074E-15, 63.00000000000000000, 0.000000000000000000 ) ) ;
#38 = FILL_AREA_STYLE_COLOUR ( '', #47 ) ;
#39 = SURFACE_SIDE_STYLE ('',( #154 ) ) ;
#40 = STYLED_ITEM ( 'NONE', ( #46 ), #81 ) ;
#41 = DIRECTION ( 'NONE',  ( -0.000000000000000000, -1.000000000000000000, -0.000000000000000000 ) ) ;
#42 = ORIENTED_EDGE ( 'NONE', *, *, #20, .F. ) ;
#43 = FILL_AREA_STYLE ('',( #65 ) ) ;
#44 = CARTESIAN_POINT ( 'NONE',  ( 7.592810154713587074E-15, 63.00000000000000000, 0.000000000000000000 ) ) ;
#45 = ORIENTED_EDGE ( 'NONE', *, *, #335, .F. ) ;
#46 = PRESENTATION_STYLE_ASSIGNMENT (( #347 ) ) ;
#47 = COLOUR_RGB ( '',1.000000000000000000, 0.000000000000000000, 0.000000000000000000 ) ;
#48 = COLOUR_RGB ( '',1.000000000000000000, 0.000000000000000000, 0.000000000000000000 ) ;
#49 = AXIS2_PLACEMENT_3D ( 'NONE', #121, #72, #240 ) ;
#50 =( NAMED_UNIT ( * ) PLANE_ANGLE_UNIT ( ) SI_UNIT ( $, .RADIAN. ) );
#51 = DIRECTION ( 'NONE',  ( -1.000000000000000000, -1.444848463910660280E-16, 0.000000000000000000 ) ) ;
#52 = DIRECTION ( 'NONE',  ( -1.444848463910660280E-16, 1.000000000000000000, -0.000000000000000000 ) ) ;
#53 = PRODUCT_DEFINITION_FORMATION_WITH_SPECIFIED_SOURCE ( 'ANY', '', #145, .NOT_KNOWN. ) ;
#54 = ADVANCED_FACE ( 'NONE', ( #122 ), #10, .T. ) ;
#55 = EDGE_LOOP ( 'NONE', ( #63, #204, #66, #6 ) ) ;
#56 = COLOUR_RGB ( '',1.000000000000000000, 0.000000000000000000, 0.000000000000000000 ) ;
#57 = FACE_OUTER_BOUND ( 'NONE', #263, .T. ) ;
#58 = STYLED_ITEM ( 'NONE', ( #113 ), #168 ) ;
#59 = CARTESIAN_POINT ( 'NONE',  ( 0.000000000000000000, 0.000000000000000000, -2.000000000000000000 ) ) ;
#60 = ORIENTED_EDGE ( 'NONE', *, *, #278, .T. ) ;
#61 = LINE ( 'NONE', #177, #296 ) ;
#62 = SURFACE_STYLE_USAGE ( .BOTH. , #268 ) ;
#63 = ORIENTED_EDGE ( 'NONE', *, *, #364, .T. ) ;
#64 = PRESENTATION_STYLE_ASSIGNMENT (( #68 ) ) ;
#65 = FILL_AREA_STYLE_COLOUR ( '', #112 ) ;
#66 = ORIENTED_EDGE ( 'NONE', *, *, #278, .F. ) ;
#67 = VECTOR ( 'NONE', #217, 1000.000000000000000 ) ;
#68 = SURFACE_STYLE_USAGE ( .BOTH. , #183 ) ;
#69 = SURFACE_STYLE_USAGE ( .BOTH. , #322 ) ;
#70 = LINE ( 'NONE', #303, #340 ) ;
#71 = EDGE_LOOP ( 'NONE', ( #342, #265, #95, #308 ) ) ;
#72 = DIRECTION ( 'NONE',  ( -0.000000000000000000, -1.000000000000000000, -0.000000000000000000 ) ) ;
#73 = DIRECTION ( 'NONE',  ( -1.000000000000000000, 0.000000000000000000, 0.000000000000000000 ) ) ;
#74 = SURFACE_STYLE_USAGE ( .BOTH. , #323 ) ;
#75 = AXIS2_PLACEMENT_3D ( 'NONE', #135, #275, #248 ) ;
#76 = COLOUR_RGB ( '',0.7921568627450980005, 0.8196078431372548767, 0.9333333333333333481 ) ;
#77 = UNCERTAINTY_MEASURE_WITH_UNIT (LENGTH_MEASURE( 1.000000000000000082E-05 ), #281, 'distance_accuracy_value', 'NONE');
#78 = EDGE_CURVE ( 'NONE', #330, #353, #134, .T. ) ;
#79 = PRODUCT_DEFINITION_CONTEXT ( 'detailed design', #206, 'design' ) ;
#80 =( LENGTH_UNIT ( ) NAMED_UNIT ( * ) SI_UNIT ( .MILLI., .METRE. ) );
#81 = ADVANCED_FACE ( 'NONE', ( #84 ), #221, .T. ) ;
#82 = VERTEX_POINT ( 'NONE', #59 ) ;
#83 = EDGE_CURVE ( 'NONE', #354, #279, #225, .T. ) ;
#84 = FACE_OUTER_BOUND ( 'NONE', #174, .T. ) ;
#85 =( GEOMETRIC_REPRESENTATION_CONTEXT ( 3 ) GLOBAL_UNCERTAINTY_ASSIGNED_CONTEXT ( ( #139 ) ) GLOBAL_UNIT_ASSIGNED_CONTEXT ( ( #178, #88, #295 ) ) REPRESENTATION_CONTEXT ( 'NONE', 'WORKASPACE' ) );
#86 = PLANE ( 'NONE',  #107 ) ;
#87 = AXIS2_PLACEMENT_3D ( 'NONE', #300, #325, #355 ) ;
#88 =( NAMED_UNIT ( * ) PLANE_ANGLE_UNIT ( ) SI_UNIT ( $, .RADIAN. ) );
#89 = CARTESIAN_POINT ( 'NONE',  ( 3.673940397442059375E-16, 1.000000000000000000, 3.000000000000000000 ) ) ;
#90 = EDGE_LOOP ( 'NONE', ( #120, #242, #141, #159 ) ) ;
#91 = SURFACE_STYLE_USAGE ( .BOTH. , #291 ) ;
#92 =( NAMED_UNIT ( * ) SI_UNIT ( $, .STERADIAN. ) SOLID_ANGLE_UNIT ( ) );
#93 = AXIS2_PLACEMENT_3D ( 'NONE', #37, #277, #157 ) ;
#94 = DIRECTION ( 'NONE',  ( 0.000000000000000000, -1.000000000000000000, -0.000000000000000000 ) ) ;
#95 = ORIENTED_EDGE ( 'NONE', *, *, #166, .T. ) ;
#96 = SURFACE_STYLE_FILL_AREA ( #247 ) ;
#97 = EDGE_CURVE ( 'NONE', #314, #82, #211, .T. ) ;
#98 = SURFACE_STYLE_FILL_AREA ( #103 ) ;
#99 = CARTESIAN_POINT ( 'NONE',  ( 0.000000000000000000, 1.000000000000000000, 0.000000000000000000 ) ) ;
#100 = FILL_AREA_STYLE_COLOUR ( '', #48 ) ;
#101 = ORIENTED_EDGE ( 'NONE', *, *, #20, .T. ) ;
#102 =( GEOMETRIC_REPRESENTATION_CONTEXT ( 3 ) GLOBAL_UNCERTAINTY_ASSIGNED_CONTEXT ( ( #230 ) ) GLOBAL_UNIT_ASSIGNED_CONTEXT ( ( #13, #220, #260 ) ) REPRESENTATION_CONTEXT ( 'NONE', 'WORKASPACE' ) );
#103 = FILL_AREA_STYLE ('',( #360 ) ) ;
#104 = AXIS2_PLACEMENT_3D ( 'NONE', #180, #272, #123 ) ;
#105 = CARTESIAN_POINT ( 'NONE',  ( 0.000000000000000000, 18.00000000000000355, 0.000000000000000000 ) ) ;
#106 =( LENGTH_UNIT ( ) NAMED_UNIT ( * ) SI_UNIT ( .MILLI., .METRE. ) );
#107 = AXIS2_PLACEMENT_3D ( 'NONE', #200, #198, #203 ) ;
#108 = DIRECTION ( 'NONE',  ( -1.444848463910660280E-16, 1.000000000000000000, -0.000000000000000000 ) ) ;
#109 = CARTESIAN_POINT ( 'NONE',  ( -2.999999999999983569, 63.00000000000000000, 0.000000000000000000 ) ) ;
#110 = UNCERTAINTY_MEASURE_WITH_UNIT (LENGTH_MEASURE( 1.000000000000000082E-05 ), #106, 'distance_accuracy_value', 'NONE');
#111 = EDGE_LOOP ( 'NONE', ( #365, #42 ) ) ;
#112 = COLOUR_RGB ( '',1.000000000000000000, 0.000000000000000000, 0.000000000000000000 ) ;
#113 = PRESENTATION_STYLE_ASSIGNMENT (( #62 ) ) ;
#114 = DIRECTION ( 'NONE',  ( 1.000000000000000000, 0.000000000000000000, 0.000000000000000000 ) ) ;
#115 = LINE ( 'NONE', #119, #209 ) ;
#116 = TOROIDAL_SURFACE ( 'NONE', #368, 2.000000000000000000, 1.000000000000000000 ) ;
#117 = MANIFOLD_SOLID_BREP ( 'Revolve - Cutting Edge', #160 ) ;
#118 =( GEOMETRIC_REPRESENTATION_CONTEXT ( 3 ) GLOBAL_UNCERTAINTY_ASSIGNED_CONTEXT ( ( #362 ) ) GLOBAL_UNIT_ASSIGNED_CONTEXT ( ( #164, #132, #8 ) ) REPRESENTATION_CONTEXT ( 'NONE', 'WORKASPACE' ) );
#119 = CARTESIAN_POINT ( 'NONE',  ( 3.673940397442059375E-16, 0.000000000000000000, 2.999999999999999556 ) ) ;
#120 = ORIENTED_EDGE ( 'NONE', *, *, #235, .T. ) ;
#121 = CARTESIAN_POINT ( 'NONE',  ( 0.000000000000000000, 0.000000000000000000, 0.000000000000000000 ) ) ;
#122 = FACE_OUTER_BOUND ( 'NONE', #71, .T. ) ;
#123 = DIRECTION ( 'NONE',  ( 0.000000000000000000, 0.000000000000000000, -1.000000000000000000 ) ) ;
#124 = ORIENTED_EDGE ( 'NONE', *, *, #201, .T. ) ;
#125 = CARTESIAN_POINT ( 'NONE',  ( -2.999999999999970690, 18.00000000000000355, 0.000000000000000000 ) ) ;
#126 = AXIS2_PLACEMENT_3D ( 'NONE', #228, #264, #51 ) ;
#127 = EDGE_CURVE ( 'NONE', #82, #353, #128, .T. ) ;
#128 = CIRCLE ( 'NONE', #161, 2.000000000000000000 ) ;
#129 = CIRCLE ( 'NONE', #143, 2.000000000000000000 ) ;
#130 = DIRECTION ( 'NONE',  ( 1.444848463910660280E-16, -1.000000000000000000, 0.000000000000000000 ) ) ;
#131 = CARTESIAN_POINT ( 'NONE',  ( -2.999999999999980460, 63.00000000000000000, 0.000000000000000000 ) ) ;
#132 =( NAMED_UNIT ( * ) PLANE_ANGLE_UNIT ( ) SI_UNIT ( $, .RADIAN. ) );
#133 = CARTESIAN_POINT ( 'NONE',  ( 0.000000000000000000, 1.000000000000000000, -2.000000000000000000 ) ) ;
#134 = CIRCLE ( 'NONE', #14, 1.000000000000000000 ) ;
#135 = CARTESIAN_POINT ( 'NONE',  ( 0.000000000000000000, 1.000000000000000000, 0.000000000000000000 ) ) ;
#136 = STYLED_ITEM ( 'NONE', ( #256 ), #258 ) ;
#137 =( LENGTH_UNIT ( ) NAMED_UNIT ( * ) SI_UNIT ( .MILLI., .METRE. ) );
#138 = DIRECTION ( 'NONE',  ( -1.000000000000000000, 0.000000000000000000, 0.000000000000000000 ) ) ;
#139 = UNCERTAINTY_MEASURE_WITH_UNIT (LENGTH_MEASURE( 1.000000000000000082E-05 ), #178, 'distance_accuracy_value', 'NONE');
#140 = CARTESIAN_POINT ( 'NONE',  ( 1.409462824231155764E-14, 18.00000000000000355, 0.000000000000000000 ) ) ;
#141 = ORIENTED_EDGE ( 'NONE', *, *, #127, .F. ) ;
#142 = AXIS2_PLACEMENT_3D ( 'NONE', #219, #151, #184 ) ;
#143 = AXIS2_PLACEMENT_3D ( 'NONE', #359, #229, #337 ) ;
#144 = ADVANCED_FACE ( 'NONE', ( #255 ), #86, .T. ) ;
#145 = PRODUCT ( '59570', '59570', '', ( #2 ) ) ;
#146 = ORIENTED_EDGE ( 'NONE', *, *, #78, .F. ) ;
#147 = CARTESIAN_POINT ( 'NONE',  ( 0.000000000000000000, 0.000000000000000000, 0.000000000000000000 ) ) ;
#148 = FILL_AREA_STYLE ('',( #30 ) ) ;
#149 = SURFACE_STYLE_FILL_AREA ( #31 ) ;
#150 = ORIENTED_EDGE ( 'NONE', *, *, #293, .F. ) ;
#151 = DIRECTION ( 'NONE',  ( -0.000000000000000000, -1.000000000000000000, -0.000000000000000000 ) ) ;
#152 = ORIENTED_EDGE ( 'NONE', *, *, #313, .T. ) ;
#153 = DIRECTION ( 'NONE',  ( -0.000000000000000000, -1.000000000000000000, -0.000000000000000000 ) ) ;
#154 = SURFACE_STYLE_FILL_AREA ( #43 ) ;
#155 = ORIENTED_EDGE ( 'NONE', *, *, #194, .T. ) ;
#156 = ADVANCED_FACE ( 'NONE', ( #57 ), #310, .T. ) ;
#157 = DIRECTION ( 'NONE',  ( -1.000000000000000000, 0.000000000000000000, 0.000000000000000000 ) ) ;
#158 = PRESENTATION_STYLE_ASSIGNMENT (( #91 ) ) ;
#159 = ORIENTED_EDGE ( 'NONE', *, *, #97, .F. ) ;
#160 = CLOSED_SHELL ( 'NONE', ( #223, #168, #34, #81, #54, #144 ) ) ;
#161 = AXIS2_PLACEMENT_3D ( 'NONE', #302, #41, #216 ) ;
#162 = CIRCLE ( 'NONE', #212, 2.999999999999984457 ) ;
#163 = SURFACE_STYLE_FILL_AREA ( #307 ) ;
#164 =( LENGTH_UNIT ( ) NAMED_UNIT ( * ) SI_UNIT ( .MILLI., .METRE. ) );
#165 = DIRECTION ( 'NONE',  ( -1.444848463910660280E-16, 1.000000000000000000, -0.000000000000000000 ) ) ;
#166 = EDGE_CURVE ( 'NONE', #290, #314, #61, .T. ) ;
#167 = CARTESIAN_POINT ( 'NONE',  ( 1.409462824231155764E-14, 18.00000000000000355, 0.000000000000000000 ) ) ;
#168 = ADVANCED_FACE ( 'NONE', ( #292 ), #116, .T. ) ;
#169 = CARTESIAN_POINT ( 'NONE',  ( 7.592810154713587074E-15, 63.00000000000000000, 0.000000000000000000 ) ) ;
#170 = MECHANICAL_DESIGN_GEOMETRIC_PRESENTATION_REPRESENTATION (  '', ( #332 ), #85 ) ;
#171 =( GEOMETRIC_REPRESENTATION_CONTEXT ( 3 ) GLOBAL_UNCERTAINTY_ASSIGNED_CONTEXT ( ( #77 ) ) GLOBAL_UNIT_ASSIGNED_CONTEXT ( ( #281, #329, #253 ) ) REPRESENTATION_CONTEXT ( 'NONE', 'WORKASPACE' ) );
#172 = AXIS2_PLACEMENT_3D ( 'NONE', #274, #52, #138 ) ;
#173 = DIRECTION ( 'NONE',  ( -1.444848463910660280E-16, 1.000000000000000000, -0.000000000000000000 ) ) ;
#174 = EDGE_LOOP ( 'NONE', ( #146, #124, #316, #294 ) ) ;
#175 =( NAMED_UNIT ( * ) PLANE_ANGLE_UNIT ( ) SI_UNIT ( $, .RADIAN. ) );
#176 = ORIENTED_EDGE ( 'NONE', *, *, #166, .F. ) ;
#177 = CARTESIAN_POINT ( 'NONE',  ( 0.000000000000000000, 0.000000000000000000, -2.999999999999999556 ) ) ;
#178 =( LENGTH_UNIT ( ) NAMED_UNIT ( * ) SI_UNIT ( .MILLI., .METRE. ) );
#179 = PRESENTATION_LAYER_ASSIGNMENT (  '', '', ( #332 ) ) ;
#180 = CARTESIAN_POINT ( 'NONE',  ( 0.000000000000000000, 1.000000000000000000, 0.000000000000000000 ) ) ;
#181 = COLOUR_RGB ( '',1.000000000000000000, 0.000000000000000000, 0.000000000000000000 ) ;
#182 =( GEOMETRIC_REPRESENTATION_CONTEXT ( 3 ) GLOBAL_UNCERTAINTY_ASSIGNED_CONTEXT ( ( #341 ) ) GLOBAL_UNIT_ASSIGNED_CONTEXT ( ( #80, #284, #196 ) ) REPRESENTATION_CONTEXT ( 'NONE', 'WORKASPACE' ) );
#183 = SURFACE_SIDE_STYLE ('',( #315 ) ) ;
#184 = DIRECTION ( 'NONE',  ( 0.000000000000000000, 0.000000000000000000, -1.000000000000000000 ) ) ;
#185 = DIRECTION ( 'NONE',  ( 1.000000000000000000, 1.444848463910660280E-16, 0.000000000000000000 ) ) ;
#186 = MECHANICAL_DESIGN_GEOMETRIC_PRESENTATION_REPRESENTATION (  '', ( #299 ), #262 ) ;
#187 = SURFACE_SIDE_STYLE ('',( #98 ) ) ;
#188 =( NAMED_UNIT ( * ) PLANE_ANGLE_UNIT ( ) SI_UNIT ( $, .RADIAN. ) );
#189 = DIRECTION ( 'NONE',  ( -1.000000000000000000, 0.000000000000000000, 0.000000000000000000 ) ) ;
#190 = PRESENTATION_STYLE_ASSIGNMENT (( #74 ) ) ;
#191 = LINE ( 'NONE', #131, #67 ) ;
#192 = PRESENTATION_LAYER_ASSIGNMENT (  '', '', ( #136 ) ) ;
#193 = ADVANCED_FACE ( 'NONE', ( #21 ), #33, .F. ) ;
#194 = EDGE_CURVE ( 'NONE', #290, #214, #231, .T. ) ;
#195 = MECHANICAL_DESIGN_GEOMETRIC_PRESENTATION_REPRESENTATION (  '', ( #270 ), #102 ) ;
#196 =( NAMED_UNIT ( * ) SI_UNIT ( $, .STERADIAN. ) SOLID_ANGLE_UNIT ( ) );
#197 = AXIS2_PLACEMENT_3D ( 'NONE', #147, #266, #114 ) ;
#198 = DIRECTION ( 'NONE',  ( 0.000000000000000000, 1.000000000000000000, 0.000000000000000000 ) ) ;
#199 = ORIENTED_EDGE ( 'NONE', *, *, #83, .T. ) ;
#200 = CARTESIAN_POINT ( 'NONE',  ( 0.000000000000000000, 18.00000000000000355, 0.000000000000000000 ) ) ;
#201 = EDGE_CURVE ( 'NONE', #330, #314, #280, .T. ) ;
#202 = DIRECTION ( 'NONE',  ( -0.000000000000000000, -1.000000000000000000, -0.000000000000000000 ) ) ;
#203 = DIRECTION ( 'NONE',  ( 0.000000000000000000, -0.000000000000000000, 1.000000000000000000 ) ) ;
#204 = ORIENTED_EDGE ( 'NONE', *, *, #335, .T. ) ;
#205 = CARTESIAN_POINT ( 'NONE',  ( 0.000000000000000000, 0.000000000000000000, 0.000000000000000000 ) ) ;
#206 = APPLICATION_CONTEXT ( 'automotive_design' ) ;
#207 = FILL_AREA_STYLE ('',( #269 ) ) ;
#208 =( LENGTH_UNIT ( ) NAMED_UNIT ( * ) SI_UNIT ( .MILLI., .METRE. ) );
#209 = VECTOR ( 'NONE', #202, 1000.000000000000000 ) ;
#210 = FACE_OUTER_BOUND ( 'NONE', #55, .T. ) ;
#211 = CIRCLE ( 'NONE', #246, 1.000000000000000000 ) ;
#212 = AXIS2_PLACEMENT_3D ( 'NONE', #140, #25, #257 ) ;
#213 = DIRECTION ( 'NONE',  ( 0.000000000000000000, 0.000000000000000000, -1.000000000000000000 ) ) ;
#214 = VERTEX_POINT ( 'NONE', #243 ) ;
#215 = CARTESIAN_POINT ( 'NONE',  ( 2.999999999999999112, 63.00000000000000000, 0.000000000000000000 ) ) ;
#216 = DIRECTION ( 'NONE',  ( 0.000000000000000000, 0.000000000000000000, -1.000000000000000000 ) ) ;
#217 = DIRECTION ( 'NONE',  ( -1.444848463910660280E-16, 1.000000000000000000, -0.000000000000000000 ) ) ;
#218 = APPLICATION_CONTEXT ( 'automotive_design' ) ;
#219 = CARTESIAN_POINT ( 'NONE',  ( 0.000000000000000000, 1.000000000000000000, 0.000000000000000000 ) ) ;
#220 =( NAMED_UNIT ( * ) PLANE_ANGLE_UNIT ( ) SI_UNIT ( $, .RADIAN. ) );
#221 = TOROIDAL_SURFACE ( 'NONE', #75, 2.000000000000000000, 1.000000000000000000 ) ;
#222 =( NAMED_UNIT ( * ) PLANE_ANGLE_UNIT ( ) SI_UNIT ( $, .RADIAN. ) );
#223 = ADVANCED_FACE ( 'NONE', ( #297 ), #328, .T. ) ;
#224 = AXIS2_PLACEMENT_3D ( 'NONE', #205, #94, #312 ) ;
#225 = CIRCLE ( 'NONE', #19, 2.999999999999991562 ) ;
#226 = UNCERTAINTY_MEASURE_WITH_UNIT (LENGTH_MEASURE( 1.000000000000000082E-05 ), #137, 'distance_accuracy_value', 'NONE');
#227 = SHAPE_DEFINITION_REPRESENTATION ( #338, #283 ) ;
#228 = CARTESIAN_POINT ( 'NONE',  ( 1.409462824231155764E-14, 18.00000000000000355, 0.000000000000000000 ) ) ;
#229 = DIRECTION ( 'NONE',  ( -0.000000000000000000, -1.000000000000000000, -0.000000000000000000 ) ) ;
#230 = UNCERTAINTY_MEASURE_WITH_UNIT (LENGTH_MEASURE( 1.000000000000000082E-05 ), #13, 'distance_accuracy_value', 'NONE');
#231 = CIRCLE ( 'NONE', #87, 2.999999999999999112 ) ;
#232 = ORIENTED_EDGE ( 'NONE', *, *, #27, .T. ) ;
#233 =( LENGTH_UNIT ( ) NAMED_UNIT ( * ) SI_UNIT ( .MILLI., .METRE. ) );
#234 = EDGE_LOOP ( 'NONE', ( #60, #199 ) ) ;
#235 = EDGE_CURVE ( 'NONE', #314, #330, #369, .T. ) ;
#236 = APPLICATION_PROTOCOL_DEFINITION ( 'draft international standard', 'automotive_design', 1998, #206 ) ;
#237 = DIRECTION ( 'NONE',  ( 1.000000000000000000, 0.000000000000000000, -1.224646799147353207E-16 ) ) ;
#238 = STYLED_ITEM ( 'NONE', ( #249 ), #223 ) ;
#239 = PRODUCT_DEFINITION ( 'UNKNOWN', '', #53, #79 ) ;
#240 = DIRECTION ( 'NONE',  ( 0.000000000000000000, 0.000000000000000000, -1.000000000000000000 ) ) ;
#241 = SURFACE_STYLE_FILL_AREA ( #207 ) ;
#242 = ORIENTED_EDGE ( 'NONE', *, *, #78, .T. ) ;
#243 = CARTESIAN_POINT ( 'NONE',  ( 3.673940397442059375E-16, 18.00000000000000355, 2.999999999999999112 ) ) ;
#244 = VERTEX_POINT ( 'NONE', #350 ) ;
#245 = FILL_AREA_STYLE ('',( #38 ) ) ;
#246 = AXIS2_PLACEMENT_3D ( 'NONE', #133, #189, #301 ) ;
#247 = FILL_AREA_STYLE ('',( #11 ) ) ;
#248 = DIRECTION ( 'NONE',  ( 0.000000000000000000, 0.000000000000000000, -1.000000000000000000 ) ) ;
#249 = PRESENTATION_STYLE_ASSIGNMENT (( #349 ) ) ;
#250 = SURFACE_STYLE_USAGE ( .BOTH. , #187 ) ;
#251 = CARTESIAN_POINT ( 'NONE',  ( 0.000000000000000000, 18.00000000000000355, -2.999999999999999112 ) ) ;
#252 = COLOUR_RGB ( '',1.000000000000000000, 0.000000000000000000, 0.000000000000000000 ) ;
#253 =( NAMED_UNIT ( * ) SI_UNIT ( $, .STERADIAN. ) SOLID_ANGLE_UNIT ( ) );
#254 = ADVANCED_FACE ( 'NONE', ( #210 ), #320, .T. ) ;
#255 = FACE_OUTER_BOUND ( 'NONE', #259, .T. ) ;
#256 = PRESENTATION_STYLE_ASSIGNMENT (( #69 ) ) ;
#257 = DIRECTION ( 'NONE',  ( -1.000000000000000000, 0.000000000000000000, 0.000000000000000000 ) ) ;
#258 = MANIFOLD_SOLID_BREP ( 'Revolve - Tool Body (Straight Shanked)', #18 ) ;
#259 = EDGE_LOOP ( 'NONE', ( #271, #150 ) ) ;
#260 =( NAMED_UNIT ( * ) SI_UNIT ( $, .STERADIAN. ) SOLID_ANGLE_UNIT ( ) );
#261 = PRESENTATION_LAYER_ASSIGNMENT (  '', '', ( #287 ) ) ;
#262 =( GEOMETRIC_REPRESENTATION_CONTEXT ( 3 ) GLOBAL_UNCERTAINTY_ASSIGNED_CONTEXT ( ( #309 ) ) GLOBAL_UNIT_ASSIGNED_CONTEXT ( ( #208, #175, #273 ) ) REPRESENTATION_CONTEXT ( 'NONE', 'WORKASPACE' ) );
#263 = EDGE_LOOP ( 'NONE', ( #45, #101, #152, #357 ) ) ;
#264 = DIRECTION ( 'NONE',  ( -1.444848463910660280E-16, 1.000000000000000000, 0.000000000000000000 ) ) ;
#265 = ORIENTED_EDGE ( 'NONE', *, *, #293, .T. ) ;
#266 = DIRECTION ( 'NONE',  ( 0.000000000000000000, 0.000000000000000000, 1.000000000000000000 ) ) ;
#267 = SURFACE_STYLE_FILL_AREA ( #148 ) ;
#268 = SURFACE_SIDE_STYLE ('',( #149 ) ) ;
#269 = FILL_AREA_STYLE_COLOUR ( '', #56 ) ;
#270 = STYLED_ITEM ( 'NONE', ( #190 ), #144 ) ;
#271 = ORIENTED_EDGE ( 'NONE', *, *, #194, .F. ) ;
#272 = DIRECTION ( 'NONE',  ( -0.000000000000000000, -1.000000000000000000, -0.000000000000000000 ) ) ;
#273 =( NAMED_UNIT ( * ) SI_UNIT ( $, .STERADIAN. ) SOLID_ANGLE_UNIT ( ) );
#274 = CARTESIAN_POINT ( 'NONE',  ( 7.592810154713587074E-15, 63.00000000000000000, 0.000000000000000000 ) ) ;
#275 = DIRECTION ( 'NONE',  ( -0.000000000000000000, -1.000000000000000000, -0.000000000000000000 ) ) ;
#276 = MECHANICAL_DESIGN_GEOMETRIC_PRESENTATION_REPRESENTATION (  '', ( #58 ), #311 ) ;
#277 = DIRECTION ( 'NONE',  ( -1.444848463910660280E-16, 1.000000000000000000, -0.000000000000000000 ) ) ;
#278 = EDGE_CURVE ( 'NONE', #279, #354, #35, .T. ) ;
#279 = VERTEX_POINT ( 'NONE', #109 ) ;
#280 = CIRCLE ( 'NONE', #142, 3.000000000000000000 ) ;
#281 =( LENGTH_UNIT ( ) NAMED_UNIT ( * ) SI_UNIT ( .MILLI., .METRE. ) );
#282 = AXIS2_PLACEMENT_3D ( 'NONE', #169, #173, #285 ) ;
#283 = ADVANCED_BREP_SHAPE_REPRESENTATION ( '59570', ( #117, #258, #197 ), #182 ) ;
#284 =( NAMED_UNIT ( * ) PLANE_ANGLE_UNIT ( ) SI_UNIT ( $, .RADIAN. ) );
#285 = DIRECTION ( 'NONE',  ( -1.000000000000000000, 0.000000000000000000, 0.000000000000000000 ) ) ;
#286 = EDGE_CURVE ( 'NONE', #353, #82, #129, .T. ) ;
#287 = STYLED_ITEM ( 'NONE', ( #356 ), #117 ) ;
#288 =( GEOMETRIC_REPRESENTATION_CONTEXT ( 3 ) GLOBAL_UNCERTAINTY_ASSIGNED_CONTEXT ( ( #226 ) ) GLOBAL_UNIT_ASSIGNED_CONTEXT ( ( #137, #50, #333 ) ) REPRESENTATION_CONTEXT ( 'NONE', 'WORKASPACE' ) );
#289 = CARTESIAN_POINT ( 'NONE',  ( 3.061616997868383141E-16, 0.000000000000000000, 2.000000000000000000 ) ) ;
#290 = VERTEX_POINT ( 'NONE', #251 ) ;
#291 = SURFACE_SIDE_STYLE ('',( #241 ) ) ;
#292 = FACE_OUTER_BOUND ( 'NONE', #90, .T. ) ;
#293 = EDGE_CURVE ( 'NONE', #214, #290, #346, .T. ) ;
#294 = ORIENTED_EDGE ( 'NONE', *, *, #286, .F. ) ;
#295 =( NAMED_UNIT ( * ) SI_UNIT ( $, .STERADIAN. ) SOLID_ANGLE_UNIT ( ) );
#296 = VECTOR ( 'NONE', #348, 1000.000000000000000 ) ;
#297 = FACE_OUTER_BOUND ( 'NONE', #318, .T. ) ;
#298 = ORIENTED_EDGE ( 'NONE', *, *, #286, .T. ) ;
#299 = STYLED_ITEM ( 'NONE', ( #158 ), #54 ) ;
#300 = CARTESIAN_POINT ( 'NONE',  ( 0.000000000000000000, 18.00000000000000355, 0.000000000000000000 ) ) ;
#301 = DIRECTION ( 'NONE',  ( 0.000000000000000000, 0.000000000000000000, 1.000000000000000000 ) ) ;
#302 = CARTESIAN_POINT ( 'NONE',  ( 0.000000000000000000, 0.000000000000000000, 0.000000000000000000 ) ) ;
#303 = CARTESIAN_POINT ( 'NONE',  ( 2.999999999999996003, 63.00000000000000000, 3.673940397442045077E-16 ) ) ;
#304 = AXIS2_PLACEMENT_3D ( 'NONE', #167, #336, #5 ) ;
#305 = PRESENTATION_LAYER_ASSIGNMENT (  '', '', ( #270 ) ) ;
#306 = AXIS2_PLACEMENT_3D ( 'NONE', #105, #15, #331 ) ;
#307 = FILL_AREA_STYLE ('',( #100 ) ) ;
#308 = ORIENTED_EDGE ( 'NONE', *, *, #201, .F. ) ;
#309 = UNCERTAINTY_MEASURE_WITH_UNIT (LENGTH_MEASURE( 1.000000000000000082E-05 ), #208, 'distance_accuracy_value', 'NONE');
#310 = CYLINDRICAL_SURFACE ( 'NONE', #282, 2.999999999999988454 ) ;
#311 =( GEOMETRIC_REPRESENTATION_CONTEXT ( 3 ) GLOBAL_UNCERTAINTY_ASSIGNED_CONTEXT ( ( #370 ) ) GLOBAL_UNIT_ASSIGNED_CONTEXT ( ( #233, #188, #92 ) ) REPRESENTATION_CONTEXT ( 'NONE', 'WORKASPACE' ) );
#312 = DIRECTION ( 'NONE',  ( 0.000000000000000000, 0.000000000000000000, -1.000000000000000000 ) ) ;
#313 = EDGE_CURVE ( 'NONE', #28, #279, #191, .T. ) ;
#314 = VERTEX_POINT ( 'NONE', #324 ) ;
#315 = SURFACE_STYLE_FILL_AREA ( #245 ) ;
#316 = ORIENTED_EDGE ( 'NONE', *, *, #97, .T. ) ;
#317 = DIRECTION ( 'NONE',  ( -0.000000000000000000, -1.000000000000000000, -0.000000000000000000 ) ) ;
#318 = EDGE_LOOP ( 'NONE', ( #155, #232, #9, #176 ) ) ;
#319 = MECHANICAL_DESIGN_GEOMETRIC_PRESENTATION_REPRESENTATION (  '', ( #287 ), #171 ) ;
#320 = CYLINDRICAL_SURFACE ( 'NONE', #93, 2.999999999999988454 ) ;
#321 = CARTESIAN_POINT ( 'NONE',  ( 2.449293598294706414E-16, 1.000000000000000000, 2.000000000000000000 ) ) ;
#322 = SURFACE_SIDE_STYLE ('',( #96 ) ) ;
#323 = SURFACE_SIDE_STYLE ('',( #163 ) ) ;
#324 = CARTESIAN_POINT ( 'NONE',  ( 0.000000000000000000, 1.000000000000000000, -3.000000000000000000 ) ) ;
#325 = DIRECTION ( 'NONE',  ( -0.000000000000000000, -1.000000000000000000, -0.000000000000000000 ) ) ;
#326 =( NAMED_UNIT ( * ) SI_UNIT ( $, .STERADIAN. ) SOLID_ANGLE_UNIT ( ) );
#327 = AXIS2_PLACEMENT_3D ( 'NONE', #215, #130, #185 ) ;
#328 = CYLINDRICAL_SURFACE ( 'NONE', #49, 2.999999999999999556 ) ;
#329 =( NAMED_UNIT ( * ) PLANE_ANGLE_UNIT ( ) SI_UNIT ( $, .RADIAN. ) );
#330 = VERTEX_POINT ( 'NONE', #89 ) ;
#331 = DIRECTION ( 'NONE',  ( 0.000000000000000000, 0.000000000000000000, -1.000000000000000000 ) ) ;
#332 = STYLED_ITEM ( 'NONE', ( #64 ), #34 ) ;
#333 =( NAMED_UNIT ( * ) SI_UNIT ( $, .STERADIAN. ) SOLID_ANGLE_UNIT ( ) );
#334 = PRESENTATION_LAYER_ASSIGNMENT (  '', '', ( #40 ) ) ;
#335 = EDGE_CURVE ( 'NONE', #244, #354, #70, .T. ) ;
#336 = DIRECTION ( 'NONE',  ( -1.444848463910660280E-16, 1.000000000000000000, -0.000000000000000000 ) ) ;
#337 = DIRECTION ( 'NONE',  ( 0.000000000000000000, 0.000000000000000000, -1.000000000000000000 ) ) ;
#338 = PRODUCT_DEFINITION_SHAPE ( 'NONE', 'NONE',  #239 ) ;
#339 = PRESENTATION_LAYER_ASSIGNMENT (  '', '', ( #58 ) ) ;
#340 = VECTOR ( 'NONE', #108, 1000.000000000000000 ) ;
#341 = UNCERTAINTY_MEASURE_WITH_UNIT (LENGTH_MEASURE( 1.000000000000000082E-05 ), #80, 'distance_accuracy_value', 'NONE');
#342 = ORIENTED_EDGE ( 'NONE', *, *, #27, .F. ) ;
#343 = DIRECTION ( 'NONE',  ( -1.224646799147353207E-16, 0.000000000000000000, -1.000000000000000000 ) ) ;
#344 = PRESENTATION_LAYER_ASSIGNMENT (  '', '', ( #299 ) ) ;
#345 = EDGE_LOOP ( 'NONE', ( #1, #298 ) ) ;
#346 = CIRCLE ( 'NONE', #306, 2.999999999999999112 ) ;
#347 = SURFACE_STYLE_USAGE ( .BOTH. , #3 ) ;
#348 = DIRECTION ( 'NONE',  ( -0.000000000000000000, -1.000000000000000000, -0.000000000000000000 ) ) ;
#349 = SURFACE_STYLE_USAGE ( .BOTH. , #39 ) ;
#350 = CARTESIAN_POINT ( 'NONE',  ( 2.999999999999999112, 18.00000000000000355, 3.673940397442046556E-16 ) ) ;
#351 = PRESENTATION_LAYER_ASSIGNMENT (  '', '', ( #238 ) ) ;
#352 = CARTESIAN_POINT ( 'NONE',  ( 0.000000000000000000, 0.000000000000000000, 0.000000000000000000 ) ) ;
#353 = VERTEX_POINT ( 'NONE', #289 ) ;
#354 = VERTEX_POINT ( 'NONE', #29 ) ;
#355 = DIRECTION ( 'NONE',  ( 0.000000000000000000, 0.000000000000000000, -1.000000000000000000 ) ) ;
#356 = PRESENTATION_STYLE_ASSIGNMENT (( #250 ) ) ;
#357 = ORIENTED_EDGE ( 'NONE', *, *, #83, .F. ) ;
#358 = COLOUR_RGB ( '',0.7921568627450980005, 0.8196078431372548767, 0.9333333333333333481 ) ;
#359 = CARTESIAN_POINT ( 'NONE',  ( 0.000000000000000000, 0.000000000000000000, 0.000000000000000000 ) ) ;
#360 = FILL_AREA_STYLE_COLOUR ( '', #358 ) ;
#361 = PRODUCT_RELATED_PRODUCT_CATEGORY ( 'part', '', ( #145 ) ) ;
#362 = UNCERTAINTY_MEASURE_WITH_UNIT (LENGTH_MEASURE( 1.000000000000000082E-05 ), #164, 'distance_accuracy_value', 'NONE');
#363 = MECHANICAL_DESIGN_GEOMETRIC_PRESENTATION_REPRESENTATION (  '', ( #238 ), #118 ) ;
#364 = EDGE_CURVE ( 'NONE', #28, #244, #162, .T. ) ;
#365 = ORIENTED_EDGE ( 'NONE', *, *, #364, .F. ) ;
#366 = FILL_AREA_STYLE_COLOUR ( '', #252 ) ;
#367 = CIRCLE ( 'NONE', #304, 2.999999999999984457 ) ;
#368 = AXIS2_PLACEMENT_3D ( 'NONE', #99, #317, #36 ) ;
#369 = CIRCLE ( 'NONE', #104, 3.000000000000000000 ) ;
#370 = UNCERTAINTY_MEASURE_WITH_UNIT (LENGTH_MEASURE( 1.000000000000000082E-05 ), #233, 'distance_accuracy_value', 'NONE');
ENDSEC;
END-ISO-10303-21;
