ISO-10303-21;
HEADER;
FILE_DESCRIPTION (( 'STEP AP214' ),
    '1' );
FILE_NAME ('Micro_AEMM-025-4.STEP',
    '2022-03-15T14:23:51',
    ( '' ),
    ( '' ),
    'SwSTEP 2.0',
    'SolidWorks 2022',
    '' );
FILE_SCHEMA (( 'AUTOMOTIVE_DESIGN' ));
ENDSEC;

DATA;
#1 = EDGE_CURVE ( 'NONE', #225, #103, #261, .T. ) ;
#2 = DIRECTION ( 'NONE',  ( -1.224646799147353207E-16, -0.000000000000000000, -1.000000000000000000 ) ) ;
#3 = LINE ( 'NONE', #21, #160 ) ;
#4 = FACE_OUTER_BOUND ( 'NONE', #177, .T. ) ;
#5 = AXIS2_PLACEMENT_3D ( 'NONE', #208, #2, #91 ) ;
#6 = ADVANCED_FACE ( 'NONE', ( #46 ), #172, .T. ) ;
#7 = FACE_OUTER_BOUND ( 'NONE', #108, .T. ) ;
#8 = DIRECTION ( 'NONE',  ( 0.000000000000000000, 0.000000000000000000, -1.000000000000000000 ) ) ;
#9 = CARTESIAN_POINT ( 'NONE',  ( 2.892860668945878169E-17, 0.000000000000000000, 0.2362200000000000133 ) ) ;
#10 = STYLED_ITEM ( 'NONE', ( #270 ), #98 ) ;
#11 = EDGE_CURVE ( 'NONE', #269, #17, #195, .T. ) ;
#12 = DIRECTION ( 'NONE',  ( 1.000000000000000000, 0.000000000000000000, 0.000000000000000000 ) ) ;
#13 = ORIENTED_EDGE ( 'NONE', *, *, #163, .F. ) ;
#14 = CARTESIAN_POINT ( 'NONE',  ( -0.06374000000000018540, 0.000000000000000000, 1.968503999999999809 ) ) ;
#15 = ORIENTED_EDGE ( 'NONE', *, *, #58, .T. ) ;
#16 = EDGE_CURVE ( 'NONE', #147, #78, #3, .T. ) ;
#17 = VERTEX_POINT ( 'NONE', #299 ) ;
#18 = AXIS2_PLACEMENT_3D ( 'NONE', #278, #258, #49 ) ;
#19 = ORIENTED_EDGE ( 'NONE', *, *, #204, .F. ) ;
#20 =( NAMED_UNIT ( * ) SI_UNIT ( $, .STERADIAN. ) SOLID_ANGLE_UNIT ( ) );
#21 = CARTESIAN_POINT ( 'NONE',  ( 0.04916328750000002745, 0.000000000000000000, 0.2362200000000000133 ) ) ;
#22 = DIRECTION ( 'NONE',  ( 0.000000000000000000, 0.000000000000000000, -1.000000000000000000 ) ) ;
#23 = ADVANCED_FACE ( 'NONE', ( #254 ), #226, .T. ) ;
#24 = EDGE_CURVE ( 'NONE', #131, #296, #66, .T. ) ;
#25 = CARTESIAN_POINT ( 'NONE',  ( -0.04916328749999997888, 6.020766267243608331E-18, 0.2362200000000000133 ) ) ;
#26 = LINE ( 'NONE', #25, #222 ) ;
#27 = CARTESIAN_POINT ( 'NONE',  ( 0.000000000000000000, 0.000000000000000000, 1.968503999999999809 ) ) ;
#28 = SURFACE_SIDE_STYLE ('',( #239 ) ) ;
#29 = AXIS2_PLACEMENT_3D ( 'NONE', #71, #259, #180 ) ;
#30 = COLOUR_RGB ( '',0.7921568627450980005, 0.8196078431372548767, 0.9333333333333333481 ) ;
#31 = DIRECTION ( 'NONE',  ( 0.000000000000000000, 0.000000000000000000, 1.000000000000000000 ) ) ;
#32 = DIRECTION ( 'NONE',  ( -1.224646799147353207E-16, -0.000000000000000000, -1.000000000000000000 ) ) ;
#33 = DIRECTION ( 'NONE',  ( 1.224646799147353207E-16, 0.000000000000000000, 1.000000000000000000 ) ) ;
#34 = AXIS2_PLACEMENT_3D ( 'NONE', #280, #67, #282 ) ;
#35 = ORIENTED_EDGE ( 'NONE', *, *, #24, .F. ) ;
#36 = DIRECTION ( 'NONE',  ( -1.000000000000000000, 0.000000000000000000, 1.224646799147353207E-16 ) ) ;
#37 = EDGE_LOOP ( 'NONE', ( #50, #223 ) ) ;
#38 =( LENGTH_UNIT ( ) NAMED_UNIT ( * ) SI_UNIT ( $, .METRE. ) );
#39 =( NAMED_UNIT ( * ) PLANE_ANGLE_UNIT ( ) SI_UNIT ( $, .RADIAN. ) );
#40 = ORIENTED_EDGE ( 'NONE', *, *, #11, .T. ) ;
#41 =( GEOMETRIC_REPRESENTATION_CONTEXT ( 3 ) GLOBAL_UNCERTAINTY_ASSIGNED_CONTEXT ( ( #158 ) ) GLOBAL_UNIT_ASSIGNED_CONTEXT ( ( #61, #81, #220 ) ) REPRESENTATION_CONTEXT ( 'NONE', 'WORKASPACE' ) );
#42 = CYLINDRICAL_SURFACE ( 'NONE', #146, 0.07874000000000000443 ) ;
#43 = SURFACE_STYLE_FILL_AREA ( #169 ) ;
#44 = CIRCLE ( 'NONE', #267, 0.04916328750000000664 ) ;
#45 = ADVANCED_FACE ( 'NONE', ( #233 ), #255, .T. ) ;
#46 = FACE_OUTER_BOUND ( 'NONE', #189, .T. ) ;
#47 = COLOUR_RGB ( '',0.7921568627450980005, 0.8196078431372548767, 0.9333333333333333481 ) ;
#48 = DIRECTION ( 'NONE',  ( 1.000000000000000000, 0.000000000000000000, 0.000000000000000000 ) ) ;
#49 = DIRECTION ( 'NONE',  ( 1.000000000000000000, 0.000000000000000000, 0.000000000000000000 ) ) ;
#50 = ORIENTED_EDGE ( 'NONE', *, *, #1, .T. ) ;
#51 = PRODUCT_DEFINITION_CONTEXT ( 'detailed design', #264, 'design' ) ;
#52 = CYLINDRICAL_SURFACE ( 'NONE', #113, 0.07874000000000000443 ) ;
#53 = DIRECTION ( 'NONE',  ( 1.000000000000000000, 0.000000000000000000, 0.000000000000000000 ) ) ;
#54 = EDGE_CURVE ( 'NONE', #78, #246, #83, .T. ) ;
#55 = CARTESIAN_POINT ( 'NONE',  ( 0.04916328749999999276, 6.020766267243607560E-18, -9.478001694819074349E-34 ) ) ;
#56 = ORIENTED_EDGE ( 'NONE', *, *, #232, .F. ) ;
#57 = DIRECTION ( 'NONE',  ( -1.000000000000000000, 0.000000000000000000, 0.000000000000000000 ) ) ;
#58 = EDGE_CURVE ( 'NONE', #17, #269, #100, .T. ) ;
#59 =( LENGTH_UNIT ( ) NAMED_UNIT ( * ) SI_UNIT ( $, .METRE. ) );
#60 = ORIENTED_EDGE ( 'NONE', *, *, #65, .T. ) ;
#61 =( CONVERSION_BASED_UNIT ( 'INCH', #224 ) LENGTH_UNIT ( ) NAMED_UNIT ( #272 ) );
#62 = ORIENTED_EDGE ( 'NONE', *, *, #271, .T. ) ;
#63 = DIRECTION ( 'NONE',  ( 1.000000000000000000, 0.000000000000000000, -0.000000000000000000 ) ) ;
#64 = LENGTH_MEASURE_WITH_UNIT ( LENGTH_MEASURE( 0.02539999999999999897 ), #250 );
#65 = EDGE_CURVE ( 'NONE', #253, #246, #26, .T. ) ;
#66 = CIRCLE ( 'NONE', #106, 0.04916328749999999276 ) ;
#67 = DIRECTION ( 'NONE',  ( 1.224646799147353207E-16, 0.000000000000000000, 1.000000000000000000 ) ) ;
#68 = DIRECTION ( 'NONE',  ( -1.224646799147353207E-16, -0.000000000000000000, -1.000000000000000000 ) ) ;
#69 = AXIS2_PLACEMENT_3D ( 'NONE', #110, #199, #48 ) ;
#70 = DIRECTION ( 'NONE',  ( 0.000000000000000000, 0.000000000000000000, -1.000000000000000000 ) ) ;
#71 = CARTESIAN_POINT ( 'NONE',  ( 0.000000000000000000, 0.000000000000000000, 1.968503999999999809 ) ) ;
#72 = FILL_AREA_STYLE_COLOUR ( '', #30 ) ;
#73 = ADVANCED_FACE ( 'NONE', ( #4 ), #94, .F. ) ;
#74 = CARTESIAN_POINT ( 'NONE',  ( 2.892860668945878169E-17, 0.000000000000000000, 0.2362200000000000133 ) ) ;
#75 = AXIS2_PLACEMENT_3D ( 'NONE', #151, #22, #182 ) ;
#76 = LINE ( 'NONE', #14, #124 ) ;
#77 = CARTESIAN_POINT ( 'NONE',  ( -0.07874000000000000443, 0.000000000000000000, 1.953504000000000129 ) ) ;
#78 = VERTEX_POINT ( 'NONE', #148 ) ;
#79 = CARTESIAN_POINT ( 'NONE',  ( -0.07873999999999994892, 0.000000000000000000, 0.4039578718853090167 ) ) ;
#80 = AXIS2_PLACEMENT_3D ( 'NONE', #242, #97, #188 ) ;
#81 =( NAMED_UNIT ( * ) PLANE_ANGLE_UNIT ( ) SI_UNIT ( $, .RADIAN. ) );
#82 = ORIENTED_EDGE ( 'NONE', *, *, #271, .F. ) ;
#83 = CIRCLE ( 'NONE', #18, 0.07874000000000000443 ) ;
#84 = DIRECTION ( 'NONE',  ( 1.000000000000000000, 0.000000000000000000, -0.000000000000000000 ) ) ;
#85 = AXIS2_PLACEMENT_3D ( 'NONE', #149, #227, #87 ) ;
#86 = APPLICATION_PROTOCOL_DEFINITION ( 'draft international standard', 'automotive_design', 1998, #291 ) ;
#87 = DIRECTION ( 'NONE',  ( 1.000000000000000000, 0.000000000000000000, 0.000000000000000000 ) ) ;
#88 = CLOSED_SHELL ( 'NONE', ( #156, #201, #175, #96, #176, #23, #45, #6, #257, #73 ) ) ;
#89 = AXIS2_PLACEMENT_3D ( 'NONE', #143, #289, #162 ) ;
#90 = CARTESIAN_POINT ( 'NONE',  ( 0.000000000000000000, 0.000000000000000000, 0.000000000000000000 ) ) ;
#91 = DIRECTION ( 'NONE',  ( -1.000000000000000000, 0.000000000000000000, 0.000000000000000000 ) ) ;
#92 = DIRECTION ( 'NONE',  ( 0.000000000000000000, 0.000000000000000000, 1.000000000000000000 ) ) ;
#93 = PRESENTATION_LAYER_ASSIGNMENT (  '', '', ( #10 ) ) ;
#94 = PLANE ( 'NONE',  #167 ) ;
#95 = CARTESIAN_POINT ( 'NONE',  ( -0.06374000000000018540, 0.000000000000000000, 1.968503999999999809 ) ) ;
#96 = ADVANCED_FACE ( 'NONE', ( #251 ), #42, .T. ) ;
#97 = DIRECTION ( 'NONE',  ( -1.224646799147353207E-16, -0.000000000000000000, -1.000000000000000000 ) ) ;
#98 = ADVANCED_BREP_SHAPE_REPRESENTATION ( 'Micro_AEMM-025-4', ( #277, #85 ), #41 ) ;
#99 = CARTESIAN_POINT ( 'NONE',  ( -0.04916328750000000664, 0.000000000000000000, 6.020766267243608331E-18 ) ) ;
#100 = CIRCLE ( 'NONE', #75, 0.07874000000000000443 ) ;
#101 = EDGE_LOOP ( 'NONE', ( #40, #294, #194, #165 ) ) ;
#102 = LINE ( 'NONE', #166, #207 ) ;
#103 = VERTEX_POINT ( 'NONE', #114 ) ;
#104 = DIRECTION ( 'NONE',  ( -1.000000000000000000, 0.000000000000000000, 0.000000000000000000 ) ) ;
#105 = ORIENTED_EDGE ( 'NONE', *, *, #119, .T. ) ;
#106 = AXIS2_PLACEMENT_3D ( 'NONE', #134, #68, #155 ) ;
#107 = MECHANICAL_DESIGN_GEOMETRIC_PRESENTATION_REPRESENTATION (  '', ( #10 ), #236 ) ;
#108 = EDGE_LOOP ( 'NONE', ( #219, #62, #13, #56 ) ) ;
#109 = EDGE_LOOP ( 'NONE', ( #205, #60, #244, #216 ) ) ;
#110 = CARTESIAN_POINT ( 'NONE',  ( 0.000000000000000000, 0.000000000000000000, 1.953504000000000129 ) ) ;
#111 = APPLICATION_PROTOCOL_DEFINITION ( 'draft international standard', 'automotive_design', 1998, #264 ) ;
#112 = CARTESIAN_POINT ( 'NONE',  ( 0.000000000000000000, 0.000000000000000000, 1.968503999999999809 ) ) ;
#113 = AXIS2_PLACEMENT_3D ( 'NONE', #287, #138, #104 ) ;
#114 = CARTESIAN_POINT ( 'NONE',  ( 0.06374000000000018540, 8.724383797125754882E-18, 1.968503999999999809 ) ) ;
#115 = ORIENTED_EDGE ( 'NONE', *, *, #163, .T. ) ;
#116 = DIRECTION ( 'NONE',  ( -0.1736481776669311639, 2.126576849575782392E-17, 0.9848077530122080203 ) ) ;
#117 = AXIS2_PLACEMENT_3D ( 'NONE', #212, #31, #184 ) ;
#118 = DIRECTION ( 'NONE',  ( -0.000000000000000000, -0.000000000000000000, -1.000000000000000000 ) ) ;
#119 = EDGE_CURVE ( 'NONE', #147, #253, #202, .T. ) ;
#120 = EDGE_CURVE ( 'NONE', #246, #78, #256, .T. ) ;
#121 = DIRECTION ( 'NONE',  ( -1.000000000000000000, 0.000000000000000000, 0.000000000000000000 ) ) ;
#122 = CARTESIAN_POINT ( 'NONE',  ( 0.000000000000000000, 0.000000000000000000, 1.968503999999999809 ) ) ;
#123 = FACE_OUTER_BOUND ( 'NONE', #209, .T. ) ;
#124 = VECTOR ( 'NONE', #192, 39.37007874015748854 ) ;
#125 = CARTESIAN_POINT ( 'NONE',  ( 7.373312137594241536E-34, 0.000000000000000000, 6.020766267243607560E-18 ) ) ;
#126 = EDGE_LOOP ( 'NONE', ( #157, #240, #197, #153 ) ) ;
#127 = DIMENSIONAL_EXPONENTS ( 1.000000000000000000, 0.000000000000000000, 0.000000000000000000, 0.000000000000000000, 0.000000000000000000, 0.000000000000000000, 0.000000000000000000 ) ;
#128 = EDGE_CURVE ( 'NONE', #269, #246, #214, .T. ) ;
#129 = VECTOR ( 'NONE', #139, 39.37007874015748143 ) ;
#130 =( NAMED_UNIT ( * ) PLANE_ANGLE_UNIT ( ) SI_UNIT ( $, .RADIAN. ) );
#131 = VERTEX_POINT ( 'NONE', #55 ) ;
#132 = FILL_AREA_STYLE_COLOUR ( '', #47 ) ;
#133 = DIRECTION ( 'NONE',  ( -0.000000000000000000, -0.000000000000000000, -1.000000000000000000 ) ) ;
#134 = CARTESIAN_POINT ( 'NONE',  ( 7.373312137594241536E-34, 0.000000000000000000, 6.020766267243607560E-18 ) ) ;
#135 = ORIENTED_EDGE ( 'NONE', *, *, #232, .T. ) ;
#136 = DIRECTION ( 'NONE',  ( 0.7071067811865502373, 8.659560562354966138E-17, -0.7071067811865446862 ) ) ;
#137 = AXIS2_PLACEMENT_3D ( 'NONE', #9, #33, #12 ) ;
#138 = DIRECTION ( 'NONE',  ( -0.000000000000000000, -0.000000000000000000, -1.000000000000000000 ) ) ;
#139 = DIRECTION ( 'NONE',  ( -0.000000000000000000, -0.000000000000000000, -1.000000000000000000 ) ) ;
#140 = DIRECTION ( 'NONE',  ( -1.224646799147353207E-16, -0.000000000000000000, -1.000000000000000000 ) ) ;
#141 = ORIENTED_EDGE ( 'NONE', *, *, #16, .T. ) ;
#142 = PRODUCT_RELATED_PRODUCT_CATEGORY ( 'part', '', ( #231 ) ) ;
#143 = CARTESIAN_POINT ( 'NONE',  ( 0.000000000000000000, 0.000000000000000000, 0.000000000000000000 ) ) ;
#144 = SURFACE_SIDE_STYLE ('',( #43 ) ) ;
#145 = ORIENTED_EDGE ( 'NONE', *, *, #54, .T. ) ;
#146 = AXIS2_PLACEMENT_3D ( 'NONE', #112, #133, #228 ) ;
#147 = VERTEX_POINT ( 'NONE', #183 ) ;
#148 = CARTESIAN_POINT ( 'NONE',  ( 0.07874000000000004607, 9.642868896486264672E-18, 0.4039578718853090167 ) ) ;
#149 = CARTESIAN_POINT ( 'NONE',  ( 0.000000000000000000, 0.000000000000000000, 0.000000000000000000 ) ) ;
#150 = CIRCLE ( 'NONE', #279, 0.04916328749999999276 ) ;
#151 = CARTESIAN_POINT ( 'NONE',  ( 0.000000000000000000, 0.000000000000000000, 1.953504000000000129 ) ) ;
#152 = PRODUCT_CONTEXT ( 'NONE', #291, 'mechanical' ) ;
#153 = ORIENTED_EDGE ( 'NONE', *, *, #58, .F. ) ;
#154 = CONICAL_SURFACE ( 'NONE', #247, 0.06374000000000018540, 0.7853981633974522758 ) ;
#155 = DIRECTION ( 'NONE',  ( -1.000000000000000000, 0.000000000000000000, 1.224646799147353207E-16 ) ) ;
#156 = ADVANCED_FACE ( 'NONE', ( #7 ), #260, .T. ) ;
#157 = ORIENTED_EDGE ( 'NONE', *, *, #274, .F. ) ;
#158 = UNCERTAINTY_MEASURE_WITH_UNIT (LENGTH_MEASURE( 1.000000000000000082E-05 ), #61, 'distance_accuracy_value', 'NONE');
#159 = LINE ( 'NONE', #237, #174 ) ;
#160 = VECTOR ( 'NONE', #210, 39.37007874015748143 ) ;
#161 = LINE ( 'NONE', #99, #186 ) ;
#162 = DIRECTION ( 'NONE',  ( -1.000000000000000000, 0.000000000000000000, 1.224646799147353207E-16 ) ) ;
#163 = EDGE_CURVE ( 'NONE', #296, #131, #150, .T. ) ;
#164 = DIRECTION ( 'NONE',  ( -1.224646799147353207E-16, -0.000000000000000000, -1.000000000000000000 ) ) ;
#165 = ORIENTED_EDGE ( 'NONE', *, *, #128, .F. ) ;
#166 = CARTESIAN_POINT ( 'NONE',  ( 0.06374000000000018540, 7.805898697765251255E-18, 1.968503999999999809 ) ) ;
#167 = AXIS2_PLACEMENT_3D ( 'NONE', #90, #173, #63 ) ;
#168 = ORIENTED_EDGE ( 'NONE', *, *, #54, .F. ) ;
#169 = FILL_AREA_STYLE ('',( #132 ) ) ;
#170 = ORIENTED_EDGE ( 'NONE', *, *, #24, .T. ) ;
#171 = ORIENTED_EDGE ( 'NONE', *, *, #187, .F. ) ;
#172 = CONICAL_SURFACE ( 'NONE', #34, 0.04916328750000000664, 0.1745329251994338360 ) ;
#173 = DIRECTION ( 'NONE',  ( 0.000000000000000000, 0.000000000000000000, 1.000000000000000000 ) ) ;
#174 = VECTOR ( 'NONE', #118, 39.37007874015748143 ) ;
#175 = ADVANCED_FACE ( 'NONE', ( #268 ), #154, .T. ) ;
#176 = ADVANCED_FACE ( 'NONE', ( #123 ), #52, .T. ) ;
#177 = EDGE_LOOP ( 'NONE', ( #115, #170 ) ) ;
#178 = CARTESIAN_POINT ( 'NONE',  ( 4.947057147947202128E-17, 0.000000000000000000, 0.4039578718853090167 ) ) ;
#179 = SHAPE_DEFINITION_REPRESENTATION ( #185, #98 ) ;
#180 = DIRECTION ( 'NONE',  ( 1.000000000000000000, 0.000000000000000000, 0.000000000000000000 ) ) ;
#181 = PRODUCT_DEFINITION_FORMATION_WITH_SPECIFIED_SOURCE ( 'ANY', '', #231, .NOT_KNOWN. ) ;
#182 = DIRECTION ( 'NONE',  ( 1.000000000000000000, 0.000000000000000000, 0.000000000000000000 ) ) ;
#183 = CARTESIAN_POINT ( 'NONE',  ( 0.04916328750000002745, 0.000000000000000000, 0.2362200000000000133 ) ) ;
#184 = DIRECTION ( 'NONE',  ( 1.000000000000000000, 0.000000000000000000, 0.000000000000000000 ) ) ;
#185 = PRODUCT_DEFINITION_SHAPE ( 'NONE', 'NONE',  #213 ) ;
#186 = VECTOR ( 'NONE', #293, 39.37007874015748143 ) ;
#187 = EDGE_CURVE ( 'NONE', #225, #269, #76, .T. ) ;
#188 = DIRECTION ( 'NONE',  ( -1.000000000000000000, 0.000000000000000000, 1.224646799147353207E-16 ) ) ;
#189 = EDGE_LOOP ( 'NONE', ( #243, #221, #141, #145 ) ) ;
#190 = CARTESIAN_POINT ( 'NONE',  ( -0.04916328749999999276, 0.000000000000000000, 1.204153253448721512E-17 ) ) ;
#191 = EDGE_LOOP ( 'NONE', ( #19, #275, #284, #171 ) ) ;
#192 = DIRECTION ( 'NONE',  ( -0.7071067811865502373, 0.000000000000000000, -0.7071067811865446862 ) ) ;
#193 = EDGE_CURVE ( 'NONE', #17, #78, #159, .T. ) ;
#194 = ORIENTED_EDGE ( 'NONE', *, *, #120, .F. ) ;
#195 = CIRCLE ( 'NONE', #69, 0.07874000000000000443 ) ;
#196 = AXIS2_PLACEMENT_3D ( 'NONE', #27, #70, #230 ) ;
#197 = ORIENTED_EDGE ( 'NONE', *, *, #187, .T. ) ;
#198 = ORIENTED_EDGE ( 'NONE', *, *, #128, .T. ) ;
#199 = DIRECTION ( 'NONE',  ( 0.000000000000000000, 0.000000000000000000, -1.000000000000000000 ) ) ;
#200 = DIMENSIONAL_EXPONENTS ( 1.000000000000000000, 0.000000000000000000, 0.000000000000000000, 0.000000000000000000, 0.000000000000000000, 0.000000000000000000, 0.000000000000000000 ) ;
#201 = ADVANCED_FACE ( 'NONE', ( #217 ), #288, .T. ) ;
#202 = CIRCLE ( 'NONE', #5, 0.04916328750000000664 ) ;
#203 =( NAMED_UNIT ( * ) SI_UNIT ( $, .STERADIAN. ) SOLID_ANGLE_UNIT ( ) );
#204 = EDGE_CURVE ( 'NONE', #103, #225, #276, .T. ) ;
#205 = ORIENTED_EDGE ( 'NONE', *, *, #218, .F. ) ;
#206 = AXIS2_PLACEMENT_3D ( 'NONE', #297, #92, #84 ) ;
#207 = VECTOR ( 'NONE', #136, 39.37007874015748854 ) ;
#208 = CARTESIAN_POINT ( 'NONE',  ( 2.892860668945878169E-17, 0.000000000000000000, 0.2362200000000000133 ) ) ;
#209 = EDGE_LOOP ( 'NONE', ( #290, #15, #198, #168 ) ) ;
#210 = DIRECTION ( 'NONE',  ( 0.1736481776669313304, 0.000000000000000000, 0.9848077530122077983 ) ) ;
#211 = PRESENTATION_STYLE_ASSIGNMENT (( #292 ) ) ;
#212 = CARTESIAN_POINT ( 'NONE',  ( 0.000000000000000000, 0.000000000000000000, 1.968503999999999809 ) ) ;
#213 = PRODUCT_DEFINITION ( 'UNKNOWN', '', #181, #51 ) ;
#214 = LINE ( 'NONE', #266, #129 ) ;
#215 = CARTESIAN_POINT ( 'NONE',  ( 0.04916328750000000664, 6.020766267243608331E-18, -6.020766267243608331E-18 ) ) ;
#216 = ORIENTED_EDGE ( 'NONE', *, *, #16, .F. ) ;
#217 = FACE_OUTER_BOUND ( 'NONE', #109, .T. ) ;
#218 = EDGE_CURVE ( 'NONE', #253, #147, #44, .T. ) ;
#219 = ORIENTED_EDGE ( 'NONE', *, *, #218, .T. ) ;
#220 =( NAMED_UNIT ( * ) SI_UNIT ( $, .STERADIAN. ) SOLID_ANGLE_UNIT ( ) );
#221 = ORIENTED_EDGE ( 'NONE', *, *, #119, .F. ) ;
#222 = VECTOR ( 'NONE', #116, 39.37007874015747433 ) ;
#223 = ORIENTED_EDGE ( 'NONE', *, *, #204, .T. ) ;
#224 = LENGTH_MEASURE_WITH_UNIT ( LENGTH_MEASURE( 0.02539999999999999897 ), #59 );
#225 = VERTEX_POINT ( 'NONE', #95 ) ;
#226 = PLANE ( 'NONE',  #206 ) ;
#227 = DIRECTION ( 'NONE',  ( 0.000000000000000000, 0.000000000000000000, 1.000000000000000000 ) ) ;
#228 = DIRECTION ( 'NONE',  ( -1.000000000000000000, 0.000000000000000000, 0.000000000000000000 ) ) ;
#229 = PRESENTATION_LAYER_ASSIGNMENT (  '', '', ( #262 ) ) ;
#230 = DIRECTION ( 'NONE',  ( -1.000000000000000000, 0.000000000000000000, 0.000000000000000000 ) ) ;
#231 = PRODUCT ( 'Micro_AEMM-025-4', 'Micro_AEMM-025-4', '', ( #152 ) ) ;
#232 = EDGE_CURVE ( 'NONE', #253, #296, #161, .T. ) ;
#233 = FACE_OUTER_BOUND ( 'NONE', #126, .T. ) ;
#234 = FILL_AREA_STYLE ('',( #72 ) ) ;
#235 = UNCERTAINTY_MEASURE_WITH_UNIT (LENGTH_MEASURE( 1.000000000000000082E-05 ), #245, 'distance_accuracy_value', 'NONE');
#236 =( GEOMETRIC_REPRESENTATION_CONTEXT ( 3 ) GLOBAL_UNCERTAINTY_ASSIGNED_CONTEXT ( ( #235 ) ) GLOBAL_UNIT_ASSIGNED_CONTEXT ( ( #245, #39, #203 ) ) REPRESENTATION_CONTEXT ( 'NONE', 'WORKASPACE' ) );
#237 = CARTESIAN_POINT ( 'NONE',  ( 0.07874000000000000443, 9.642868896486258509E-18, 1.968503999999999809 ) ) ;
#238 = CYLINDRICAL_SURFACE ( 'NONE', #89, 0.04916328750000000664 ) ;
#239 = SURFACE_STYLE_FILL_AREA ( #234 ) ;
#240 = ORIENTED_EDGE ( 'NONE', *, *, #1, .F. ) ;
#241 = MECHANICAL_DESIGN_GEOMETRIC_PRESENTATION_REPRESENTATION (  '', ( #262 ), #283 ) ;
#242 = CARTESIAN_POINT ( 'NONE',  ( 0.000000000000000000, 0.000000000000000000, 0.000000000000000000 ) ) ;
#243 = ORIENTED_EDGE ( 'NONE', *, *, #65, .F. ) ;
#244 = ORIENTED_EDGE ( 'NONE', *, *, #120, .T. ) ;
#245 =( CONVERSION_BASED_UNIT ( 'INCH', #64 ) LENGTH_UNIT ( ) NAMED_UNIT ( #127 ) );
#246 = VERTEX_POINT ( 'NONE', #79 ) ;
#247 = AXIS2_PLACEMENT_3D ( 'NONE', #122, #8, #121 ) ;
#248 = LENGTH_MEASURE_WITH_UNIT ( LENGTH_MEASURE( 0.02539999999999999897 ), #38 );
#249 = EDGE_LOOP ( 'NONE', ( #82, #105, #135, #35 ) ) ;
#250 =( LENGTH_UNIT ( ) NAMED_UNIT ( * ) SI_UNIT ( $, .METRE. ) );
#251 = FACE_OUTER_BOUND ( 'NONE', #101, .T. ) ;
#252 = AXIS2_PLACEMENT_3D ( 'NONE', #178, #281, #53 ) ;
#253 = VERTEX_POINT ( 'NONE', #286 ) ;
#254 = FACE_OUTER_BOUND ( 'NONE', #37, .T. ) ;
#255 = CONICAL_SURFACE ( 'NONE', #196, 0.06374000000000018540, 0.7853981633974522758 ) ;
#256 = CIRCLE ( 'NONE', #252, 0.07874000000000000443 ) ;
#257 = ADVANCED_FACE ( 'NONE', ( #263 ), #238, .T. ) ;
#258 = DIRECTION ( 'NONE',  ( -1.224646799147353207E-16, -0.000000000000000000, -1.000000000000000000 ) ) ;
#259 = DIRECTION ( 'NONE',  ( 0.000000000000000000, 0.000000000000000000, 1.000000000000000000 ) ) ;
#260 = CYLINDRICAL_SURFACE ( 'NONE', #80, 0.04916328750000000664 ) ;
#261 = CIRCLE ( 'NONE', #29, 0.06374000000000018540 ) ;
#262 = STYLED_ITEM ( 'NONE', ( #211 ), #277 ) ;
#263 = FACE_OUTER_BOUND ( 'NONE', #249, .T. ) ;
#264 = APPLICATION_CONTEXT ( 'automotive_design' ) ;
#265 = LINE ( 'NONE', #215, #298 ) ;
#266 = CARTESIAN_POINT ( 'NONE',  ( -0.07874000000000000443, 0.000000000000000000, 1.968503999999999809 ) ) ;
#267 = AXIS2_PLACEMENT_3D ( 'NONE', #74, #164, #57 ) ;
#268 = FACE_OUTER_BOUND ( 'NONE', #191, .T. ) ;
#269 = VERTEX_POINT ( 'NONE', #77 ) ;
#270 = PRESENTATION_STYLE_ASSIGNMENT (( #273 ) ) ;
#271 = EDGE_CURVE ( 'NONE', #147, #131, #265, .T. ) ;
#272 = DIMENSIONAL_EXPONENTS ( 1.000000000000000000, 0.000000000000000000, 0.000000000000000000, 0.000000000000000000, 0.000000000000000000, 0.000000000000000000, 0.000000000000000000 ) ;
#273 = SURFACE_STYLE_USAGE ( .BOTH. , #144 ) ;
#274 = EDGE_CURVE ( 'NONE', #103, #17, #102, .T. ) ;
#275 = ORIENTED_EDGE ( 'NONE', *, *, #274, .T. ) ;
#276 = CIRCLE ( 'NONE', #117, 0.06374000000000018540 ) ;
#277 = MANIFOLD_SOLID_BREP ( 'Cut-Revolve1', #88 ) ;
#278 = CARTESIAN_POINT ( 'NONE',  ( 4.947057147947202128E-17, 0.000000000000000000, 0.4039578718853090167 ) ) ;
#279 = AXIS2_PLACEMENT_3D ( 'NONE', #125, #32, #36 ) ;
#280 = CARTESIAN_POINT ( 'NONE',  ( 2.892860668945878169E-17, 0.000000000000000000, 0.2362200000000000133 ) ) ;
#281 = DIRECTION ( 'NONE',  ( -1.224646799147353207E-16, -0.000000000000000000, -1.000000000000000000 ) ) ;
#282 = DIRECTION ( 'NONE',  ( 1.000000000000000000, 0.000000000000000000, 0.000000000000000000 ) ) ;
#283 =( GEOMETRIC_REPRESENTATION_CONTEXT ( 3 ) GLOBAL_UNCERTAINTY_ASSIGNED_CONTEXT ( ( #285 ) ) GLOBAL_UNIT_ASSIGNED_CONTEXT ( ( #295, #130, #20 ) ) REPRESENTATION_CONTEXT ( 'NONE', 'WORKASPACE' ) );
#284 = ORIENTED_EDGE ( 'NONE', *, *, #11, .F. ) ;
#285 = UNCERTAINTY_MEASURE_WITH_UNIT (LENGTH_MEASURE( 1.000000000000000082E-05 ), #295, 'distance_accuracy_value', 'NONE');
#286 = CARTESIAN_POINT ( 'NONE',  ( -0.04916328749999997888, 7.831817581864934190E-18, 0.2362200000000000133 ) ) ;
#287 = CARTESIAN_POINT ( 'NONE',  ( 0.000000000000000000, 0.000000000000000000, 1.968503999999999809 ) ) ;
#288 = CONICAL_SURFACE ( 'NONE', #137, 0.04916328750000000664, 0.1745329251994338360 ) ;
#289 = DIRECTION ( 'NONE',  ( -1.224646799147353207E-16, -0.000000000000000000, -1.000000000000000000 ) ) ;
#290 = ORIENTED_EDGE ( 'NONE', *, *, #193, .F. ) ;
#291 = APPLICATION_CONTEXT ( 'automotive_design' ) ;
#292 = SURFACE_STYLE_USAGE ( .BOTH. , #28 ) ;
#293 = DIRECTION ( 'NONE',  ( -1.224646799147353207E-16, -0.000000000000000000, -1.000000000000000000 ) ) ;
#294 = ORIENTED_EDGE ( 'NONE', *, *, #193, .T. ) ;
#295 =( CONVERSION_BASED_UNIT ( 'INCH', #248 ) LENGTH_UNIT ( ) NAMED_UNIT ( #200 ) );
#296 = VERTEX_POINT ( 'NONE', #190 ) ;
#297 = CARTESIAN_POINT ( 'NONE',  ( 0.000000000000000000, 0.000000000000000000, 1.968503999999999809 ) ) ;
#298 = VECTOR ( 'NONE', #140, 39.37007874015748143 ) ;
#299 = CARTESIAN_POINT ( 'NONE',  ( 0.07874000000000000443, 9.642868896486258509E-18, 1.953504000000000129 ) ) ;
ENDSEC;
END-ISO-10303-21;
