ISO-10303-21;
HEADER;
FILE_DESCRIPTION (( 'STEP AP214' ),
    '1' );
FILE_NAME ('44122W.STEP',
    '2023-06-22T19:23:24',
    ( '' ),
    ( '' ),
    'SwSTEP 2.0',
    'SolidWorks 2023',
    '' );
FILE_SCHEMA (( 'AUTOMOTIVE_DESIGN' ));
ENDSEC;

DATA;
#1 = DIMENSIONAL_EXPONENTS ( 1.000000000000000000, 0.000000000000000000, 0.000000000000000000, 0.000000000000000000, 0.000000000000000000, 0.000000000000000000, 0.000000000000000000 ) ;
#2 = CARTESIAN_POINT ( 'NONE',  ( 0.000000000000000000, 0.000000000000000000, -0.1250000000000000278 ) ) ;
#3 = ORIENTED_EDGE ( 'NONE', *, *, #295, .F. ) ;
#4 = CARTESIAN_POINT ( 'NONE',  ( 0.1250000000000000000, 2.500000000000000000, 0.000000000000000000 ) ) ;
#5 = ORIENTED_EDGE ( 'NONE', *, *, #31, .T. ) ;
#6 = SURFACE_STYLE_FILL_AREA ( #284 ) ;
#7 = ORIENTED_EDGE ( 'NONE', *, *, #304, .T. ) ;
#8 = SURFACE_STYLE_USAGE ( .BOTH. , #220 ) ;
#9 =( CONVERSION_BASED_UNIT ( 'INCH', #100 ) LENGTH_UNIT ( ) NAMED_UNIT ( #187 ) );
#10 = SURFACE_SIDE_STYLE ('',( #246 ) ) ;
#11 = AXIS2_PLACEMENT_3D ( 'NONE', #224, #249, #201 ) ;
#12 = CARTESIAN_POINT ( 'NONE',  ( -6.123233995736766036E-17, 2.500000000000000000, 0.000000000000000000 ) ) ;
#13 = CARTESIAN_POINT ( 'NONE',  ( 0.000000000000000000, 0.000000000000000000, 0.000000000000000000 ) ) ;
#14 =( GEOMETRIC_REPRESENTATION_CONTEXT ( 3 ) GLOBAL_UNCERTAINTY_ASSIGNED_CONTEXT ( ( #277 ) ) GLOBAL_UNIT_ASSIGNED_CONTEXT ( ( #71, #48, #151 ) ) REPRESENTATION_CONTEXT ( 'NONE', 'WORKASPACE' ) );
#15 = CIRCLE ( 'NONE', #205, 0.1250000000000000000 ) ;
#16 = EDGE_CURVE ( 'NONE', #98, #165, #24, .T. ) ;
#17 = ORIENTED_EDGE ( 'NONE', *, *, #31, .F. ) ;
#18 = PRESENTATION_STYLE_ASSIGNMENT (( #207 ) ) ;
#19 = CARTESIAN_POINT ( 'NONE',  ( 0.000000000000000000, 0.000000000000000000, -0.1250000000000000278 ) ) ;
#20 = FACE_OUTER_BOUND ( 'NONE', #270, .T. ) ;
#21 = LENGTH_MEASURE_WITH_UNIT ( LENGTH_MEASURE( 0.02539999999999999897 ), #93 );
#22 = DIMENSIONAL_EXPONENTS ( 1.000000000000000000, 0.000000000000000000, 0.000000000000000000, 0.000000000000000000, 0.000000000000000000, 0.000000000000000000, 0.000000000000000000 ) ;
#23 = AXIS2_PLACEMENT_3D ( 'NONE', #89, #161, #185 ) ;
#24 = LINE ( 'NONE', #233, #243 ) ;
#25 =( CONVERSION_BASED_UNIT ( 'INCH', #119 ) LENGTH_UNIT ( ) NAMED_UNIT ( #262 ) );
#26 = VERTEX_POINT ( 'NONE', #127 ) ;
#27 = CARTESIAN_POINT ( 'NONE',  ( 0.000000000000000000, 0.5000000000000000000, 0.000000000000000000 ) ) ;
#28 = DIRECTION ( 'NONE',  ( -0.000000000000000000, -1.000000000000000000, -0.000000000000000000 ) ) ;
#29 = CLOSED_SHELL ( 'NONE', ( #273, #194, #186, #147 ) ) ;
#30 =( CONVERSION_BASED_UNIT ( 'INCH', #82 ) LENGTH_UNIT ( ) NAMED_UNIT ( #170 ) );
#31 = EDGE_CURVE ( 'NONE', #49, #302, #108, .T. ) ;
#32 = DIRECTION ( 'NONE',  ( -0.000000000000000000, -1.000000000000000000, -0.000000000000000000 ) ) ;
#33 = SURFACE_STYLE_USAGE ( .BOTH. , #10 ) ;
#34 = COLOUR_RGB ( '',1.000000000000000000, 0.000000000000000000, 0.000000000000000000 ) ;
#35 = DIRECTION ( 'NONE',  ( 0.000000000000000000, 0.000000000000000000, 1.000000000000000000 ) ) ;
#36 = CIRCLE ( 'NONE', #227, 0.1250000000000000278 ) ;
#37 = AXIS2_PLACEMENT_3D ( 'NONE', #283, #78, #217 ) ;
#38 = CIRCLE ( 'NONE', #279, 0.1250000000000000555 ) ;
#39 = CYLINDRICAL_SURFACE ( 'NONE', #102, 0.1250000000000000278 ) ;
#40 = UNCERTAINTY_MEASURE_WITH_UNIT (LENGTH_MEASURE( 1.000000000000000082E-05 ), #300, 'distance_accuracy_value', 'NONE');
#41 =( NAMED_UNIT ( * ) SI_UNIT ( $, .STERADIAN. ) SOLID_ANGLE_UNIT ( ) );
#42 = CIRCLE ( 'NONE', #11, 0.1250000000000000278 ) ;
#43 = SURFACE_STYLE_FILL_AREA ( #143 ) ;
#44 = FILL_AREA_STYLE ('',( #257 ) ) ;
#45 = DIRECTION ( 'NONE',  ( -3.061616997868383018E-17, 1.000000000000000000, -0.000000000000000000 ) ) ;
#46 = LINE ( 'NONE', #172, #301 ) ;
#47 = FACE_OUTER_BOUND ( 'NONE', #76, .T. ) ;
#48 =( NAMED_UNIT ( * ) PLANE_ANGLE_UNIT ( ) SI_UNIT ( $, .RADIAN. ) );
#49 = VERTEX_POINT ( 'NONE', #150 ) ;
#50 = PRESENTATION_LAYER_ASSIGNMENT (  '', '', ( #120 ) ) ;
#51 = PLANE ( 'NONE',  #56 ) ;
#52 = STYLED_ITEM ( 'NONE', ( #211 ), #186 ) ;
#53 = ORIENTED_EDGE ( 'NONE', *, *, #83, .F. ) ;
#54 = FILL_AREA_STYLE_COLOUR ( '', #67 ) ;
#55 = ORIENTED_EDGE ( 'NONE', *, *, #109, .T. ) ;
#56 = AXIS2_PLACEMENT_3D ( 'NONE', #4, #77, #95 ) ;
#57 = FILL_AREA_STYLE_COLOUR ( '', #34 ) ;
#58 =( CONVERSION_BASED_UNIT ( 'INCH', #103 ) LENGTH_UNIT ( ) NAMED_UNIT ( #175 ) );
#59 = CARTESIAN_POINT ( 'NONE',  ( 0.000000000000000000, 0.000000000000000000, 0.000000000000000000 ) ) ;
#60 = COLOUR_RGB ( '',0.7921568627450980005, 0.8196078431372548767, 0.9333333333333333481 ) ;
#61 = STYLED_ITEM ( 'NONE', ( #107 ), #273 ) ;
#62 = CARTESIAN_POINT ( 'NONE',  ( 1.530808498934192125E-17, 0.000000000000000000, 0.1250000000000000555 ) ) ;
#63 =( LENGTH_UNIT ( ) NAMED_UNIT ( * ) SI_UNIT ( $, .METRE. ) );
#64 = EDGE_CURVE ( 'NONE', #208, #99, #171, .T. ) ;
#65 =( LENGTH_UNIT ( ) NAMED_UNIT ( * ) SI_UNIT ( $, .METRE. ) );
#66 = ORIENTED_EDGE ( 'NONE', *, *, #121, .T. ) ;
#67 = COLOUR_RGB ( '',1.000000000000000000, 0.000000000000000000, 0.000000000000000000 ) ;
#68 = DIRECTION ( 'NONE',  ( -1.000000000000000000, 0.000000000000000000, 0.000000000000000000 ) ) ;
#69 = PRESENTATION_STYLE_ASSIGNMENT (( #8 ) ) ;
#70 = ORIENTED_EDGE ( 'NONE', *, *, #16, .F. ) ;
#71 =( CONVERSION_BASED_UNIT ( 'INCH', #21 ) LENGTH_UNIT ( ) NAMED_UNIT ( #75 ) );
#72 = PRODUCT_DEFINITION ( 'UNKNOWN', '', #180, #298 ) ;
#73 = ORIENTED_EDGE ( 'NONE', *, *, #64, .T. ) ;
#74 = CARTESIAN_POINT ( 'NONE',  ( 0.000000000000000000, 0.5000000000000000000, 0.000000000000000000 ) ) ;
#75 = DIMENSIONAL_EXPONENTS ( 1.000000000000000000, 0.000000000000000000, 0.000000000000000000, 0.000000000000000000, 0.000000000000000000, 0.000000000000000000, 0.000000000000000000 ) ;
#76 = EDGE_LOOP ( 'NONE', ( #214, #7 ) ) ;
#77 = DIRECTION ( 'NONE',  ( 3.061616997868383018E-17, -1.000000000000000000, 0.000000000000000000 ) ) ;
#78 = DIRECTION ( 'NONE',  ( -0.000000000000000000, -1.000000000000000000, -0.000000000000000000 ) ) ;
#79 =( NAMED_UNIT ( * ) SI_UNIT ( $, .STERADIAN. ) SOLID_ANGLE_UNIT ( ) );
#80 = SHAPE_DEFINITION_REPRESENTATION ( #206, #157 ) ;
#81 =( GEOMETRIC_REPRESENTATION_CONTEXT ( 3 ) GLOBAL_UNCERTAINTY_ASSIGNED_CONTEXT ( ( #40 ) ) GLOBAL_UNIT_ASSIGNED_CONTEXT ( ( #300, #230, #184 ) ) REPRESENTATION_CONTEXT ( 'NONE', 'WORKASPACE' ) );
#82 = LENGTH_MEASURE_WITH_UNIT ( LENGTH_MEASURE( 0.02539999999999999897 ), #222 );
#83 = EDGE_CURVE ( 'NONE', #26, #49, #166, .T. ) ;
#84 = DIRECTION ( 'NONE',  ( -0.000000000000000000, -1.000000000000000000, -0.000000000000000000 ) ) ;
#85 = EDGE_CURVE ( 'NONE', #98, #208, #104, .T. ) ;
#86 = SURFACE_STYLE_USAGE ( .BOTH. , #303 ) ;
#87 =( NAMED_UNIT ( * ) PLANE_ANGLE_UNIT ( ) SI_UNIT ( $, .RADIAN. ) );
#88 = AXIS2_PLACEMENT_3D ( 'NONE', #259, #265, #97 ) ;
#89 = CARTESIAN_POINT ( 'NONE',  ( 0.000000000000000000, 0.000000000000000000, 0.000000000000000000 ) ) ;
#90 = PRESENTATION_STYLE_ASSIGNMENT (( #86 ) ) ;
#91 = EDGE_LOOP ( 'NONE', ( #55, #122, #3, #305 ) ) ;
#92 = COLOUR_RGB ( '',0.7921568627450980005, 0.8196078431372548767, 0.9333333333333333481 ) ;
#93 =( LENGTH_UNIT ( ) NAMED_UNIT ( * ) SI_UNIT ( $, .METRE. ) );
#94 = EDGE_LOOP ( 'NONE', ( #212, #137 ) ) ;
#95 = DIRECTION ( 'NONE',  ( 1.000000000000000000, 3.061616997868383018E-17, 0.000000000000000000 ) ) ;
#96 = SURFACE_SIDE_STYLE ('',( #216 ) ) ;
#97 = DIRECTION ( 'NONE',  ( -1.000000000000000000, -3.061616997868383018E-17, 0.000000000000000000 ) ) ;
#98 = VERTEX_POINT ( 'NONE', #239 ) ;
#99 = VERTEX_POINT ( 'NONE', #2 ) ;
#100 = LENGTH_MEASURE_WITH_UNIT ( LENGTH_MEASURE( 0.02539999999999999897 ), #221 );
#101 = DIRECTION ( 'NONE',  ( 0.000000000000000000, 0.000000000000000000, -1.000000000000000000 ) ) ;
#102 = AXIS2_PLACEMENT_3D ( 'NONE', #218, #28, #126 ) ;
#103 = LENGTH_MEASURE_WITH_UNIT ( LENGTH_MEASURE( 0.02539999999999999897 ), #294 );
#104 = CIRCLE ( 'NONE', #37, 0.1250000000000000000 ) ;
#105 = DIRECTION ( 'NONE',  ( 0.000000000000000000, 0.000000000000000000, -1.000000000000000000 ) ) ;
#106 = CARTESIAN_POINT ( 'NONE',  ( 0.000000000000000000, 0.000000000000000000, 0.000000000000000000 ) ) ;
#107 = PRESENTATION_STYLE_ASSIGNMENT (( #33 ) ) ;
#108 = CIRCLE ( 'NONE', #308, 0.1250000000000000555 ) ;
#109 = EDGE_CURVE ( 'NONE', #208, #98, #282, .T. ) ;
#110 = MECHANICAL_DESIGN_GEOMETRIC_PRESENTATION_REPRESENTATION (  '', ( #61 ), #299 ) ;
#111 =( NAMED_UNIT ( * ) SI_UNIT ( $, .STERADIAN. ) SOLID_ANGLE_UNIT ( ) );
#112 = DIRECTION ( 'NONE',  ( 1.000000000000000000, 0.000000000000000000, 0.000000000000000000 ) ) ;
#113 = ORIENTED_EDGE ( 'NONE', *, *, #251, .F. ) ;
#114 = SURFACE_SIDE_STYLE ('',( #141 ) ) ;
#115 = PRODUCT ( '44122W', '44122W', '', ( #215 ) ) ;
#116 = FILL_AREA_STYLE_COLOUR ( '', #306 ) ;
#117 = SURFACE_STYLE_FILL_AREA ( #44 ) ;
#118 = ORIENTED_EDGE ( 'NONE', *, *, #85, .T. ) ;
#119 = LENGTH_MEASURE_WITH_UNIT ( LENGTH_MEASURE( 0.02539999999999999897 ), #149 );
#120 = STYLED_ITEM ( 'NONE', ( #69 ), #194 ) ;
#121 = EDGE_CURVE ( 'NONE', #183, #26, #155, .T. ) ;
#122 = ORIENTED_EDGE ( 'NONE', *, *, #16, .T. ) ;
#123 = MECHANICAL_DESIGN_GEOMETRIC_PRESENTATION_REPRESENTATION (  '', ( #138 ), #177 ) ;
#124 = CARTESIAN_POINT ( 'NONE',  ( -6.123233995736766036E-17, 2.500000000000000000, 0.000000000000000000 ) ) ;
#125 = FILL_AREA_STYLE_COLOUR ( '', #238 ) ;
#126 = DIRECTION ( 'NONE',  ( 0.000000000000000000, 0.000000000000000000, -1.000000000000000000 ) ) ;
#127 = CARTESIAN_POINT ( 'NONE',  ( -0.1250000000000000000, 0.5000000000000001110, 0.000000000000000000 ) ) ;
#128 = PRESENTATION_STYLE_ASSIGNMENT (( #192 ) ) ;
#129 =( NAMED_UNIT ( * ) PLANE_ANGLE_UNIT ( ) SI_UNIT ( $, .RADIAN. ) );
#130 = DIRECTION ( 'NONE',  ( -3.061616997868383018E-17, 1.000000000000000000, -0.000000000000000000 ) ) ;
#131 = EDGE_CURVE ( 'NONE', #302, #49, #38, .T. ) ;
#132 = DIRECTION ( 'NONE',  ( -1.000000000000000000, 0.000000000000000000, 0.000000000000000000 ) ) ;
#133 = CLOSED_SHELL ( 'NONE', ( #276, #248, #269, #229 ) ) ;
#134 = FILL_AREA_STYLE ('',( #57 ) ) ;
#135 = CARTESIAN_POINT ( 'NONE',  ( 0.000000000000000000, 0.5000000000000001110, 0.000000000000000000 ) ) ;
#136 = UNCERTAINTY_MEASURE_WITH_UNIT (LENGTH_MEASURE( 1.000000000000000082E-05 ), #58, 'distance_accuracy_value', 'NONE');
#137 = ORIENTED_EDGE ( 'NONE', *, *, #121, .F. ) ;
#138 = STYLED_ITEM ( 'NONE', ( #90 ), #163 ) ;
#139 =( CONVERSION_BASED_UNIT ( 'INCH', #162 ) LENGTH_UNIT ( ) NAMED_UNIT ( #22 ) );
#140 = PRESENTATION_LAYER_ASSIGNMENT (  '', '', ( #228 ) ) ;
#141 = SURFACE_STYLE_FILL_AREA ( #254 ) ;
#142 =( GEOMETRIC_REPRESENTATION_CONTEXT ( 3 ) GLOBAL_UNCERTAINTY_ASSIGNED_CONTEXT ( ( #191 ) ) GLOBAL_UNIT_ASSIGNED_CONTEXT ( ( #30, #275, #199 ) ) REPRESENTATION_CONTEXT ( 'NONE', 'WORKASPACE' ) );
#143 = FILL_AREA_STYLE ('',( #255 ) ) ;
#144 = ORIENTED_EDGE ( 'NONE', *, *, #83, .T. ) ;
#145 = APPLICATION_CONTEXT ( 'automotive_design' ) ;
#146 = CARTESIAN_POINT ( 'NONE',  ( 0.000000000000000000, 0.5000000000000000000, -0.1250000000000000000 ) ) ;
#147 = ADVANCED_FACE ( 'NONE', ( #47 ), #148, .T. ) ;
#148 = PLANE ( 'NONE',  #23 ) ;
#149 =( LENGTH_UNIT ( ) NAMED_UNIT ( * ) SI_UNIT ( $, .METRE. ) );
#150 = CARTESIAN_POINT ( 'NONE',  ( -0.1250000000000001388, 2.500000000000000000, 0.000000000000000000 ) ) ;
#151 =( NAMED_UNIT ( * ) SI_UNIT ( $, .STERADIAN. ) SOLID_ANGLE_UNIT ( ) );
#152 = DIRECTION ( 'NONE',  ( -3.061616997868383018E-17, 1.000000000000000000, -0.000000000000000000 ) ) ;
#153 = DIRECTION ( 'NONE',  ( -3.061616997868383018E-17, 1.000000000000000000, -0.000000000000000000 ) ) ;
#154 = DIRECTION ( 'NONE',  ( -3.061616997868383018E-17, 1.000000000000000000, -0.000000000000000000 ) ) ;
#155 = CIRCLE ( 'NONE', #200, 0.1250000000000000000 ) ;
#156 = CARTESIAN_POINT ( 'NONE',  ( 0.1250000000000000278, 2.500000000000000000, 1.530808498934192125E-17 ) ) ;
#157 = ADVANCED_BREP_SHAPE_REPRESENTATION ( '44122W', ( #158, #163, #263 ), #142 ) ;
#158 = MANIFOLD_SOLID_BREP ( 'Revolve - Cutting Edge', #29 ) ;
#159 = UNCERTAINTY_MEASURE_WITH_UNIT (LENGTH_MEASURE( 1.000000000000000082E-05 ), #25, 'distance_accuracy_value', 'NONE');
#160 = PRESENTATION_LAYER_ASSIGNMENT (  '', '', ( #138 ) ) ;
#161 = DIRECTION ( 'NONE',  ( 0.000000000000000000, -1.000000000000000000, -0.000000000000000000 ) ) ;
#162 = LENGTH_MEASURE_WITH_UNIT ( LENGTH_MEASURE( 0.02539999999999999897 ), #63 );
#163 = MANIFOLD_SOLID_BREP ( 'Revolve - Tool Body (Straight Shanked)', #133 ) ;
#164 = ORIENTED_EDGE ( 'NONE', *, *, #85, .F. ) ;
#165 = VERTEX_POINT ( 'NONE', #62 ) ;
#166 = LINE ( 'NONE', #242, #266 ) ;
#167 = DIRECTION ( 'NONE',  ( -3.061616997868383018E-17, 1.000000000000000000, -0.000000000000000000 ) ) ;
#168 = ORIENTED_EDGE ( 'NONE', *, *, #288, .T. ) ;
#169 = FACE_OUTER_BOUND ( 'NONE', #258, .T. ) ;
#170 = DIMENSIONAL_EXPONENTS ( 1.000000000000000000, 0.000000000000000000, 0.000000000000000000, 0.000000000000000000, 0.000000000000000000, 0.000000000000000000, 0.000000000000000000 ) ;
#171 = LINE ( 'NONE', #19, #237 ) ;
#172 = CARTESIAN_POINT ( 'NONE',  ( 0.1249999999999999584, 2.500000000000000000, 1.530808498934191817E-17 ) ) ;
#173 = EDGE_LOOP ( 'NONE', ( #70, #118, #73, #264 ) ) ;
#174 = AXIS2_PLACEMENT_3D ( 'NONE', #106, #32, #101 ) ;
#175 = DIMENSIONAL_EXPONENTS ( 1.000000000000000000, 0.000000000000000000, 0.000000000000000000, 0.000000000000000000, 0.000000000000000000, 0.000000000000000000, 0.000000000000000000 ) ;
#176 = DIRECTION ( 'NONE',  ( -1.000000000000000000, 0.000000000000000000, 0.000000000000000000 ) ) ;
#177 =( GEOMETRIC_REPRESENTATION_CONTEXT ( 3 ) GLOBAL_UNCERTAINTY_ASSIGNED_CONTEXT ( ( #250 ) ) GLOBAL_UNIT_ASSIGNED_CONTEXT ( ( #139, #87, #111 ) ) REPRESENTATION_CONTEXT ( 'NONE', 'WORKASPACE' ) );
#178 = APPLICATION_PROTOCOL_DEFINITION ( 'draft international standard', 'automotive_design', 1998, #203 ) ;
#179 = PRODUCT_RELATED_PRODUCT_CATEGORY ( 'part', '', ( #115 ) ) ;
#180 = PRODUCT_DEFINITION_FORMATION_WITH_SPECIFIED_SOURCE ( 'ANY', '', #115, .NOT_KNOWN. ) ;
#181 =( GEOMETRIC_REPRESENTATION_CONTEXT ( 3 ) GLOBAL_UNCERTAINTY_ASSIGNED_CONTEXT ( ( #159 ) ) GLOBAL_UNIT_ASSIGNED_CONTEXT ( ( #25, #193, #196 ) ) REPRESENTATION_CONTEXT ( 'NONE', 'WORKASPACE' ) );
#182 = MECHANICAL_DESIGN_GEOMETRIC_PRESENTATION_REPRESENTATION (  '', ( #228 ), #225 ) ;
#183 = VERTEX_POINT ( 'NONE', #252 ) ;
#184 =( NAMED_UNIT ( * ) SI_UNIT ( $, .STERADIAN. ) SOLID_ANGLE_UNIT ( ) );
#185 = DIRECTION ( 'NONE',  ( 0.000000000000000000, 0.000000000000000000, -1.000000000000000000 ) ) ;
#186 = ADVANCED_FACE ( 'NONE', ( #280 ), #39, .T. ) ;
#187 = DIMENSIONAL_EXPONENTS ( 1.000000000000000000, 0.000000000000000000, 0.000000000000000000, 0.000000000000000000, 0.000000000000000000, 0.000000000000000000, 0.000000000000000000 ) ;
#188 = EDGE_LOOP ( 'NONE', ( #287, #164 ) ) ;
#189 = DIRECTION ( 'NONE',  ( -1.000000000000000000, 0.000000000000000000, 0.000000000000000000 ) ) ;
#190 = CARTESIAN_POINT ( 'NONE',  ( 0.000000000000000000, 0.5000000000000001110, 0.000000000000000000 ) ) ;
#191 = UNCERTAINTY_MEASURE_WITH_UNIT (LENGTH_MEASURE( 1.000000000000000082E-05 ), #30, 'distance_accuracy_value', 'NONE');
#192 = SURFACE_STYLE_USAGE ( .BOTH. , #96 ) ;
#193 =( NAMED_UNIT ( * ) PLANE_ANGLE_UNIT ( ) SI_UNIT ( $, .RADIAN. ) );
#194 = ADVANCED_FACE ( 'NONE', ( #290 ), #286, .T. ) ;
#195 = DIRECTION ( 'NONE',  ( -0.000000000000000000, -1.000000000000000000, -0.000000000000000000 ) ) ;
#196 =( NAMED_UNIT ( * ) SI_UNIT ( $, .STERADIAN. ) SOLID_ANGLE_UNIT ( ) );
#197 = DIRECTION ( 'NONE',  ( -1.000000000000000000, 0.000000000000000000, 0.000000000000000000 ) ) ;
#198 = FACE_OUTER_BOUND ( 'NONE', #94, .T. ) ;
#199 =( NAMED_UNIT ( * ) SI_UNIT ( $, .STERADIAN. ) SOLID_ANGLE_UNIT ( ) );
#200 = AXIS2_PLACEMENT_3D ( 'NONE', #190, #152, #176 ) ;
#201 = DIRECTION ( 'NONE',  ( 0.000000000000000000, 0.000000000000000000, -1.000000000000000000 ) ) ;
#202 = CYLINDRICAL_SURFACE ( 'NONE', #231, 0.1250000000000000278 ) ;
#203 = APPLICATION_CONTEXT ( 'automotive_design' ) ;
#204 = LENGTH_MEASURE_WITH_UNIT ( LENGTH_MEASURE( 0.02539999999999999897 ), #65 );
#205 = AXIS2_PLACEMENT_3D ( 'NONE', #135, #297, #296 ) ;
#206 = PRODUCT_DEFINITION_SHAPE ( 'NONE', 'NONE',  #72 ) ;
#207 = SURFACE_STYLE_USAGE ( .BOTH. , #281 ) ;
#208 = VERTEX_POINT ( 'NONE', #146 ) ;
#209 = AXIS2_PLACEMENT_3D ( 'NONE', #307, #167, #189 ) ;
#210 = SURFACE_STYLE_USAGE ( .BOTH. , #114 ) ;
#211 = PRESENTATION_STYLE_ASSIGNMENT (( #210 ) ) ;
#212 = ORIENTED_EDGE ( 'NONE', *, *, #288, .F. ) ;
#213 = CYLINDRICAL_SURFACE ( 'NONE', #209, 0.1250000000000000278 ) ;
#214 = ORIENTED_EDGE ( 'NONE', *, *, #295, .T. ) ;
#215 = PRODUCT_CONTEXT ( 'NONE', #203, 'mechanical' ) ;
#216 = SURFACE_STYLE_FILL_AREA ( #285 ) ;
#217 = DIRECTION ( 'NONE',  ( 0.000000000000000000, 0.000000000000000000, -1.000000000000000000 ) ) ;
#218 = CARTESIAN_POINT ( 'NONE',  ( 0.000000000000000000, 0.000000000000000000, 0.000000000000000000 ) ) ;
#219 = DIRECTION ( 'NONE',  ( 0.000000000000000000, 0.000000000000000000, -1.000000000000000000 ) ) ;
#220 = SURFACE_SIDE_STYLE ('',( #6 ) ) ;
#221 =( LENGTH_UNIT ( ) NAMED_UNIT ( * ) SI_UNIT ( $, .METRE. ) );
#222 =( LENGTH_UNIT ( ) NAMED_UNIT ( * ) SI_UNIT ( $, .METRE. ) );
#223 = AXIS2_PLACEMENT_3D ( 'NONE', #74, #241, #271 ) ;
#224 = CARTESIAN_POINT ( 'NONE',  ( 0.000000000000000000, 0.000000000000000000, 0.000000000000000000 ) ) ;
#225 =( GEOMETRIC_REPRESENTATION_CONTEXT ( 3 ) GLOBAL_UNCERTAINTY_ASSIGNED_CONTEXT ( ( #235 ) ) GLOBAL_UNIT_ASSIGNED_CONTEXT ( ( #9, #245, #41 ) ) REPRESENTATION_CONTEXT ( 'NONE', 'WORKASPACE' ) );
#226 = APPLICATION_PROTOCOL_DEFINITION ( 'draft international standard', 'automotive_design', 1998, #145 ) ;
#227 = AXIS2_PLACEMENT_3D ( 'NONE', #13, #84, #105 ) ;
#228 = STYLED_ITEM ( 'NONE', ( #128 ), #147 ) ;
#229 = ADVANCED_FACE ( 'NONE', ( #169 ), #51, .F. ) ;
#230 =( NAMED_UNIT ( * ) PLANE_ANGLE_UNIT ( ) SI_UNIT ( $, .RADIAN. ) );
#231 = AXIS2_PLACEMENT_3D ( 'NONE', #12, #130, #132 ) ;
#232 = EDGE_LOOP ( 'NONE', ( #168, #234, #17, #53 ) ) ;
#233 = CARTESIAN_POINT ( 'NONE',  ( 1.530808498934191817E-17, 0.000000000000000000, 0.1250000000000000278 ) ) ;
#234 = ORIENTED_EDGE ( 'NONE', *, *, #251, .T. ) ;
#235 = UNCERTAINTY_MEASURE_WITH_UNIT (LENGTH_MEASURE( 1.000000000000000082E-05 ), #9, 'distance_accuracy_value', 'NONE');
#236 = MECHANICAL_DESIGN_GEOMETRIC_PRESENTATION_REPRESENTATION (  '', ( #120 ), #181 ) ;
#237 = VECTOR ( 'NONE', #291, 39.37007874015748143 ) ;
#238 = COLOUR_RGB ( '',1.000000000000000000, 0.000000000000000000, 0.000000000000000000 ) ;
#239 = CARTESIAN_POINT ( 'NONE',  ( 1.530808498934191817E-17, 0.5000000000000000000, 0.1250000000000000000 ) ) ;
#240 = CARTESIAN_POINT ( 'NONE',  ( -6.123233995736766036E-17, 2.500000000000000000, 0.000000000000000000 ) ) ;
#241 = DIRECTION ( 'NONE',  ( 0.000000000000000000, 1.000000000000000000, 0.000000000000000000 ) ) ;
#242 = CARTESIAN_POINT ( 'NONE',  ( -0.1250000000000001110, 2.500000000000000000, 0.000000000000000000 ) ) ;
#243 = VECTOR ( 'NONE', #195, 39.37007874015748143 ) ;
#244 = PRESENTATION_LAYER_ASSIGNMENT (  '', '', ( #61 ) ) ;
#245 =( NAMED_UNIT ( * ) PLANE_ANGLE_UNIT ( ) SI_UNIT ( $, .RADIAN. ) );
#246 = SURFACE_STYLE_FILL_AREA ( #134 ) ;
#247 = CYLINDRICAL_SURFACE ( 'NONE', #174, 0.1250000000000000278 ) ;
#248 = ADVANCED_FACE ( 'NONE', ( #198 ), #292, .F. ) ;
#249 = DIRECTION ( 'NONE',  ( -0.000000000000000000, -1.000000000000000000, -0.000000000000000000 ) ) ;
#250 = UNCERTAINTY_MEASURE_WITH_UNIT (LENGTH_MEASURE( 1.000000000000000082E-05 ), #139, 'distance_accuracy_value', 'NONE');
#251 = EDGE_CURVE ( 'NONE', #183, #302, #46, .T. ) ;
#252 = CARTESIAN_POINT ( 'NONE',  ( 0.1250000000000000278, 0.5000000000000001110, 1.530808498934192125E-17 ) ) ;
#253 = MECHANICAL_DESIGN_GEOMETRIC_PRESENTATION_REPRESENTATION (  '', ( #52 ), #14 ) ;
#254 = FILL_AREA_STYLE ('',( #116 ) ) ;
#255 = FILL_AREA_STYLE_COLOUR ( '', #92 ) ;
#256 = ORIENTED_EDGE ( 'NONE', *, *, #131, .F. ) ;
#257 = FILL_AREA_STYLE_COLOUR ( '', #60 ) ;
#258 = EDGE_LOOP ( 'NONE', ( #5, #289 ) ) ;
#259 = CARTESIAN_POINT ( 'NONE',  ( 5.858436651022881281E-35, 0.5000000000000000000, 0.000000000000000000 ) ) ;
#260 = DIRECTION ( 'NONE',  ( -3.061616997868383018E-17, 1.000000000000000000, -0.000000000000000000 ) ) ;
#261 = FACE_OUTER_BOUND ( 'NONE', #91, .T. ) ;
#262 = DIMENSIONAL_EXPONENTS ( 1.000000000000000000, 0.000000000000000000, 0.000000000000000000, 0.000000000000000000, 0.000000000000000000, 0.000000000000000000, 0.000000000000000000 ) ;
#263 = AXIS2_PLACEMENT_3D ( 'NONE', #59, #35, #112 ) ;
#264 = ORIENTED_EDGE ( 'NONE', *, *, #304, .F. ) ;
#265 = DIRECTION ( 'NONE',  ( -3.061616997868383018E-17, 1.000000000000000000, 0.000000000000000000 ) ) ;
#266 = VECTOR ( 'NONE', #260, 39.37007874015748143 ) ;
#267 = PRESENTATION_LAYER_ASSIGNMENT (  '', '', ( #52 ) ) ;
#268 = DIRECTION ( 'NONE',  ( -0.000000000000000000, -1.000000000000000000, -0.000000000000000000 ) ) ;
#269 = ADVANCED_FACE ( 'NONE', ( #20 ), #213, .T. ) ;
#270 = EDGE_LOOP ( 'NONE', ( #113, #66, #144, #256 ) ) ;
#271 = DIRECTION ( 'NONE',  ( 0.000000000000000000, -0.000000000000000000, 1.000000000000000000 ) ) ;
#272 = STYLED_ITEM ( 'NONE', ( #18 ), #158 ) ;
#273 = ADVANCED_FACE ( 'NONE', ( #261 ), #247, .T. ) ;
#274 = FACE_OUTER_BOUND ( 'NONE', #232, .T. ) ;
#275 =( NAMED_UNIT ( * ) PLANE_ANGLE_UNIT ( ) SI_UNIT ( $, .RADIAN. ) );
#276 = ADVANCED_FACE ( 'NONE', ( #274 ), #202, .T. ) ;
#277 = UNCERTAINTY_MEASURE_WITH_UNIT (LENGTH_MEASURE( 1.000000000000000082E-05 ), #71, 'distance_accuracy_value', 'NONE');
#278 = MECHANICAL_DESIGN_GEOMETRIC_PRESENTATION_REPRESENTATION (  '', ( #272 ), #81 ) ;
#279 = AXIS2_PLACEMENT_3D ( 'NONE', #124, #45, #68 ) ;
#280 = FACE_OUTER_BOUND ( 'NONE', #173, .T. ) ;
#281 = SURFACE_SIDE_STYLE ('',( #43 ) ) ;
#282 = CIRCLE ( 'NONE', #309, 0.1250000000000000000 ) ;
#283 = CARTESIAN_POINT ( 'NONE',  ( 0.000000000000000000, 0.5000000000000000000, 0.000000000000000000 ) ) ;
#284 = FILL_AREA_STYLE ('',( #54 ) ) ;
#285 = FILL_AREA_STYLE ('',( #125 ) ) ;
#286 = PLANE ( 'NONE',  #223 ) ;
#287 = ORIENTED_EDGE ( 'NONE', *, *, #109, .F. ) ;
#288 = EDGE_CURVE ( 'NONE', #26, #183, #15, .T. ) ;
#289 = ORIENTED_EDGE ( 'NONE', *, *, #131, .T. ) ;
#290 = FACE_OUTER_BOUND ( 'NONE', #188, .T. ) ;
#291 = DIRECTION ( 'NONE',  ( -0.000000000000000000, -1.000000000000000000, -0.000000000000000000 ) ) ;
#292 = PLANE ( 'NONE',  #88 ) ;
#293 = PRESENTATION_LAYER_ASSIGNMENT (  '', '', ( #272 ) ) ;
#294 =( LENGTH_UNIT ( ) NAMED_UNIT ( * ) SI_UNIT ( $, .METRE. ) );
#295 = EDGE_CURVE ( 'NONE', #99, #165, #42, .T. ) ;
#296 = DIRECTION ( 'NONE',  ( -1.000000000000000000, 0.000000000000000000, 0.000000000000000000 ) ) ;
#297 = DIRECTION ( 'NONE',  ( -3.061616997868383018E-17, 1.000000000000000000, -0.000000000000000000 ) ) ;
#298 = PRODUCT_DEFINITION_CONTEXT ( 'detailed design', #145, 'design' ) ;
#299 =( GEOMETRIC_REPRESENTATION_CONTEXT ( 3 ) GLOBAL_UNCERTAINTY_ASSIGNED_CONTEXT ( ( #136 ) ) GLOBAL_UNIT_ASSIGNED_CONTEXT ( ( #58, #129, #79 ) ) REPRESENTATION_CONTEXT ( 'NONE', 'WORKASPACE' ) );
#300 =( CONVERSION_BASED_UNIT ( 'INCH', #204 ) LENGTH_UNIT ( ) NAMED_UNIT ( #1 ) );
#301 = VECTOR ( 'NONE', #153, 39.37007874015748143 ) ;
#302 = VERTEX_POINT ( 'NONE', #156 ) ;
#303 = SURFACE_SIDE_STYLE ('',( #117 ) ) ;
#304 = EDGE_CURVE ( 'NONE', #165, #99, #36, .T. ) ;
#305 = ORIENTED_EDGE ( 'NONE', *, *, #64, .F. ) ;
#306 = COLOUR_RGB ( '',1.000000000000000000, 0.000000000000000000, 0.000000000000000000 ) ;
#307 = CARTESIAN_POINT ( 'NONE',  ( -6.123233995736766036E-17, 2.500000000000000000, 0.000000000000000000 ) ) ;
#308 = AXIS2_PLACEMENT_3D ( 'NONE', #240, #154, #197 ) ;
#309 = AXIS2_PLACEMENT_3D ( 'NONE', #27, #268, #219 ) ;
ENDSEC;
END-ISO-10303-21;
