ISO-10303-21;
HEADER;
FILE_DESCRIPTION (( 'STEP AP214' ),
    '1' );
FILE_NAME ('59737.STEP',
    '2023-07-24T15:31:23',
    ( '' ),
    ( '' ),
    'SwSTEP 2.0',
    'SolidWorks 2023',
    '' );
FILE_SCHEMA (( 'AUTOMOTIVE_DESIGN' ));
ENDSEC;

DATA;
#1 = ORIENTED_EDGE ( 'NONE', *, *, #224, .F. ) ;
#2 = UNCERTAINTY_MEASURE_WITH_UNIT (LENGTH_MEASURE( 1.000000000000000082E-05 ), #348, 'distance_accuracy_value', 'NONE');
#3 = CARTESIAN_POINT ( 'NONE',  ( 0.000000000000000000, 0.000000000000000000, -3.000000000000000000 ) ) ;
#4 = FACE_OUTER_BOUND ( 'NONE', #307, .T. ) ;
#5 = DIRECTION ( 'NONE',  ( 0.000000000000000000, 0.000000000000000000, -1.000000000000000000 ) ) ;
#6 = CARTESIAN_POINT ( 'NONE',  ( 0.000000000000000000, 16.00000000000000000, 0.000000000000000000 ) ) ;
#7 =( NAMED_UNIT ( * ) PLANE_ANGLE_UNIT ( ) SI_UNIT ( $, .RADIAN. ) );
#8 =( NAMED_UNIT ( * ) PLANE_ANGLE_UNIT ( ) SI_UNIT ( $, .RADIAN. ) );
#9 =( NAMED_UNIT ( * ) SI_UNIT ( $, .STERADIAN. ) SOLID_ANGLE_UNIT ( ) );
#10 = CARTESIAN_POINT ( 'NONE',  ( 4.898587196589412829E-16, 16.00000000000000000, 4.000000000000000000 ) ) ;
#11 = MECHANICAL_DESIGN_GEOMETRIC_PRESENTATION_REPRESENTATION (  '', ( #56 ), #184 ) ;
#12 = STYLED_ITEM ( 'NONE', ( #235 ), #73 ) ;
#13 = FILL_AREA_STYLE_COLOUR ( '', #29 ) ;
#14 = DIRECTION ( 'NONE',  ( 0.000000000000000000, 1.000000000000000000, 0.000000000000000000 ) ) ;
#15 = EDGE_CURVE ( 'NONE', #77, #207, #158, .T. ) ;
#16 = CARTESIAN_POINT ( 'NONE',  ( -3.999999999999993339, 63.00000000000000000, 0.000000000000000000 ) ) ;
#17 = SURFACE_SIDE_STYLE ('',( #43 ) ) ;
#18 = AXIS2_PLACEMENT_3D ( 'NONE', #205, #212, #91 ) ;
#19 = PLANE ( 'NONE',  #216 ) ;
#20 = CYLINDRICAL_SURFACE ( 'NONE', #139, 3.999999999999994671 ) ;
#21 = CYLINDRICAL_SURFACE ( 'NONE', #175, 4.000000000000000000 ) ;
#22 = CIRCLE ( 'NONE', #222, 4.000000000000000000 ) ;
#23 = AXIS2_PLACEMENT_3D ( 'NONE', #326, #255, #88 ) ;
#24 = FACE_OUTER_BOUND ( 'NONE', #197, .T. ) ;
#25 = ADVANCED_FACE ( 'NONE', ( #58 ), #142, .F. ) ;
#26 = DIRECTION ( 'NONE',  ( -5.682149050294907483E-17, 1.000000000000000000, -0.000000000000000000 ) ) ;
#27 = UNCERTAINTY_MEASURE_WITH_UNIT (LENGTH_MEASURE( 1.000000000000000082E-05 ), #324, 'distance_accuracy_value', 'NONE');
#28 = ORIENTED_EDGE ( 'NONE', *, *, #107, .T. ) ;
#29 = COLOUR_RGB ( '',1.000000000000000000, 0.000000000000000000, 0.000000000000000000 ) ;
#30 = PRESENTATION_LAYER_ASSIGNMENT (  '', '', ( #61 ) ) ;
#31 = VERTEX_POINT ( 'NONE', #259 ) ;
#32 = EDGE_LOOP ( 'NONE', ( #105, #271, #237, #277 ) ) ;
#33 = FILL_AREA_STYLE ('',( #86 ) ) ;
#34 = CARTESIAN_POINT ( 'NONE',  ( 0.000000000000000000, 16.00000000000000000, 0.000000000000000000 ) ) ;
#35 = FILL_AREA_STYLE_COLOUR ( '', #238 ) ;
#36 = DIRECTION ( 'NONE',  ( -1.224646799147352961E-16, 0.000000000000000000, -1.000000000000000000 ) ) ;
#37 = EDGE_LOOP ( 'NONE', ( #80, #310 ) ) ;
#38 = DIRECTION ( 'NONE',  ( 0.000000000000000000, 0.000000000000000000, -1.000000000000000000 ) ) ;
#39 = FACE_OUTER_BOUND ( 'NONE', #150, .T. ) ;
#41 = ADVANCED_FACE ( 'NONE', ( #250 ), #355, .T. ) ;
#40 = AXIS2_PLACEMENT_3D ( 'NONE', #334, #74, #163 ) ;
#42 = FILL_AREA_STYLE ('',( #97 ) ) ;
#43 = SURFACE_STYLE_FILL_AREA ( #330 ) ;
#44 = EDGE_CURVE ( 'NONE', #77, #335, #110, .T. ) ;
#45 =( NAMED_UNIT ( * ) PLANE_ANGLE_UNIT ( ) SI_UNIT ( $, .RADIAN. ) );
#46 = ADVANCED_FACE ( 'NONE', ( #318 ), #113, .T. ) ;
#47 =( NAMED_UNIT ( * ) SI_UNIT ( $, .STERADIAN. ) SOLID_ANGLE_UNIT ( ) );
#48 = AXIS2_PLACEMENT_3D ( 'NONE', #343, #278, #181 ) ;
#49 = DIRECTION ( 'NONE',  ( 0.000000000000000000, 0.000000000000000000, -1.000000000000000000 ) ) ;
#50 = ORIENTED_EDGE ( 'NONE', *, *, #245, .T. ) ;
#51 = FACE_OUTER_BOUND ( 'NONE', #132, .T. ) ;
#52 = APPLICATION_CONTEXT ( 'automotive_design' ) ;
#53 = MECHANICAL_DESIGN_GEOMETRIC_PRESENTATION_REPRESENTATION (  '', ( #66 ), #322 ) ;
#54 = ORIENTED_EDGE ( 'NONE', *, *, #116, .T. ) ;
#55 = VECTOR ( 'NONE', #122, 1000.000000000000000 ) ;
#56 = STYLED_ITEM ( 'NONE', ( #301 ), #127 ) ;
#57 = CARTESIAN_POINT ( 'NONE',  ( 0.000000000000000000, 1.000000000000000000, 0.000000000000000000 ) ) ;
#58 = FACE_OUTER_BOUND ( 'NONE', #37, .T. ) ;
#59 = PRESENTATION_STYLE_ASSIGNMENT (( #294 ) ) ;
#60 = STYLED_ITEM ( 'NONE', ( #98 ), #308 ) ;
#61 = STYLED_ITEM ( 'NONE', ( #206 ), #96 ) ;
#62 = ORIENTED_EDGE ( 'NONE', *, *, #367, .T. ) ;
#63 = ORIENTED_EDGE ( 'NONE', *, *, #193, .T. ) ;
#64 = SURFACE_STYLE_USAGE ( .BOTH. , #203 ) ;
#65 = DIRECTION ( 'NONE',  ( -5.682149050294907483E-17, 1.000000000000000000, -0.000000000000000000 ) ) ;
#66 = STYLED_ITEM ( 'NONE', ( #297 ), #46 ) ;
#67 = SURFACE_STYLE_FILL_AREA ( #141 ) ;
#68 = SURFACE_SIDE_STYLE ('',( #331 ) ) ;
#69 = AXIS2_PLACEMENT_3D ( 'NONE', #288, #14, #361 ) ;
#70 =( GEOMETRIC_REPRESENTATION_CONTEXT ( 3 ) GLOBAL_UNCERTAINTY_ASSIGNED_CONTEXT ( ( #279 ) ) GLOBAL_UNIT_ASSIGNED_CONTEXT ( ( #317, #7, #47 ) ) REPRESENTATION_CONTEXT ( 'NONE', 'WORKASPACE' ) );
#71 = DIRECTION ( 'NONE',  ( -1.000000000000000000, 0.000000000000000000, 0.000000000000000000 ) ) ;
#72 = DIRECTION ( 'NONE',  ( 0.000000000000000000, 0.000000000000000000, -1.000000000000000000 ) ) ;
#73 = ADVANCED_FACE ( 'NONE', ( #4 ), #293, .T. ) ;
#74 = DIRECTION ( 'NONE',  ( -0.000000000000000000, -1.000000000000000000, -0.000000000000000000 ) ) ;
#75 = AXIS2_PLACEMENT_3D ( 'NONE', #234, #284, #111 ) ;
#76 = EDGE_LOOP ( 'NONE', ( #272, #325, #28, #347 ) ) ;
#77 = VERTEX_POINT ( 'NONE', #202 ) ;
#78 =( LENGTH_UNIT ( ) NAMED_UNIT ( * ) SI_UNIT ( .MILLI., .METRE. ) );
#79 = COLOUR_RGB ( '',1.000000000000000000, 0.000000000000000000, 0.000000000000000000 ) ;
#80 = ORIENTED_EDGE ( 'NONE', *, *, #160, .F. ) ;
#81 = DIRECTION ( 'NONE',  ( 0.000000000000000000, 0.000000000000000000, -1.000000000000000000 ) ) ;
#82 = DIRECTION ( 'NONE',  ( -0.000000000000000000, -1.000000000000000000, -0.000000000000000000 ) ) ;
#83 = SURFACE_STYLE_USAGE ( .BOTH. , #144 ) ;
#84 = ORIENTED_EDGE ( 'NONE', *, *, #367, .F. ) ;
#85 = DIRECTION ( 'NONE',  ( -5.682149050294907483E-17, 1.000000000000000000, -0.000000000000000000 ) ) ;
#86 = FILL_AREA_STYLE_COLOUR ( '', #246 ) ;
#87 = ORIENTED_EDGE ( 'NONE', *, *, #219, .T. ) ;
#88 = DIRECTION ( 'NONE',  ( -1.000000000000000000, 0.000000000000000000, 0.000000000000000000 ) ) ;
#89 = STYLED_ITEM ( 'NONE', ( #228 ), #41 ) ;
#90 = FILL_AREA_STYLE ('',( #35 ) ) ;
#91 = DIRECTION ( 'NONE',  ( 1.000000000000000000, 5.682149050294907483E-17, 0.000000000000000000 ) ) ;
#92 = ORIENTED_EDGE ( 'NONE', *, *, #219, .F. ) ;
#93 = CARTESIAN_POINT ( 'NONE',  ( 5.854691731421723944E-15, 16.00000000000000000, 0.000000000000000000 ) ) ;
#94 = PLANE ( 'NONE',  #18 ) ;
#95 = COLOUR_RGB ( '',0.7921568627450980005, 0.8196078431372548767, 0.9333333333333333481 ) ;
#96 = MANIFOLD_SOLID_BREP ( 'Revolve - Tool Body (Straight Shanked)', #321 ) ;
#97 = FILL_AREA_STYLE_COLOUR ( '', #95 ) ;
#98 = PRESENTATION_STYLE_ASSIGNMENT (( #263 ) ) ;
#99 = COLOUR_RGB ( '',1.000000000000000000, 0.000000000000000000, 0.000000000000000000 ) ;
#100 = CARTESIAN_POINT ( 'NONE',  ( 0.000000000000000000, 1.000000000000000000, -4.000000000000000000 ) ) ;
#101 = EDGE_LOOP ( 'NONE', ( #270, #87, #256, #338 ) ) ;
#102 = VERTEX_POINT ( 'NONE', #131 ) ;
#103 = SURFACE_SIDE_STYLE ('',( #368 ) ) ;
#104 = ADVANCED_FACE ( 'NONE', ( #303 ), #168, .T. ) ;
#105 = ORIENTED_EDGE ( 'NONE', *, *, #275, .F. ) ;
#106 = ORIENTED_EDGE ( 'NONE', *, *, #44, .T. ) ;
#107 = EDGE_CURVE ( 'NONE', #335, #249, #291, .T. ) ;
#108 = ADVANCED_BREP_SHAPE_REPRESENTATION ( '59737', ( #349, #96, #48 ), #352 ) ;
#109 = FILL_AREA_STYLE_COLOUR ( '', #79 ) ;
#110 = LINE ( 'NONE', #231, #283 ) ;
#111 = DIRECTION ( 'NONE',  ( -1.000000000000000000, 0.000000000000000000, 0.000000000000000000 ) ) ;
#112 = CARTESIAN_POINT ( 'NONE',  ( 3.999999999999998224, 63.00000000000000000, 4.898587196589406912E-16 ) ) ;
#113 = CYLINDRICAL_SURFACE ( 'NONE', #333, 4.000000000000000000 ) ;
#114 = APPLICATION_PROTOCOL_DEFINITION ( 'draft international standard', 'automotive_design', 1998, #353 ) ;
#115 = SURFACE_SIDE_STYLE ('',( #67 ) ) ;
#116 = EDGE_CURVE ( 'NONE', #249, #315, #165, .T. ) ;
#117 = SURFACE_STYLE_FILL_AREA ( #252 ) ;
#118 = AXIS2_PLACEMENT_3D ( 'NONE', #217, #194, #201 ) ;
#119 = CARTESIAN_POINT ( 'NONE',  ( 4.000000000000000000, 63.00000000000000000, 4.898587196589407898E-16 ) ) ;
#120 = COLOUR_RGB ( '',1.000000000000000000, 0.000000000000000000, 0.000000000000000000 ) ;
#121 = CIRCLE ( 'NONE', #339, 4.000000000000000000 ) ;
#122 = DIRECTION ( 'NONE',  ( -0.000000000000000000, -1.000000000000000000, -0.000000000000000000 ) ) ;
#123 = AXIS2_PLACEMENT_3D ( 'NONE', #332, #296, #72 ) ;
#124 = COLOUR_RGB ( '',1.000000000000000000, 0.000000000000000000, 0.000000000000000000 ) ;
#125 = SURFACE_SIDE_STYLE ('',( #162 ) ) ;
#126 = PRESENTATION_STYLE_ASSIGNMENT (( #191 ) ) ;
#127 = ADVANCED_FACE ( 'NONE', ( #24 ), #21, .T. ) ;
#128 =( LENGTH_UNIT ( ) NAMED_UNIT ( * ) SI_UNIT ( .MILLI., .METRE. ) );
#129 = CARTESIAN_POINT ( 'NONE',  ( 0.000000000000000000, 0.000000000000000000, 0.000000000000000000 ) ) ;
#130 = AXIS2_PLACEMENT_3D ( 'NONE', #153, #147, #36 ) ;
#131 = CARTESIAN_POINT ( 'NONE',  ( 4.000000000000000000, 16.00000000000000000, 4.898587196589407898E-16 ) ) ;
#132 = EDGE_LOOP ( 'NONE', ( #164, #356, #84, #366 ) ) ;
#133 = MECHANICAL_DESIGN_GEOMETRIC_PRESENTATION_REPRESENTATION (  '', ( #12 ), #370 ) ;
#134 = EDGE_CURVE ( 'NONE', #335, #31, #257, .T. ) ;
#135 = EDGE_CURVE ( 'NONE', #31, #315, #155, .T. ) ;
#136 = SURFACE_SIDE_STYLE ('',( #117 ) ) ;
#137 = ORIENTED_EDGE ( 'NONE', *, *, #193, .F. ) ;
#138 = UNCERTAINTY_MEASURE_WITH_UNIT (LENGTH_MEASURE( 1.000000000000000082E-05 ), #302, 'distance_accuracy_value', 'NONE');
#139 = AXIS2_PLACEMENT_3D ( 'NONE', #198, #311, #280 ) ;
#140 = EDGE_LOOP ( 'NONE', ( #62, #50 ) ) ;
#141 = FILL_AREA_STYLE ('',( #358 ) ) ;
#142 = PLANE ( 'NONE',  #208 ) ;
#143 = FACE_OUTER_BOUND ( 'NONE', #140, .T. ) ;
#144 = SURFACE_SIDE_STYLE ('',( #341 ) ) ;
#145 = DIRECTION ( 'NONE',  ( -0.000000000000000000, -1.000000000000000000, -0.000000000000000000 ) ) ;
#146 =( NAMED_UNIT ( * ) PLANE_ANGLE_UNIT ( ) SI_UNIT ( $, .RADIAN. ) );
#147 = DIRECTION ( 'NONE',  ( 1.000000000000000000, 0.000000000000000000, -1.224646799147353207E-16 ) ) ;
#148 = PRODUCT_RELATED_PRODUCT_CATEGORY ( 'part', '', ( #350 ) ) ;
#149 =( NAMED_UNIT ( * ) SI_UNIT ( $, .STERADIAN. ) SOLID_ANGLE_UNIT ( ) );
#150 = EDGE_LOOP ( 'NONE', ( #309, #137 ) ) ;
#151 = PRESENTATION_LAYER_ASSIGNMENT (  '', '', ( #312 ) ) ;
#152 = APPLICATION_PROTOCOL_DEFINITION ( 'draft international standard', 'automotive_design', 1998, #52 ) ;
#153 = CARTESIAN_POINT ( 'NONE',  ( 3.673940397442059868E-16, 1.000000000000000000, 3.000000000000000000 ) ) ;
#154 = PRODUCT_DEFINITION_FORMATION_WITH_SPECIFIED_SOURCE ( 'ANY', '', #350, .NOT_KNOWN. ) ;
#155 = CIRCLE ( 'NONE', #130, 1.000000000000000000 ) ;
#156 = DIRECTION ( 'NONE',  ( 0.000000000000000000, 0.000000000000000000, -1.000000000000000000 ) ) ;
#157 =( NAMED_UNIT ( * ) SI_UNIT ( $, .STERADIAN. ) SOLID_ANGLE_UNIT ( ) );
#158 = CIRCLE ( 'NONE', #369, 4.000000000000000000 ) ;
#159 = AXIS2_PLACEMENT_3D ( 'NONE', #57, #345, #230 ) ;
#160 = EDGE_CURVE ( 'NONE', #221, #102, #364, .T. ) ;
#161 =( NAMED_UNIT ( * ) SI_UNIT ( $, .STERADIAN. ) SOLID_ANGLE_UNIT ( ) );
#162 = SURFACE_STYLE_FILL_AREA ( #42 ) ;
#163 = DIRECTION ( 'NONE',  ( 0.000000000000000000, 0.000000000000000000, -1.000000000000000000 ) ) ;
#164 = ORIENTED_EDGE ( 'NONE', *, *, #160, .T. ) ;
#165 = CIRCLE ( 'NONE', #218, 3.000000000000000000 ) ;
#166 = PRESENTATION_LAYER_ASSIGNMENT (  '', '', ( #60 ) ) ;
#167 = AXIS2_PLACEMENT_3D ( 'NONE', #281, #26, #71 ) ;
#168 = CYLINDRICAL_SURFACE ( 'NONE', #167, 3.999999999999994671 ) ;
#169 = UNCERTAINTY_MEASURE_WITH_UNIT (LENGTH_MEASURE( 1.000000000000000082E-05 ), #128, 'distance_accuracy_value', 'NONE');
#170 =( LENGTH_UNIT ( ) NAMED_UNIT ( * ) SI_UNIT ( .MILLI., .METRE. ) );
#171 = SURFACE_STYLE_USAGE ( .BOTH. , #136 ) ;
#172 = ORIENTED_EDGE ( 'NONE', *, *, #107, .F. ) ;
#173 =( NAMED_UNIT ( * ) PLANE_ANGLE_UNIT ( ) SI_UNIT ( $, .RADIAN. ) );
#174 =( LENGTH_UNIT ( ) NAMED_UNIT ( * ) SI_UNIT ( .MILLI., .METRE. ) );
#175 = AXIS2_PLACEMENT_3D ( 'NONE', #129, #365, #220 ) ;
#176 = CARTESIAN_POINT ( 'NONE',  ( 3.184081677783117402E-15, 63.00000000000000000, 0.000000000000000000 ) ) ;
#177 = DIRECTION ( 'NONE',  ( -5.682149050294907483E-17, 1.000000000000000000, 0.000000000000000000 ) ) ;
#178 = DIRECTION ( 'NONE',  ( -1.000000000000000000, 0.000000000000000000, 0.000000000000000000 ) ) ;
#179 = ADVANCED_FACE ( 'NONE', ( #143 ), #94, .F. ) ;
#180 = ORIENTED_EDGE ( 'NONE', *, *, #135, .T. ) ;
#181 = DIRECTION ( 'NONE',  ( 1.000000000000000000, 0.000000000000000000, 0.000000000000000000 ) ) ;
#182 = CARTESIAN_POINT ( 'NONE',  ( -3.999999999999991562, 63.00000000000000000, 0.000000000000000000 ) ) ;
#183 = CARTESIAN_POINT ( 'NONE',  ( 4.898587196589412829E-16, 0.000000000000000000, 4.000000000000000000 ) ) ;
#184 =( GEOMETRIC_REPRESENTATION_CONTEXT ( 3 ) GLOBAL_UNCERTAINTY_ASSIGNED_CONTEXT ( ( #346 ) ) GLOBAL_UNIT_ASSIGNED_CONTEXT ( ( #170, #244, #316 ) ) REPRESENTATION_CONTEXT ( 'NONE', 'WORKASPACE' ) );
#185 =( NAMED_UNIT ( * ) PLANE_ANGLE_UNIT ( ) SI_UNIT ( $, .RADIAN. ) );
#186 = CARTESIAN_POINT ( 'NONE',  ( 0.000000000000000000, 0.000000000000000000, 0.000000000000000000 ) ) ;
#187 = EDGE_CURVE ( 'NONE', #102, #221, #248, .T. ) ;
#188 = CIRCLE ( 'NONE', #262, 3.999999999999996447 ) ;
#189 = PRESENTATION_LAYER_ASSIGNMENT (  '', '', ( #66 ) ) ;
#190 = CARTESIAN_POINT ( 'NONE',  ( 0.000000000000000000, 0.000000000000000000, 0.000000000000000000 ) ) ;
#191 = SURFACE_STYLE_USAGE ( .BOTH. , #125 ) ;
#192 = ORIENTED_EDGE ( 'NONE', *, *, #116, .F. ) ;
#193 = EDGE_CURVE ( 'NONE', #207, #77, #121, .T. ) ;
#194 = DIRECTION ( 'NONE',  ( -1.000000000000000000, 0.000000000000000000, 0.000000000000000000 ) ) ;
#195 = VERTEX_POINT ( 'NONE', #16 ) ;
#196 = ADVANCED_FACE ( 'NONE', ( #39 ), #261, .T. ) ;
#197 = EDGE_LOOP ( 'NONE', ( #92, #63, #106, #1 ) ) ;
#198 = CARTESIAN_POINT ( 'NONE',  ( 3.184081677783117402E-15, 63.00000000000000000, 0.000000000000000000 ) ) ;
#199 = MECHANICAL_DESIGN_GEOMETRIC_PRESENTATION_REPRESENTATION (  '', ( #61 ), #70 ) ;
#200 = MECHANICAL_DESIGN_GEOMETRIC_PRESENTATION_REPRESENTATION (  '', ( #60 ), #292 ) ;
#201 = DIRECTION ( 'NONE',  ( 0.000000000000000000, 0.000000000000000000, 1.000000000000000000 ) ) ;
#202 = CARTESIAN_POINT ( 'NONE',  ( 0.000000000000000000, 16.00000000000000000, -4.000000000000000000 ) ) ;
#203 = SURFACE_SIDE_STYLE ('',( #209 ) ) ;
#204 = DIRECTION ( 'NONE',  ( -0.000000000000000000, -1.000000000000000000, -0.000000000000000000 ) ) ;
#205 = CARTESIAN_POINT ( 'NONE',  ( 4.000000000000000000, 63.00000000000000000, 0.000000000000000000 ) ) ;
#206 = PRESENTATION_STYLE_ASSIGNMENT (( #83 ) ) ;
#207 = VERTEX_POINT ( 'NONE', #10 ) ;
#208 = AXIS2_PLACEMENT_3D ( 'NONE', #289, #177, #287 ) ;
#209 = SURFACE_STYLE_FILL_AREA ( #254 ) ;
#210 =( NAMED_UNIT ( * ) PLANE_ANGLE_UNIT ( ) SI_UNIT ( $, .RADIAN. ) );
#211 = DIRECTION ( 'NONE',  ( -5.682149050294907483E-17, 1.000000000000000000, -0.000000000000000000 ) ) ;
#212 = DIRECTION ( 'NONE',  ( 5.682149050294907483E-17, -1.000000000000000000, 0.000000000000000000 ) ) ;
#213 = CARTESIAN_POINT ( 'NONE',  ( 4.286263797015736595E-16, 0.000000000000000000, 3.000000000000000000 ) ) ;
#214 =( NAMED_UNIT ( * ) SI_UNIT ( $, .STERADIAN. ) SOLID_ANGLE_UNIT ( ) );
#215 = PRODUCT_DEFINITION ( 'UNKNOWN', '', #154, #305 ) ;
#216 = AXIS2_PLACEMENT_3D ( 'NONE', #186, #267, #265 ) ;
#217 = CARTESIAN_POINT ( 'NONE',  ( 0.000000000000000000, 1.000000000000000000, -3.000000000000000000 ) ) ;
#218 = AXIS2_PLACEMENT_3D ( 'NONE', #190, #306, #81 ) ;
#219 = EDGE_CURVE ( 'NONE', #207, #31, #328, .T. ) ;
#220 = DIRECTION ( 'NONE',  ( 0.000000000000000000, 0.000000000000000000, -1.000000000000000000 ) ) ;
#221 = VERTEX_POINT ( 'NONE', #240 ) ;
#222 = AXIS2_PLACEMENT_3D ( 'NONE', #295, #290, #344 ) ;
#223 = SURFACE_STYLE_USAGE ( .BOTH. , #103 ) ;
#224 = EDGE_CURVE ( 'NONE', #31, #335, #22, .T. ) ;
#225 = CARTESIAN_POINT ( 'NONE',  ( 0.000000000000000000, 0.000000000000000000, 0.000000000000000000 ) ) ;
#226 = VERTEX_POINT ( 'NONE', #119 ) ;
#227 = PRODUCT_DEFINITION_SHAPE ( 'NONE', 'NONE',  #215 ) ;
#228 = PRESENTATION_STYLE_ASSIGNMENT (( #64 ) ) ;
#229 = AXIS2_PLACEMENT_3D ( 'NONE', #342, #145, #5 ) ;
#230 = DIRECTION ( 'NONE',  ( 0.000000000000000000, 0.000000000000000000, -1.000000000000000000 ) ) ;
#231 = CARTESIAN_POINT ( 'NONE',  ( 0.000000000000000000, 0.000000000000000000, -4.000000000000000000 ) ) ;
#232 = FACE_OUTER_BOUND ( 'NONE', #340, .T. ) ;
#233 = ORIENTED_EDGE ( 'NONE', *, *, #329, .T. ) ;
#234 = CARTESIAN_POINT ( 'NONE',  ( 3.184081677783117402E-15, 63.00000000000000000, 0.000000000000000000 ) ) ;
#235 = PRESENTATION_STYLE_ASSIGNMENT (( #171 ) ) ;
#236 = VECTOR ( 'NONE', #65, 1000.000000000000000 ) ;
#237 = ORIENTED_EDGE ( 'NONE', *, *, #266, .T. ) ;
#238 = COLOUR_RGB ( '',1.000000000000000000, 0.000000000000000000, 0.000000000000000000 ) ;
#239 = LINE ( 'NONE', #182, #274 ) ;
#240 = CARTESIAN_POINT ( 'NONE',  ( -3.999999999999988010, 16.00000000000000000, 0.000000000000000000 ) ) ;
#241 =( LENGTH_UNIT ( ) NAMED_UNIT ( * ) SI_UNIT ( .MILLI., .METRE. ) );
#242 =( NAMED_UNIT ( * ) SI_UNIT ( $, .STERADIAN. ) SOLID_ANGLE_UNIT ( ) );
#243 =( GEOMETRIC_REPRESENTATION_CONTEXT ( 3 ) GLOBAL_UNCERTAINTY_ASSIGNED_CONTEXT ( ( #27 ) ) GLOBAL_UNIT_ASSIGNED_CONTEXT ( ( #324, #210, #242 ) ) REPRESENTATION_CONTEXT ( 'NONE', 'WORKASPACE' ) );
#244 =( NAMED_UNIT ( * ) PLANE_ANGLE_UNIT ( ) SI_UNIT ( $, .RADIAN. ) );
#245 = EDGE_CURVE ( 'NONE', #226, #195, #188, .T. ) ;
#246 = COLOUR_RGB ( '',0.7921568627450980005, 0.8196078431372548767, 0.9333333333333333481 ) ;
#247 = FILL_AREA_STYLE ('',( #269 ) ) ;
#248 = CIRCLE ( 'NONE', #299, 3.999999999999994227 ) ;
#249 = VERTEX_POINT ( 'NONE', #3 ) ;
#250 = FACE_OUTER_BOUND ( 'NONE', #76, .T. ) ;
#251 = SHAPE_DEFINITION_REPRESENTATION ( #227, #108 ) ;
#252 = FILL_AREA_STYLE ('',( #109 ) ) ;
#253 = UNCERTAINTY_MEASURE_WITH_UNIT (LENGTH_MEASURE( 1.000000000000000082E-05 ), #78, 'distance_accuracy_value', 'NONE');
#254 = FILL_AREA_STYLE ('',( #13 ) ) ;
#255 = DIRECTION ( 'NONE',  ( -5.682149050294907483E-17, 1.000000000000000000, -0.000000000000000000 ) ) ;
#256 = ORIENTED_EDGE ( 'NONE', *, *, #134, .F. ) ;
#257 = CIRCLE ( 'NONE', #40, 4.000000000000000000 ) ;
#258 =( GEOMETRIC_REPRESENTATION_CONTEXT ( 3 ) GLOBAL_UNCERTAINTY_ASSIGNED_CONTEXT ( ( #138 ) ) GLOBAL_UNIT_ASSIGNED_CONTEXT ( ( #302, #264, #161 ) ) REPRESENTATION_CONTEXT ( 'NONE', 'WORKASPACE' ) );
#259 = CARTESIAN_POINT ( 'NONE',  ( 4.898587196589412829E-16, 1.000000000000000000, 4.000000000000000000 ) ) ;
#260 =( GEOMETRIC_REPRESENTATION_CONTEXT ( 3 ) GLOBAL_UNCERTAINTY_ASSIGNED_CONTEXT ( ( #286 ) ) GLOBAL_UNIT_ASSIGNED_CONTEXT ( ( #174, #8, #359 ) ) REPRESENTATION_CONTEXT ( 'NONE', 'WORKASPACE' ) );
#261 = PLANE ( 'NONE',  #69 ) ;
#262 = AXIS2_PLACEMENT_3D ( 'NONE', #176, #285, #360 ) ;
#263 = SURFACE_STYLE_USAGE ( .BOTH. , #17 ) ;
#264 =( NAMED_UNIT ( * ) PLANE_ANGLE_UNIT ( ) SI_UNIT ( $, .RADIAN. ) );
#265 = DIRECTION ( 'NONE',  ( 0.000000000000000000, 0.000000000000000000, -1.000000000000000000 ) ) ;
#266 = EDGE_CURVE ( 'NONE', #221, #195, #239, .T. ) ;
#267 = DIRECTION ( 'NONE',  ( 0.000000000000000000, -1.000000000000000000, -0.000000000000000000 ) ) ;
#268 = FILL_AREA_STYLE_COLOUR ( '', #120 ) ;
#269 = FILL_AREA_STYLE_COLOUR ( '', #124 ) ;
#270 = ORIENTED_EDGE ( 'NONE', *, *, #15, .T. ) ;
#271 = ORIENTED_EDGE ( 'NONE', *, *, #187, .T. ) ;
#272 = ORIENTED_EDGE ( 'NONE', *, *, #135, .F. ) ;
#273 = PRESENTATION_LAYER_ASSIGNMENT (  '', '', ( #12 ) ) ;
#274 = VECTOR ( 'NONE', #211, 1000.000000000000000 ) ;
#275 = EDGE_CURVE ( 'NONE', #102, #226, #327, .T. ) ;
#276 = MECHANICAL_DESIGN_GEOMETRIC_PRESENTATION_REPRESENTATION (  '', ( #89 ), #260 ) ;
#277 = ORIENTED_EDGE ( 'NONE', *, *, #245, .F. ) ;
#278 = DIRECTION ( 'NONE',  ( 0.000000000000000000, 0.000000000000000000, 1.000000000000000000 ) ) ;
#279 = UNCERTAINTY_MEASURE_WITH_UNIT (LENGTH_MEASURE( 1.000000000000000082E-05 ), #317, 'distance_accuracy_value', 'NONE');
#280 = DIRECTION ( 'NONE',  ( -1.000000000000000000, 0.000000000000000000, 0.000000000000000000 ) ) ;
#281 = CARTESIAN_POINT ( 'NONE',  ( 3.184081677783117402E-15, 63.00000000000000000, 0.000000000000000000 ) ) ;
#282 = MECHANICAL_DESIGN_GEOMETRIC_PRESENTATION_REPRESENTATION (  '', ( #304 ), #258 ) ;
#283 = VECTOR ( 'NONE', #204, 1000.000000000000000 ) ;
#284 = DIRECTION ( 'NONE',  ( -5.682149050294907483E-17, 1.000000000000000000, -0.000000000000000000 ) ) ;
#285 = DIRECTION ( 'NONE',  ( -5.682149050294907483E-17, 1.000000000000000000, -0.000000000000000000 ) ) ;
#286 = UNCERTAINTY_MEASURE_WITH_UNIT (LENGTH_MEASURE( 1.000000000000000082E-05 ), #174, 'distance_accuracy_value', 'NONE');
#287 = DIRECTION ( 'NONE',  ( -1.000000000000000000, -5.682149050294907483E-17, 0.000000000000000000 ) ) ;
#288 = CARTESIAN_POINT ( 'NONE',  ( 0.000000000000000000, 16.00000000000000000, 0.000000000000000000 ) ) ;
#289 = CARTESIAN_POINT ( 'NONE',  ( 5.854691731421723944E-15, 16.00000000000000000, 0.000000000000000000 ) ) ;
#290 = DIRECTION ( 'NONE',  ( -0.000000000000000000, -1.000000000000000000, -0.000000000000000000 ) ) ;
#291 = CIRCLE ( 'NONE', #118, 1.000000000000000000 ) ;
#292 =( GEOMETRIC_REPRESENTATION_CONTEXT ( 3 ) GLOBAL_UNCERTAINTY_ASSIGNED_CONTEXT ( ( #169 ) ) GLOBAL_UNIT_ASSIGNED_CONTEXT ( ( #128, #45, #214 ) ) REPRESENTATION_CONTEXT ( 'NONE', 'WORKASPACE' ) );
#293 = TOROIDAL_SURFACE ( 'NONE', #159, 3.000000000000000000, 1.000000000000000000 ) ;
#294 = SURFACE_STYLE_USAGE ( .BOTH. , #115 ) ;
#295 = CARTESIAN_POINT ( 'NONE',  ( 0.000000000000000000, 1.000000000000000000, 0.000000000000000000 ) ) ;
#296 = DIRECTION ( 'NONE',  ( -0.000000000000000000, -1.000000000000000000, -0.000000000000000000 ) ) ;
#297 = PRESENTATION_STYLE_ASSIGNMENT (( #300 ) ) ;
#298 = PRESENTATION_LAYER_ASSIGNMENT (  '', '', ( #304 ) ) ;
#299 = AXIS2_PLACEMENT_3D ( 'NONE', #93, #85, #178 ) ;
#300 = SURFACE_STYLE_USAGE ( .BOTH. , #68 ) ;
#301 = PRESENTATION_STYLE_ASSIGNMENT (( #223 ) ) ;
#302 =( LENGTH_UNIT ( ) NAMED_UNIT ( * ) SI_UNIT ( .MILLI., .METRE. ) );
#303 = FACE_OUTER_BOUND ( 'NONE', #32, .T. ) ;
#304 = STYLED_ITEM ( 'NONE', ( #126 ), #349 ) ;
#305 = PRODUCT_DEFINITION_CONTEXT ( 'detailed design', #52, 'design' ) ;
#306 = DIRECTION ( 'NONE',  ( -0.000000000000000000, -1.000000000000000000, -0.000000000000000000 ) ) ;
#307 = EDGE_LOOP ( 'NONE', ( #323, #180, #192, #172 ) ) ;
#308 = ADVANCED_FACE ( 'NONE', ( #232 ), #19, .T. ) ;
#309 = ORIENTED_EDGE ( 'NONE', *, *, #15, .F. ) ;
#310 = ORIENTED_EDGE ( 'NONE', *, *, #187, .F. ) ;
#311 = DIRECTION ( 'NONE',  ( -5.682149050294907483E-17, 1.000000000000000000, -0.000000000000000000 ) ) ;
#312 = STYLED_ITEM ( 'NONE', ( #59 ), #196 ) ;
#313 = PRESENTATION_LAYER_ASSIGNMENT (  '', '', ( #56 ) ) ;
#314 = UNCERTAINTY_MEASURE_WITH_UNIT (LENGTH_MEASURE( 1.000000000000000082E-05 ), #241, 'distance_accuracy_value', 'NONE');
#315 = VERTEX_POINT ( 'NONE', #213 ) ;
#316 =( NAMED_UNIT ( * ) SI_UNIT ( $, .STERADIAN. ) SOLID_ANGLE_UNIT ( ) );
#317 =( LENGTH_UNIT ( ) NAMED_UNIT ( * ) SI_UNIT ( .MILLI., .METRE. ) );
#318 = FACE_OUTER_BOUND ( 'NONE', #101, .T. ) ;
#319 = DIRECTION ( 'NONE',  ( -0.000000000000000000, -1.000000000000000000, -0.000000000000000000 ) ) ;
#320 = CIRCLE ( 'NONE', #123, 3.000000000000000000 ) ;
#321 = CLOSED_SHELL ( 'NONE', ( #351, #25, #104, #179 ) ) ;
#322 =( GEOMETRIC_REPRESENTATION_CONTEXT ( 3 ) GLOBAL_UNCERTAINTY_ASSIGNED_CONTEXT ( ( #314 ) ) GLOBAL_UNIT_ASSIGNED_CONTEXT ( ( #241, #185, #157 ) ) REPRESENTATION_CONTEXT ( 'NONE', 'WORKASPACE' ) );
#323 = ORIENTED_EDGE ( 'NONE', *, *, #134, .T. ) ;
#324 =( LENGTH_UNIT ( ) NAMED_UNIT ( * ) SI_UNIT ( .MILLI., .METRE. ) );
#325 = ORIENTED_EDGE ( 'NONE', *, *, #224, .T. ) ;
#326 = CARTESIAN_POINT ( 'NONE',  ( 5.854691731421723944E-15, 16.00000000000000000, 0.000000000000000000 ) ) ;
#327 = LINE ( 'NONE', #112, #236 ) ;
#328 = LINE ( 'NONE', #183, #55 ) ;
#329 = EDGE_CURVE ( 'NONE', #315, #249, #320, .T. ) ;
#330 = FILL_AREA_STYLE ('',( #268 ) ) ;
#331 = SURFACE_STYLE_FILL_AREA ( #90 ) ;
#332 = CARTESIAN_POINT ( 'NONE',  ( 0.000000000000000000, 0.000000000000000000, 0.000000000000000000 ) ) ;
#333 = AXIS2_PLACEMENT_3D ( 'NONE', #225, #337, #49 ) ;
#334 = CARTESIAN_POINT ( 'NONE',  ( 0.000000000000000000, 1.000000000000000000, 0.000000000000000000 ) ) ;
#335 = VERTEX_POINT ( 'NONE', #100 ) ;
#336 = CIRCLE ( 'NONE', #75, 3.999999999999996447 ) ;
#337 = DIRECTION ( 'NONE',  ( -0.000000000000000000, -1.000000000000000000, -0.000000000000000000 ) ) ;
#338 = ORIENTED_EDGE ( 'NONE', *, *, #44, .F. ) ;
#339 = AXIS2_PLACEMENT_3D ( 'NONE', #6, #319, #156 ) ;
#340 = EDGE_LOOP ( 'NONE', ( #54, #233 ) ) ;
#341 = SURFACE_STYLE_FILL_AREA ( #33 ) ;
#342 = CARTESIAN_POINT ( 'NONE',  ( 0.000000000000000000, 1.000000000000000000, 0.000000000000000000 ) ) ;
#343 = CARTESIAN_POINT ( 'NONE',  ( 0.000000000000000000, 0.000000000000000000, 0.000000000000000000 ) ) ;
#344 = DIRECTION ( 'NONE',  ( 0.000000000000000000, 0.000000000000000000, -1.000000000000000000 ) ) ;
#345 = DIRECTION ( 'NONE',  ( -0.000000000000000000, -1.000000000000000000, -0.000000000000000000 ) ) ;
#346 = UNCERTAINTY_MEASURE_WITH_UNIT (LENGTH_MEASURE( 1.000000000000000082E-05 ), #170, 'distance_accuracy_value', 'NONE');
#347 = ORIENTED_EDGE ( 'NONE', *, *, #329, .F. ) ;
#348 =( LENGTH_UNIT ( ) NAMED_UNIT ( * ) SI_UNIT ( .MILLI., .METRE. ) );
#349 = MANIFOLD_SOLID_BREP ( 'Revolve - Cutting Edge', #363 ) ;
#350 = PRODUCT ( '59737', '59737', '', ( #357 ) ) ;
#351 = ADVANCED_FACE ( 'NONE', ( #51 ), #20, .T. ) ;
#352 =( GEOMETRIC_REPRESENTATION_CONTEXT ( 3 ) GLOBAL_UNCERTAINTY_ASSIGNED_CONTEXT ( ( #2 ) ) GLOBAL_UNIT_ASSIGNED_CONTEXT ( ( #348, #146, #9 ) ) REPRESENTATION_CONTEXT ( 'NONE', 'WORKASPACE' ) );
#353 = APPLICATION_CONTEXT ( 'automotive_design' ) ;
#354 = PRESENTATION_LAYER_ASSIGNMENT (  '', '', ( #89 ) ) ;
#355 = TOROIDAL_SURFACE ( 'NONE', #229, 3.000000000000000000, 1.000000000000000000 ) ;
#356 = ORIENTED_EDGE ( 'NONE', *, *, #275, .T. ) ;
#357 = PRODUCT_CONTEXT ( 'NONE', #353, 'mechanical' ) ;
#358 = FILL_AREA_STYLE_COLOUR ( '', #99 ) ;
#359 =( NAMED_UNIT ( * ) SI_UNIT ( $, .STERADIAN. ) SOLID_ANGLE_UNIT ( ) );
#360 = DIRECTION ( 'NONE',  ( -1.000000000000000000, 0.000000000000000000, 0.000000000000000000 ) ) ;
#361 = DIRECTION ( 'NONE',  ( 0.000000000000000000, -0.000000000000000000, 1.000000000000000000 ) ) ;
#362 = MECHANICAL_DESIGN_GEOMETRIC_PRESENTATION_REPRESENTATION (  '', ( #312 ), #243 ) ;
#363 = CLOSED_SHELL ( 'NONE', ( #46, #73, #308, #41, #127, #196 ) ) ;
#364 = CIRCLE ( 'NONE', #23, 3.999999999999994227 ) ;
#365 = DIRECTION ( 'NONE',  ( -0.000000000000000000, -1.000000000000000000, -0.000000000000000000 ) ) ;
#366 = ORIENTED_EDGE ( 'NONE', *, *, #266, .F. ) ;
#367 = EDGE_CURVE ( 'NONE', #195, #226, #336, .T. ) ;
#368 = SURFACE_STYLE_FILL_AREA ( #247 ) ;
#369 = AXIS2_PLACEMENT_3D ( 'NONE', #34, #82, #38 ) ;
#370 =( GEOMETRIC_REPRESENTATION_CONTEXT ( 3 ) GLOBAL_UNCERTAINTY_ASSIGNED_CONTEXT ( ( #253 ) ) GLOBAL_UNIT_ASSIGNED_CONTEXT ( ( #78, #173, #149 ) ) REPRESENTATION_CONTEXT ( 'NONE', 'WORKASPACE' ) );
ENDSEC;
END-ISO-10303-21;
