ISO-10303-21;
HEADER;
FILE_DESCRIPTION (( 'STEP AP214' ),
    '1' );
FILE_NAME ('81895.STEP',
    '2023-06-23T03:47:35',
    ( '' ),
    ( '' ),
    'SwSTEP 2.0',
    'SolidWorks 2023',
    '' );
FILE_SCHEMA (( 'AUTOMOTIVE_DESIGN' ));
ENDSEC;

DATA;
#1 = FACE_OUTER_BOUND ( 'NONE', #86, .T. ) ;
#2 = UNCERTAINTY_MEASURE_WITH_UNIT (LENGTH_MEASURE( 1.000000000000000082E-05 ), #126, 'distance_accuracy_value', 'NONE');
#3 = DIRECTION ( 'NONE',  ( 0.000000000000000000, 0.000000000000000000, -1.000000000000000000 ) ) ;
#4 = MECHANICAL_DESIGN_GEOMETRIC_PRESENTATION_REPRESENTATION (  '', ( #97 ), #186 ) ;
#5 =( CONVERSION_BASED_UNIT ( 'INCH', #8 ) LENGTH_UNIT ( ) NAMED_UNIT ( #161 ) );
#6 = ORIENTED_EDGE ( 'NONE', *, *, #65, .T. ) ;
#7 = SURFACE_SIDE_STYLE ('',( #50 ) ) ;
#8 = LENGTH_MEASURE_WITH_UNIT ( LENGTH_MEASURE( 0.02539999999999999897 ), #133 );
#9 = VERTEX_POINT ( 'NONE', #132 ) ;
#10 = PRODUCT_DEFINITION ( 'UNKNOWN', '', #245, #301 ) ;
#11 = SURFACE_STYLE_USAGE ( .BOTH. , #7 ) ;
#12 = FACE_OUTER_BOUND ( 'NONE', #164, .T. ) ;
#13 = CARTESIAN_POINT ( 'NONE',  ( 0.1875000000000000278, 3.500000000000000000, 2.296212748401288342E-17 ) ) ;
#14 =( LENGTH_UNIT ( ) NAMED_UNIT ( * ) SI_UNIT ( $, .METRE. ) );
#15 = PRESENTATION_LAYER_ASSIGNMENT (  '', '', ( #234 ) ) ;
#16 = AXIS2_PLACEMENT_3D ( 'NONE', #123, #30, #3 ) ;
#17 = LINE ( 'NONE', #274, #213 ) ;
#18 = DIMENSIONAL_EXPONENTS ( 1.000000000000000000, 0.000000000000000000, 0.000000000000000000, 0.000000000000000000, 0.000000000000000000, 0.000000000000000000, 0.000000000000000000 ) ;
#19 = AXIS2_PLACEMENT_3D ( 'NONE', #150, #238, #195 ) ;
#20 = CARTESIAN_POINT ( 'NONE',  ( -6.123233995736759873E-17, 3.500000000000000000, 0.000000000000000000 ) ) ;
#21 = PRODUCT ( '81895', '81895', '', ( #85 ) ) ;
#22 = APPLICATION_CONTEXT ( 'automotive_design' ) ;
#23 = COLOUR_RGB ( '',1.000000000000000000, 0.000000000000000000, 0.000000000000000000 ) ;
#24 = CIRCLE ( 'NONE', #64, 0.1875000000000000278 ) ;
#25 = FILL_AREA_STYLE ('',( #292 ) ) ;
#26 = LINE ( 'NONE', #49, #144 ) ;
#27 = FACE_OUTER_BOUND ( 'NONE', #278, .T. ) ;
#28 = EDGE_CURVE ( 'NONE', #55, #38, #17, .T. ) ;
#29 = CLOSED_SHELL ( 'NONE', ( #218, #309, #215, #193 ) ) ;
#30 = DIRECTION ( 'NONE',  ( -0.000000000000000000, -1.000000000000000000, -0.000000000000000000 ) ) ;
#31 = FACE_OUTER_BOUND ( 'NONE', #231, .T. ) ;
#32 = CARTESIAN_POINT ( 'NONE',  ( 0.000000000000000000, 0.000000000000000000, 0.000000000000000000 ) ) ;
#33 = EDGE_LOOP ( 'NONE', ( #134, #228 ) ) ;
#34 = LENGTH_MEASURE_WITH_UNIT ( LENGTH_MEASURE( 0.02539999999999999897 ), #60 );
#35 = PRESENTATION_STYLE_ASSIGNMENT (( #237 ) ) ;
#36 = EDGE_CURVE ( 'NONE', #9, #55, #168, .T. ) ;
#37 = DIMENSIONAL_EXPONENTS ( 1.000000000000000000, 0.000000000000000000, 0.000000000000000000, 0.000000000000000000, 0.000000000000000000, 0.000000000000000000, 0.000000000000000000 ) ;
#38 = VERTEX_POINT ( 'NONE', #90 ) ;
#39 =( NAMED_UNIT ( * ) PLANE_ANGLE_UNIT ( ) SI_UNIT ( $, .RADIAN. ) );
#40 = LENGTH_MEASURE_WITH_UNIT ( LENGTH_MEASURE( 0.02539999999999999897 ), #83 );
#41 = SURFACE_STYLE_FILL_AREA ( #182 ) ;
#42 = ORIENTED_EDGE ( 'NONE', *, *, #146, .T. ) ;
#43 = ORIENTED_EDGE ( 'NONE', *, *, #46, .F. ) ;
#44 = CARTESIAN_POINT ( 'NONE',  ( -6.123233995736759873E-17, 3.500000000000000000, 0.000000000000000000 ) ) ;
#45 = DIRECTION ( 'NONE',  ( 1.000000000000000000, 3.061616997868380553E-17, 0.000000000000000000 ) ) ;
#46 = EDGE_CURVE ( 'NONE', #38, #272, #48, .T. ) ;
#47 = PRODUCT_RELATED_PRODUCT_CATEGORY ( 'part', '', ( #21 ) ) ;
#48 = CIRCLE ( 'NONE', #88, 0.1875000000000000278 ) ;
#49 = CARTESIAN_POINT ( 'NONE',  ( 0.1874999999999999722, 3.500000000000000000, 2.296212748401288034E-17 ) ) ;
#50 = SURFACE_STYLE_FILL_AREA ( #262 ) ;
#51 = CYLINDRICAL_SURFACE ( 'NONE', #19, 0.1875000000000000555 ) ;
#52 =( CONVERSION_BASED_UNIT ( 'INCH', #34 ) LENGTH_UNIT ( ) NAMED_UNIT ( #297 ) );
#53 = DIRECTION ( 'NONE',  ( 1.000000000000000000, 0.000000000000000000, 0.000000000000000000 ) ) ;
#54 = CARTESIAN_POINT ( 'NONE',  ( 0.000000000000000000, 0.000000000000000000, 0.000000000000000000 ) ) ;
#55 = VERTEX_POINT ( 'NONE', #80 ) ;
#56 = DIRECTION ( 'NONE',  ( 0.000000000000000000, -0.000000000000000000, 1.000000000000000000 ) ) ;
#57 = COLOUR_RGB ( '',1.000000000000000000, 0.000000000000000000, 0.000000000000000000 ) ;
#58 = CARTESIAN_POINT ( 'NONE',  ( -0.1875000000000001388, 3.500000000000000000, 0.000000000000000000 ) ) ;
#59 = ORIENTED_EDGE ( 'NONE', *, *, #28, .T. ) ;
#60 =( LENGTH_UNIT ( ) NAMED_UNIT ( * ) SI_UNIT ( $, .METRE. ) );
#61 = FILL_AREA_STYLE ('',( #277 ) ) ;
#62 = VERTEX_POINT ( 'NONE', #13 ) ;
#63 = PRESENTATION_LAYER_ASSIGNMENT (  '', '', ( #200 ) ) ;
#64 = AXIS2_PLACEMENT_3D ( 'NONE', #99, #293, #219 ) ;
#65 = EDGE_CURVE ( 'NONE', #160, #208, #110, .T. ) ;
#66 = PLANE ( 'NONE',  #287 ) ;
#67 = AXIS2_PLACEMENT_3D ( 'NONE', #181, #270, #169 ) ;
#68 = EDGE_CURVE ( 'NONE', #208, #62, #194, .T. ) ;
#69 = CARTESIAN_POINT ( 'NONE',  ( 0.000000000000000000, 1.500000000000000222, 0.000000000000000000 ) ) ;
#70 = CIRCLE ( 'NONE', #77, 0.1875000000000000278 ) ;
#71 = VECTOR ( 'NONE', #187, 39.37007874015748143 ) ;
#72 =( NAMED_UNIT ( * ) SI_UNIT ( $, .STERADIAN. ) SOLID_ANGLE_UNIT ( ) );
#73 = CYLINDRICAL_SURFACE ( 'NONE', #253, 0.1875000000000000555 ) ;
#74 = DIRECTION ( 'NONE',  ( -0.000000000000000000, -1.000000000000000000, -0.000000000000000000 ) ) ;
#75 = CARTESIAN_POINT ( 'NONE',  ( 0.000000000000000000, 1.500000000000000222, 0.000000000000000000 ) ) ;
#76 =( GEOMETRIC_REPRESENTATION_CONTEXT ( 3 ) GLOBAL_UNCERTAINTY_ASSIGNED_CONTEXT ( ( #281 ) ) GLOBAL_UNIT_ASSIGNED_CONTEXT ( ( #296, #79, #279 ) ) REPRESENTATION_CONTEXT ( 'NONE', 'WORKASPACE' ) );
#77 = AXIS2_PLACEMENT_3D ( 'NONE', #174, #74, #264 ) ;
#78 =( NAMED_UNIT ( * ) SI_UNIT ( $, .STERADIAN. ) SOLID_ANGLE_UNIT ( ) );
#79 =( NAMED_UNIT ( * ) PLANE_ANGLE_UNIT ( ) SI_UNIT ( $, .RADIAN. ) );
#80 = CARTESIAN_POINT ( 'NONE',  ( 2.296212748401287726E-17, 1.500000000000000222, 0.1875000000000000278 ) ) ;
#81 = EDGE_CURVE ( 'NONE', #9, #272, #170, .T. ) ;
#82 = ADVANCED_BREP_SHAPE_REPRESENTATION ( '81895', ( #233, #136, #93 ), #155 ) ;
#83 =( LENGTH_UNIT ( ) NAMED_UNIT ( * ) SI_UNIT ( $, .METRE. ) );
#84 = ORIENTED_EDGE ( 'NONE', *, *, #65, .F. ) ;
#85 = PRODUCT_CONTEXT ( 'NONE', #290, 'mechanical' ) ;
#86 = EDGE_LOOP ( 'NONE', ( #205, #232 ) ) ;
#87 = UNCERTAINTY_MEASURE_WITH_UNIT (LENGTH_MEASURE( 1.000000000000000082E-05 ), #261, 'distance_accuracy_value', 'NONE');
#88 = AXIS2_PLACEMENT_3D ( 'NONE', #183, #211, #298 ) ;
#89 = EDGE_CURVE ( 'NONE', #62, #208, #117, .T. ) ;
#90 = CARTESIAN_POINT ( 'NONE',  ( 2.296212748401287726E-17, 0.000000000000000000, 0.1875000000000000278 ) ) ;
#91 = SHAPE_DEFINITION_REPRESENTATION ( #192, #82 ) ;
#92 = DIMENSIONAL_EXPONENTS ( 1.000000000000000000, 0.000000000000000000, 0.000000000000000000, 0.000000000000000000, 0.000000000000000000, 0.000000000000000000, 0.000000000000000000 ) ;
#93 = AXIS2_PLACEMENT_3D ( 'NONE', #129, #111, #53 ) ;
#94 = MECHANICAL_DESIGN_GEOMETRIC_PRESENTATION_REPRESENTATION (  '', ( #121 ), #103 ) ;
#95 =( GEOMETRIC_REPRESENTATION_CONTEXT ( 3 ) GLOBAL_UNCERTAINTY_ASSIGNED_CONTEXT ( ( #2 ) ) GLOBAL_UNIT_ASSIGNED_CONTEXT ( ( #126, #145, #243 ) ) REPRESENTATION_CONTEXT ( 'NONE', 'WORKASPACE' ) );
#96 = EDGE_CURVE ( 'NONE', #305, #62, #26, .T. ) ;
#97 = STYLED_ITEM ( 'NONE', ( #176 ), #136 ) ;
#98 = DIRECTION ( 'NONE',  ( -3.061616997868380553E-17, 1.000000000000000000, -0.000000000000000000 ) ) ;
#99 = CARTESIAN_POINT ( 'NONE',  ( 0.000000000000000000, 1.500000000000000222, 0.000000000000000000 ) ) ;
#100 = DIRECTION ( 'NONE',  ( -3.061616997868380553E-17, 1.000000000000000000, 0.000000000000000000 ) ) ;
#101 = DIRECTION ( 'NONE',  ( 3.061616997868380553E-17, -1.000000000000000000, 0.000000000000000000 ) ) ;
#102 = FILL_AREA_STYLE_COLOUR ( '', #57 ) ;
#103 =( GEOMETRIC_REPRESENTATION_CONTEXT ( 3 ) GLOBAL_UNCERTAINTY_ASSIGNED_CONTEXT ( ( #252 ) ) GLOBAL_UNIT_ASSIGNED_CONTEXT ( ( #5, #39, #137 ) ) REPRESENTATION_CONTEXT ( 'NONE', 'WORKASPACE' ) );
#104 = DIRECTION ( 'NONE',  ( -0.000000000000000000, -1.000000000000000000, -0.000000000000000000 ) ) ;
#105 = APPLICATION_PROTOCOL_DEFINITION ( 'draft international standard', 'automotive_design', 1998, #22 ) ;
#106 = ORIENTED_EDGE ( 'NONE', *, *, #96, .F. ) ;
#107 =( NAMED_UNIT ( * ) PLANE_ANGLE_UNIT ( ) SI_UNIT ( $, .RADIAN. ) );
#108 = SURFACE_SIDE_STYLE ('',( #41 ) ) ;
#109 = ORIENTED_EDGE ( 'NONE', *, *, #68, .F. ) ;
#110 = LINE ( 'NONE', #209, #71 ) ;
#111 = DIRECTION ( 'NONE',  ( 0.000000000000000000, 0.000000000000000000, 1.000000000000000000 ) ) ;
#112 = AXIS2_PLACEMENT_3D ( 'NONE', #44, #118, #214 ) ;
#113 = LENGTH_MEASURE_WITH_UNIT ( LENGTH_MEASURE( 0.02539999999999999897 ), #207 );
#114 = ORIENTED_EDGE ( 'NONE', *, *, #288, .T. ) ;
#115 = DIMENSIONAL_EXPONENTS ( 1.000000000000000000, 0.000000000000000000, 0.000000000000000000, 0.000000000000000000, 0.000000000000000000, 0.000000000000000000, 0.000000000000000000 ) ;
#116 = STYLED_ITEM ( 'NONE', ( #35 ), #218 ) ;
#117 = CIRCLE ( 'NONE', #112, 0.1875000000000000833 ) ;
#118 = DIRECTION ( 'NONE',  ( -3.061616997868380553E-17, 1.000000000000000000, -0.000000000000000000 ) ) ;
#119 = DIRECTION ( 'NONE',  ( -1.000000000000000000, -3.061616997868380553E-17, 0.000000000000000000 ) ) ;
#120 = ADVANCED_FACE ( 'NONE', ( #240 ), #51, .T. ) ;
#121 = STYLED_ITEM ( 'NONE', ( #250 ), #215 ) ;
#122 = FILL_AREA_STYLE_COLOUR ( '', #242 ) ;
#123 = CARTESIAN_POINT ( 'NONE',  ( 0.000000000000000000, 0.000000000000000000, 0.000000000000000000 ) ) ;
#124 = DIRECTION ( 'NONE',  ( -1.000000000000000000, 0.000000000000000000, 0.000000000000000000 ) ) ;
#125 = EDGE_CURVE ( 'NONE', #55, #9, #24, .T. ) ;
#126 =( CONVERSION_BASED_UNIT ( 'INCH', #256 ) LENGTH_UNIT ( ) NAMED_UNIT ( #18 ) );
#127 = PLANE ( 'NONE',  #266 ) ;
#128 = FILL_AREA_STYLE ('',( #184 ) ) ;
#129 = CARTESIAN_POINT ( 'NONE',  ( 0.000000000000000000, 0.000000000000000000, 0.000000000000000000 ) ) ;
#130 = DIRECTION ( 'NONE',  ( -0.000000000000000000, -1.000000000000000000, -0.000000000000000000 ) ) ;
#131 = CIRCLE ( 'NONE', #166, 0.1875000000000000278 ) ;
#132 = CARTESIAN_POINT ( 'NONE',  ( 0.000000000000000000, 1.500000000000000222, -0.1875000000000000278 ) ) ;
#133 =( LENGTH_UNIT ( ) NAMED_UNIT ( * ) SI_UNIT ( $, .METRE. ) );
#134 = ORIENTED_EDGE ( 'NONE', *, *, #36, .F. ) ;
#135 =( NAMED_UNIT ( * ) SI_UNIT ( $, .STERADIAN. ) SOLID_ANGLE_UNIT ( ) );
#136 = MANIFOLD_SOLID_BREP ( 'Revolve - Tool Body (Straight Shanked)', #295 ) ;
#137 =( NAMED_UNIT ( * ) SI_UNIT ( $, .STERADIAN. ) SOLID_ANGLE_UNIT ( ) );
#138 = ORIENTED_EDGE ( 'NONE', *, *, #89, .F. ) ;
#139 = SURFACE_SIDE_STYLE ('',( #163 ) ) ;
#140 = EDGE_LOOP ( 'NONE', ( #251, #202, #165, #43 ) ) ;
#141 = LENGTH_MEASURE_WITH_UNIT ( LENGTH_MEASURE( 0.02539999999999999897 ), #14 );
#142 = ORIENTED_EDGE ( 'NONE', *, *, #288, .F. ) ;
#143 = CARTESIAN_POINT ( 'NONE',  ( 0.000000000000000000, 0.000000000000000000, -0.1875000000000000278 ) ) ;
#144 = VECTOR ( 'NONE', #267, 39.37007874015748143 ) ;
#145 =( NAMED_UNIT ( * ) PLANE_ANGLE_UNIT ( ) SI_UNIT ( $, .RADIAN. ) );
#146 = EDGE_CURVE ( 'NONE', #305, #160, #257, .T. ) ;
#147 = AXIS2_PLACEMENT_3D ( 'NONE', #32, #130, #229 ) ;
#148 =( LENGTH_UNIT ( ) NAMED_UNIT ( * ) SI_UNIT ( $, .METRE. ) );
#149 = PLANE ( 'NONE',  #307 ) ;
#150 = CARTESIAN_POINT ( 'NONE',  ( -6.123233995736759873E-17, 3.500000000000000000, 0.000000000000000000 ) ) ;
#151 =( CONVERSION_BASED_UNIT ( 'INCH', #141 ) LENGTH_UNIT ( ) NAMED_UNIT ( #269 ) );
#152 = LENGTH_MEASURE_WITH_UNIT ( LENGTH_MEASURE( 0.02539999999999999897 ), #148 );
#153 = PRESENTATION_LAYER_ASSIGNMENT (  '', '', ( #203 ) ) ;
#154 = AXIS2_PLACEMENT_3D ( 'NONE', #75, #236, #124 ) ;
#155 =( GEOMETRIC_REPRESENTATION_CONTEXT ( 3 ) GLOBAL_UNCERTAINTY_ASSIGNED_CONTEXT ( ( #275 ) ) GLOBAL_UNIT_ASSIGNED_CONTEXT ( ( #222, #199, #78 ) ) REPRESENTATION_CONTEXT ( 'NONE', 'WORKASPACE' ) );
#156 = PRESENTATION_STYLE_ASSIGNMENT (( #171 ) ) ;
#157 = DIRECTION ( 'NONE',  ( 0.000000000000000000, 0.000000000000000000, -1.000000000000000000 ) ) ;
#158 = EDGE_LOOP ( 'NONE', ( #106, #42, #6, #138 ) ) ;
#159 = DIRECTION ( 'NONE',  ( 0.000000000000000000, -1.000000000000000000, -0.000000000000000000 ) ) ;
#160 = VERTEX_POINT ( 'NONE', #299 ) ;
#161 = DIMENSIONAL_EXPONENTS ( 1.000000000000000000, 0.000000000000000000, 0.000000000000000000, 0.000000000000000000, 0.000000000000000000, 0.000000000000000000, 0.000000000000000000 ) ;
#162 = DIRECTION ( 'NONE',  ( -0.000000000000000000, -1.000000000000000000, -0.000000000000000000 ) ) ;
#163 = SURFACE_STYLE_FILL_AREA ( #61 ) ;
#164 = EDGE_LOOP ( 'NONE', ( #300, #59, #188, #185 ) ) ;
#165 = ORIENTED_EDGE ( 'NONE', *, *, #81, .T. ) ;
#166 = AXIS2_PLACEMENT_3D ( 'NONE', #69, #98, #289 ) ;
#167 = UNCERTAINTY_MEASURE_WITH_UNIT (LENGTH_MEASURE( 1.000000000000000082E-05 ), #151, 'distance_accuracy_value', 'NONE');
#168 = CIRCLE ( 'NONE', #210, 0.1875000000000000278 ) ;
#169 = DIRECTION ( 'NONE',  ( -1.000000000000000000, 0.000000000000000000, 0.000000000000000000 ) ) ;
#170 = LINE ( 'NONE', #143, #247 ) ;
#171 = SURFACE_STYLE_USAGE ( .BOTH. , #177 ) ;
#172 = FACE_OUTER_BOUND ( 'NONE', #33, .T. ) ;
#173 = SURFACE_STYLE_USAGE ( .BOTH. , #197 ) ;
#174 = CARTESIAN_POINT ( 'NONE',  ( 0.000000000000000000, 0.000000000000000000, 0.000000000000000000 ) ) ;
#175 = CARTESIAN_POINT ( 'NONE',  ( 0.1875000000000000278, 1.500000000000000222, 2.296212748401288342E-17 ) ) ;
#176 = PRESENTATION_STYLE_ASSIGNMENT (( #173 ) ) ;
#177 = SURFACE_SIDE_STYLE ('',( #291 ) ) ;
#178 =( NAMED_UNIT ( * ) PLANE_ANGLE_UNIT ( ) SI_UNIT ( $, .RADIAN. ) );
#179 = PRESENTATION_LAYER_ASSIGNMENT (  '', '', ( #116 ) ) ;
#180 = CYLINDRICAL_SURFACE ( 'NONE', #147, 0.1875000000000000278 ) ;
#181 = CARTESIAN_POINT ( 'NONE',  ( -6.123233995736759873E-17, 3.500000000000000000, 0.000000000000000000 ) ) ;
#182 = FILL_AREA_STYLE ('',( #102 ) ) ;
#183 = CARTESIAN_POINT ( 'NONE',  ( 0.000000000000000000, 0.000000000000000000, 0.000000000000000000 ) ) ;
#184 = FILL_AREA_STYLE_COLOUR ( '', #190 ) ;
#185 = ORIENTED_EDGE ( 'NONE', *, *, #81, .F. ) ;
#186 =( GEOMETRIC_REPRESENTATION_CONTEXT ( 3 ) GLOBAL_UNCERTAINTY_ASSIGNED_CONTEXT ( ( #87 ) ) GLOBAL_UNIT_ASSIGNED_CONTEXT ( ( #261, #178, #263 ) ) REPRESENTATION_CONTEXT ( 'NONE', 'WORKASPACE' ) );
#187 = DIRECTION ( 'NONE',  ( -3.061616997868380553E-17, 1.000000000000000000, -0.000000000000000000 ) ) ;
#188 = ORIENTED_EDGE ( 'NONE', *, *, #268, .F. ) ;
#189 =( GEOMETRIC_REPRESENTATION_CONTEXT ( 3 ) GLOBAL_UNCERTAINTY_ASSIGNED_CONTEXT ( ( #198 ) ) GLOBAL_UNIT_ASSIGNED_CONTEXT ( ( #52, #107, #135 ) ) REPRESENTATION_CONTEXT ( 'NONE', 'WORKASPACE' ) );
#190 = COLOUR_RGB ( '',1.000000000000000000, 0.000000000000000000, 0.000000000000000000 ) ;
#191 = MECHANICAL_DESIGN_GEOMETRIC_PRESENTATION_REPRESENTATION (  '', ( #234 ), #76 ) ;
#192 = PRODUCT_DEFINITION_SHAPE ( 'NONE', 'NONE',  #10 ) ;
#193 = ADVANCED_FACE ( 'NONE', ( #304 ), #201, .T. ) ;
#194 = CIRCLE ( 'NONE', #67, 0.1875000000000000833 ) ;
#195 = DIRECTION ( 'NONE',  ( -1.000000000000000000, 0.000000000000000000, 0.000000000000000000 ) ) ;
#196 = DIRECTION ( 'NONE',  ( -3.061616997868380553E-17, 1.000000000000000000, -0.000000000000000000 ) ) ;
#197 = SURFACE_SIDE_STYLE ('',( #258 ) ) ;
#198 = UNCERTAINTY_MEASURE_WITH_UNIT (LENGTH_MEASURE( 1.000000000000000082E-05 ), #52, 'distance_accuracy_value', 'NONE');
#199 =( NAMED_UNIT ( * ) PLANE_ANGLE_UNIT ( ) SI_UNIT ( $, .RADIAN. ) );
#200 = STYLED_ITEM ( 'NONE', ( #276 ), #309 ) ;
#201 = PLANE ( 'NONE',  #255 ) ;
#202 = ORIENTED_EDGE ( 'NONE', *, *, #125, .T. ) ;
#203 = STYLED_ITEM ( 'NONE', ( #156 ), #233 ) ;
#204 = DIRECTION ( 'NONE',  ( 0.000000000000000000, 1.000000000000000000, 0.000000000000000000 ) ) ;
#205 = ORIENTED_EDGE ( 'NONE', *, *, #68, .T. ) ;
#206 = CARTESIAN_POINT ( 'NONE',  ( 0.000000000000000000, 1.500000000000000222, 0.000000000000000000 ) ) ;
#207 =( LENGTH_UNIT ( ) NAMED_UNIT ( * ) SI_UNIT ( $, .METRE. ) );
#208 = VERTEX_POINT ( 'NONE', #58 ) ;
#209 = CARTESIAN_POINT ( 'NONE',  ( -0.1875000000000001110, 3.500000000000000000, 0.000000000000000000 ) ) ;
#210 = AXIS2_PLACEMENT_3D ( 'NONE', #303, #162, #230 ) ;
#211 = DIRECTION ( 'NONE',  ( -0.000000000000000000, -1.000000000000000000, -0.000000000000000000 ) ) ;
#212 = MECHANICAL_DESIGN_GEOMETRIC_PRESENTATION_REPRESENTATION (  '', ( #116 ), #282 ) ;
#213 = VECTOR ( 'NONE', #104, 39.37007874015748143 ) ;
#214 = DIRECTION ( 'NONE',  ( -1.000000000000000000, 0.000000000000000000, 0.000000000000000000 ) ) ;
#215 = ADVANCED_FACE ( 'NONE', ( #246 ), #180, .T. ) ;
#216 = CARTESIAN_POINT ( 'NONE',  ( 0.1875000000000000278, 3.500000000000000000, 0.000000000000000000 ) ) ;
#217 = MECHANICAL_DESIGN_GEOMETRIC_PRESENTATION_REPRESENTATION (  '', ( #203 ), #95 ) ;
#218 = ADVANCED_FACE ( 'NONE', ( #12 ), #239, .T. ) ;
#219 = DIRECTION ( 'NONE',  ( 0.000000000000000000, 0.000000000000000000, -1.000000000000000000 ) ) ;
#220 = CARTESIAN_POINT ( 'NONE',  ( 0.000000000000000000, 0.000000000000000000, -0.1875000000000000278 ) ) ;
#221 = DIRECTION ( 'NONE',  ( -1.000000000000000000, 0.000000000000000000, 0.000000000000000000 ) ) ;
#222 =( CONVERSION_BASED_UNIT ( 'INCH', #40 ) LENGTH_UNIT ( ) NAMED_UNIT ( #115 ) );
#223 = MECHANICAL_DESIGN_GEOMETRIC_PRESENTATION_REPRESENTATION (  '', ( #200 ), #189 ) ;
#224 = SURFACE_SIDE_STYLE ('',( #248 ) ) ;
#225 = ADVANCED_FACE ( 'NONE', ( #27 ), #66, .F. ) ;
#226 = PRESENTATION_LAYER_ASSIGNMENT (  '', '', ( #121 ) ) ;
#227 = ORIENTED_EDGE ( 'NONE', *, *, #96, .T. ) ;
#228 = ORIENTED_EDGE ( 'NONE', *, *, #125, .F. ) ;
#229 = DIRECTION ( 'NONE',  ( 0.000000000000000000, 0.000000000000000000, -1.000000000000000000 ) ) ;
#230 = DIRECTION ( 'NONE',  ( 0.000000000000000000, 0.000000000000000000, -1.000000000000000000 ) ) ;
#231 = EDGE_LOOP ( 'NONE', ( #114, #227, #109, #84 ) ) ;
#232 = ORIENTED_EDGE ( 'NONE', *, *, #89, .T. ) ;
#233 = MANIFOLD_SOLID_BREP ( 'Revolve - Cutting Edge', #29 ) ;
#234 = STYLED_ITEM ( 'NONE', ( #273 ), #193 ) ;
#235 =( LENGTH_UNIT ( ) NAMED_UNIT ( * ) SI_UNIT ( $, .METRE. ) );
#236 = DIRECTION ( 'NONE',  ( -3.061616997868380553E-17, 1.000000000000000000, -0.000000000000000000 ) ) ;
#237 = SURFACE_STYLE_USAGE ( .BOTH. , #139 ) ;
#238 = DIRECTION ( 'NONE',  ( -3.061616997868380553E-17, 1.000000000000000000, -0.000000000000000000 ) ) ;
#239 = CYLINDRICAL_SURFACE ( 'NONE', #16, 0.1875000000000000278 ) ;
#240 = FACE_OUTER_BOUND ( 'NONE', #158, .T. ) ;
#241 =( NAMED_UNIT ( * ) PLANE_ANGLE_UNIT ( ) SI_UNIT ( $, .RADIAN. ) );
#242 = COLOUR_RGB ( '',0.7921568627450980005, 0.8196078431372548767, 0.9333333333333333481 ) ;
#243 =( NAMED_UNIT ( * ) SI_UNIT ( $, .STERADIAN. ) SOLID_ANGLE_UNIT ( ) );
#244 = ORIENTED_EDGE ( 'NONE', *, *, #268, .T. ) ;
#245 = PRODUCT_DEFINITION_FORMATION_WITH_SPECIFIED_SOURCE ( 'ANY', '', #21, .NOT_KNOWN. ) ;
#246 = FACE_OUTER_BOUND ( 'NONE', #140, .T. ) ;
#247 = VECTOR ( 'NONE', #308, 39.37007874015748143 ) ;
#248 = SURFACE_STYLE_FILL_AREA ( #128 ) ;
#249 = EDGE_LOOP ( 'NONE', ( #244, #280 ) ) ;
#250 = PRESENTATION_STYLE_ASSIGNMENT (( #302 ) ) ;
#251 = ORIENTED_EDGE ( 'NONE', *, *, #28, .F. ) ;
#252 = UNCERTAINTY_MEASURE_WITH_UNIT (LENGTH_MEASURE( 1.000000000000000082E-05 ), #5, 'distance_accuracy_value', 'NONE');
#253 = AXIS2_PLACEMENT_3D ( 'NONE', #20, #196, #221 ) ;
#254 = ORIENTED_EDGE ( 'NONE', *, *, #146, .F. ) ;
#255 = AXIS2_PLACEMENT_3D ( 'NONE', #54, #159, #157 ) ;
#256 = LENGTH_MEASURE_WITH_UNIT ( LENGTH_MEASURE( 0.02539999999999999897 ), #235 );
#257 = CIRCLE ( 'NONE', #154, 0.1875000000000000278 ) ;
#258 = SURFACE_STYLE_FILL_AREA ( #286 ) ;
#259 = COLOUR_RGB ( '',0.7921568627450980005, 0.8196078431372548767, 0.9333333333333333481 ) ;
#260 = FILL_AREA_STYLE_COLOUR ( '', #23 ) ;
#261 =( CONVERSION_BASED_UNIT ( 'INCH', #152 ) LENGTH_UNIT ( ) NAMED_UNIT ( #92 ) );
#262 = FILL_AREA_STYLE ('',( #260 ) ) ;
#263 =( NAMED_UNIT ( * ) SI_UNIT ( $, .STERADIAN. ) SOLID_ANGLE_UNIT ( ) );
#264 = DIRECTION ( 'NONE',  ( 0.000000000000000000, 0.000000000000000000, -1.000000000000000000 ) ) ;
#265 = PRESENTATION_LAYER_ASSIGNMENT (  '', '', ( #97 ) ) ;
#266 = AXIS2_PLACEMENT_3D ( 'NONE', #216, #101, #45 ) ;
#267 = DIRECTION ( 'NONE',  ( -3.061616997868380553E-17, 1.000000000000000000, -0.000000000000000000 ) ) ;
#268 = EDGE_CURVE ( 'NONE', #272, #38, #70, .T. ) ;
#269 = DIMENSIONAL_EXPONENTS ( 1.000000000000000000, 0.000000000000000000, 0.000000000000000000, 0.000000000000000000, 0.000000000000000000, 0.000000000000000000, 0.000000000000000000 ) ;
#270 = DIRECTION ( 'NONE',  ( -3.061616997868380553E-17, 1.000000000000000000, -0.000000000000000000 ) ) ;
#271 = SURFACE_STYLE_USAGE ( .BOTH. , #108 ) ;
#272 = VERTEX_POINT ( 'NONE', #220 ) ;
#273 = PRESENTATION_STYLE_ASSIGNMENT (( #271 ) ) ;
#274 = CARTESIAN_POINT ( 'NONE',  ( 2.296212748401287726E-17, 0.000000000000000000, 0.1875000000000000278 ) ) ;
#275 = UNCERTAINTY_MEASURE_WITH_UNIT (LENGTH_MEASURE( 1.000000000000000082E-05 ), #222, 'distance_accuracy_value', 'NONE');
#276 = PRESENTATION_STYLE_ASSIGNMENT (( #11 ) ) ;
#277 = FILL_AREA_STYLE_COLOUR ( '', #294 ) ;
#278 = EDGE_LOOP ( 'NONE', ( #142, #254 ) ) ;
#279 =( NAMED_UNIT ( * ) SI_UNIT ( $, .STERADIAN. ) SOLID_ANGLE_UNIT ( ) );
#280 = ORIENTED_EDGE ( 'NONE', *, *, #46, .T. ) ;
#281 = UNCERTAINTY_MEASURE_WITH_UNIT (LENGTH_MEASURE( 1.000000000000000082E-05 ), #296, 'distance_accuracy_value', 'NONE');
#282 =( GEOMETRIC_REPRESENTATION_CONTEXT ( 3 ) GLOBAL_UNCERTAINTY_ASSIGNED_CONTEXT ( ( #167 ) ) GLOBAL_UNIT_ASSIGNED_CONTEXT ( ( #151, #241, #72 ) ) REPRESENTATION_CONTEXT ( 'NONE', 'WORKASPACE' ) );
#283 = ADVANCED_FACE ( 'NONE', ( #31 ), #73, .T. ) ;
#284 = ADVANCED_FACE ( 'NONE', ( #1 ), #127, .F. ) ;
#285 = CARTESIAN_POINT ( 'NONE',  ( 8.787654976534310161E-35, 1.500000000000000222, 0.000000000000000000 ) ) ;
#286 = FILL_AREA_STYLE ('',( #122 ) ) ;
#287 = AXIS2_PLACEMENT_3D ( 'NONE', #285, #100, #119 ) ;
#288 = EDGE_CURVE ( 'NONE', #160, #305, #131, .T. ) ;
#289 = DIRECTION ( 'NONE',  ( -1.000000000000000000, 0.000000000000000000, 0.000000000000000000 ) ) ;
#290 = APPLICATION_CONTEXT ( 'automotive_design' ) ;
#291 = SURFACE_STYLE_FILL_AREA ( #25 ) ;
#292 = FILL_AREA_STYLE_COLOUR ( '', #259 ) ;
#293 = DIRECTION ( 'NONE',  ( -0.000000000000000000, -1.000000000000000000, -0.000000000000000000 ) ) ;
#294 = COLOUR_RGB ( '',1.000000000000000000, 0.000000000000000000, 0.000000000000000000 ) ;
#295 = CLOSED_SHELL ( 'NONE', ( #283, #225, #120, #284 ) ) ;
#296 =( CONVERSION_BASED_UNIT ( 'INCH', #113 ) LENGTH_UNIT ( ) NAMED_UNIT ( #37 ) );
#297 = DIMENSIONAL_EXPONENTS ( 1.000000000000000000, 0.000000000000000000, 0.000000000000000000, 0.000000000000000000, 0.000000000000000000, 0.000000000000000000, 0.000000000000000000 ) ;
#298 = DIRECTION ( 'NONE',  ( 0.000000000000000000, 0.000000000000000000, -1.000000000000000000 ) ) ;
#299 = CARTESIAN_POINT ( 'NONE',  ( -0.1875000000000000278, 1.500000000000000222, 0.000000000000000000 ) ) ;
#300 = ORIENTED_EDGE ( 'NONE', *, *, #36, .T. ) ;
#301 = PRODUCT_DEFINITION_CONTEXT ( 'detailed design', #22, 'design' ) ;
#302 = SURFACE_STYLE_USAGE ( .BOTH. , #224 ) ;
#303 = CARTESIAN_POINT ( 'NONE',  ( 0.000000000000000000, 1.500000000000000222, 0.000000000000000000 ) ) ;
#304 = FACE_OUTER_BOUND ( 'NONE', #249, .T. ) ;
#305 = VERTEX_POINT ( 'NONE', #175 ) ;
#306 = APPLICATION_PROTOCOL_DEFINITION ( 'draft international standard', 'automotive_design', 1998, #290 ) ;
#307 = AXIS2_PLACEMENT_3D ( 'NONE', #206, #204, #56 ) ;
#308 = DIRECTION ( 'NONE',  ( -0.000000000000000000, -1.000000000000000000, -0.000000000000000000 ) ) ;
#309 = ADVANCED_FACE ( 'NONE', ( #172 ), #149, .T. ) ;
ENDSEC;
END-ISO-10303-21;
