ISO-10303-21;
HEADER;
FILE_DESCRIPTION (( 'STEP AP214' ),
    '1' );
FILE_NAME ('Micro_SME-013-2X.STEP',
    '2021-09-02T10:12:43',
    ( '' ),
    ( '' ),
    'SwSTEP 2.0',
    'SolidWorks 2020',
    '' );
FILE_SCHEMA (( 'AUTOMOTIVE_DESIGN' ));
ENDSEC;

DATA;
#1 = PRODUCT_DEFINITION ( 'UNKNOWN', '', #89, #246 ) ;
#2 = COLOUR_RGB ( '',0.7921568627450980005, 0.8196078431372548767, 0.9333333333333333481 ) ;
#3 = LINE ( 'NONE', #140, #50 ) ;
#4 = ORIENTED_EDGE ( 'NONE', *, *, #224, .T. ) ;
#5 = CARTESIAN_POINT ( 'NONE',  ( 0.0000000000000000000, 0.0000000000000000000, 1.500000000000000222 ) ) ;
#6 = ORIENTED_EDGE ( 'NONE', *, *, #159, .T. ) ;
#7 = DIRECTION ( 'NONE',  ( -1.224646799147353700E-16, -0.0000000000000000000, -1.000000000000000000 ) ) ;
#8 = EDGE_CURVE ( 'NONE', #120, #217, #99, .T. ) ;
#9 = SURFACE_SIDE_STYLE ('',( #268 ) ) ;
#10 = CARTESIAN_POINT ( 'NONE',  ( 0.006493499999999996670, 7.952243990263335634E-19, 1.184750211852384294E-34 ) ) ;
#11 = DIRECTION ( 'NONE',  ( -1.000000000000000000, 0.0000000000000000000, 0.0000000000000000000 ) ) ;
#12 = FILL_AREA_STYLE ('',( #80 ) ) ;
#13 = CARTESIAN_POINT ( 'NONE',  ( 0.0000000000000000000, 0.0000000000000000000, 1.500000000000000222 ) ) ;
#14 = DIMENSIONAL_EXPONENTS ( 1.000000000000000000, 0.0000000000000000000, 0.0000000000000000000, 0.0000000000000000000, 0.0000000000000000000, 0.0000000000000000000, 0.0000000000000000000 ) ;
#15 = VERTEX_POINT ( 'NONE', #10 ) ;
#16 = EDGE_CURVE ( 'NONE', #48, #120, #291, .T. ) ;
#17 = LINE ( 'NONE', #270, #207 ) ;
#18 = LENGTH_MEASURE_WITH_UNIT ( LENGTH_MEASURE( 0.02539999999999999897 ), #153 );
#19 = AXIS2_PLACEMENT_3D ( 'NONE', #279, #234, #78 ) ;
#20 = CARTESIAN_POINT ( 'NONE',  ( 0.06250000000000002776, 7.654042494670959086E-18, 1.485000000000000764 ) ) ;
#21 = ADVANCED_FACE ( 'NONE', ( #264 ), #29, .T. ) ;
#22 = AXIS2_PLACEMENT_3D ( 'NONE', #282, #124, #218 ) ;
#23 = ORIENTED_EDGE ( 'NONE', *, *, #16, .F. ) ;
#24 = AXIS2_PLACEMENT_3D ( 'NONE', #255, #248, #94 ) ;
#25 = LINE ( 'NONE', #97, #199 ) ;
#26 = EDGE_CURVE ( 'NONE', #76, #120, #175, .T. ) ;
#27 = DIRECTION ( 'NONE',  ( -1.224646799147353700E-16, -0.0000000000000000000, -1.000000000000000000 ) ) ;
#28 = EDGE_LOOP ( 'NONE', ( #203, #154, #285, #45 ) ) ;
#29 = CONICAL_SURFACE ( 'NONE', #206, 0.04750000000000064587, 0.7853981633974466137 ) ;
#30 = MECHANICAL_DESIGN_GEOMETRIC_PRESENTATION_REPRESENTATION (  '', ( #186 ), #136 ) ;
#31 =( LENGTH_UNIT ( ) NAMED_UNIT ( * ) SI_UNIT ( $, .METRE. ) );
#32 = EDGE_LOOP ( 'NONE', ( #252, #216, #219, #138 ) ) ;
#33 = EDGE_CURVE ( 'NONE', #120, #48, #259, .T. ) ;
#34 = DIRECTION ( 'NONE',  ( 1.000000000000000000, 0.0000000000000000000, 0.0000000000000000000 ) ) ;
#35 = ORIENTED_EDGE ( 'NONE', *, *, #183, .T. ) ;
#36 = CARTESIAN_POINT ( 'NONE',  ( 0.04750000000000064587, 6.735557395310483192E-18, 1.500000000000000222 ) ) ;
#37 = SURFACE_STYLE_USAGE ( .BOTH. , #9 ) ;
#38 = CARTESIAN_POINT ( 'NONE',  ( 0.0000000000000000000, 0.0000000000000000000, 1.485000000000000764 ) ) ;
#39 = CARTESIAN_POINT ( 'NONE',  ( 0.0000000000000000000, 0.0000000000000000000, 0.0000000000000000000 ) ) ;
#40 = AXIS2_PLACEMENT_3D ( 'NONE', #39, #258, #290 ) ;
#41 = DIRECTION ( 'NONE',  ( 0.0000000000000000000, 0.0000000000000000000, 1.000000000000000000 ) ) ;
#42 = DIRECTION ( 'NONE',  ( 0.0000000000000000000, 0.0000000000000000000, 1.000000000000000000 ) ) ;
#43 = DIRECTION ( 'NONE',  ( -1.000000000000000000, 0.0000000000000000000, 1.224646799147353700E-16 ) ) ;
#44 = EDGE_CURVE ( 'NONE', #76, #162, #160, .T. ) ;
#45 = ORIENTED_EDGE ( 'NONE', *, *, #148, .F. ) ;
#46 = UNCERTAINTY_MEASURE_WITH_UNIT (LENGTH_MEASURE( 1.000000000000000082E-05 ), #201, 'distance_accuracy_value', 'NONE');
#47 = ORIENTED_EDGE ( 'NONE', *, *, #269, .T. ) ;
#48 = VERTEX_POINT ( 'NONE', #20 ) ;
#49 = DIRECTION ( 'NONE',  ( -1.224646799147353700E-16, -0.0000000000000000000, -1.000000000000000000 ) ) ;
#50 = VECTOR ( 'NONE', #95, 39.37007874015747433 ) ;
#51 = EDGE_LOOP ( 'NONE', ( #47, #139 ) ) ;
#52 = DIRECTION ( 'NONE',  ( -1.000000000000000000, 0.0000000000000000000, 0.0000000000000000000 ) ) ;
#53 = ORIENTED_EDGE ( 'NONE', *, *, #224, .F. ) ;
#54 = ADVANCED_FACE ( 'NONE', ( #65 ), #271, .T. ) ;
#55 = AXIS2_PLACEMENT_3D ( 'NONE', #188, #77, #189 ) ;
#56 = DIRECTION ( 'NONE',  ( 0.0000000000000000000, 0.0000000000000000000, 1.000000000000000000 ) ) ;
#57 =( NAMED_UNIT ( * ) PLANE_ANGLE_UNIT ( ) SI_UNIT ( $, .RADIAN. ) );
#58 = VERTEX_POINT ( 'NONE', #243 ) ;
#59 =( NAMED_UNIT ( * ) SI_UNIT ( $, .STERADIAN. ) SOLID_ANGLE_UNIT ( ) );
#60 = EDGE_LOOP ( 'NONE', ( #81, #287, #4, #170 ) ) ;
#61 = CIRCLE ( 'NONE', #91, 0.06250000000000002776 ) ;
#62 = EDGE_CURVE ( 'NONE', #48, #106, #130, .T. ) ;
#63 =( NAMED_UNIT ( * ) SI_UNIT ( $, .STERADIAN. ) SOLID_ANGLE_UNIT ( ) );
#64 = AXIS2_PLACEMENT_3D ( 'NONE', #38, #126, #222 ) ;
#65 = FACE_OUTER_BOUND ( 'NONE', #32, .T. ) ;
#66 = AXIS2_PLACEMENT_3D ( 'NONE', #196, #238, #11 ) ;
#67 = UNCERTAINTY_MEASURE_WITH_UNIT (LENGTH_MEASURE( 1.000000000000000082E-05 ), #242, 'distance_accuracy_value', 'NONE');
#68 = DIRECTION ( 'NONE',  ( 0.0000000000000000000, 0.0000000000000000000, 1.000000000000000000 ) ) ;
#69 =( GEOMETRIC_REPRESENTATION_CONTEXT ( 3 ) GLOBAL_UNCERTAINTY_ASSIGNED_CONTEXT ( ( #150 ) ) GLOBAL_UNIT_ASSIGNED_CONTEXT ( ( #221, #180, #174 ) ) REPRESENTATION_CONTEXT ( 'NONE', 'WORKASPACE' ) );
#70 = DIRECTION ( 'NONE',  ( 0.1736481776669313581, 0.0000000000000000000, 0.9848077530122077983 ) ) ;
#71 = EDGE_LOOP ( 'NONE', ( #261, #142, #96, #87 ) ) ;
#72 = EDGE_CURVE ( 'NONE', #58, #15, #17, .T. ) ;
#73 = VERTEX_POINT ( 'NONE', #244 ) ;
#74 = CONICAL_SURFACE ( 'NONE', #24, 0.04750000000000064587, 0.7853981633974466137 ) ;
#75 = SURFACE_SIDE_STYLE ('',( #278 ) ) ;
#76 = VERTEX_POINT ( 'NONE', #226 ) ;
#77 = DIRECTION ( 'NONE',  ( 1.224646799147353700E-16, 0.0000000000000000000, 1.000000000000000000 ) ) ;
#78 = DIRECTION ( 'NONE',  ( 1.000000000000000000, 0.0000000000000000000, 0.0000000000000000000 ) ) ;
#79 = FACE_OUTER_BOUND ( 'NONE', #227, .T. ) ;
#80 = FILL_AREA_STYLE_COLOUR ( '', #267 ) ;
#81 = ORIENTED_EDGE ( 'NONE', *, *, #72, .F. ) ;
#82 = CARTESIAN_POINT ( 'NONE',  ( 0.04750000000000064587, 5.817072295950006528E-18, 1.500000000000000222 ) ) ;
#83 =( NAMED_UNIT ( * ) PLANE_ANGLE_UNIT ( ) SI_UNIT ( $, .RADIAN. ) );
#84 = DIRECTION ( 'NONE',  ( -1.000000000000000000, 0.0000000000000000000, 0.0000000000000000000 ) ) ;
#85 = VECTOR ( 'NONE', #195, 39.37007874015748143 ) ;
#86 = ORIENTED_EDGE ( 'NONE', *, *, #72, .T. ) ;
#87 = ORIENTED_EDGE ( 'NONE', *, *, #26, .F. ) ;
#88 = PLANE ( 'NONE',  #92 ) ;
#89 = PRODUCT_DEFINITION_FORMATION_WITH_SPECIFIED_SOURCE ( 'ANY', '', #230, .NOT_KNOWN. ) ;
#90 =( LENGTH_UNIT ( ) NAMED_UNIT ( * ) SI_UNIT ( $, .METRE. ) );
#91 = AXIS2_PLACEMENT_3D ( 'NONE', #105, #176, #263 ) ;
#92 = AXIS2_PLACEMENT_3D ( 'NONE', #181, #56, #220 ) ;
#93 = DIMENSIONAL_EXPONENTS ( 1.000000000000000000, 0.0000000000000000000, 0.0000000000000000000, 0.0000000000000000000, 0.0000000000000000000, 0.0000000000000000000, 0.0000000000000000000 ) ;
#94 = DIRECTION ( 'NONE',  ( -1.000000000000000000, 0.0000000000000000000, 0.0000000000000000000 ) ) ;
#95 = DIRECTION ( 'NONE',  ( -0.1736481776669311639, 2.126576849575783008E-17, 0.9848077530122080203 ) ) ;
#96 = ORIENTED_EDGE ( 'NONE', *, *, #33, .F. ) ;
#97 = CARTESIAN_POINT ( 'NONE',  ( -0.006493499999999999273, 0.0000000000000000000, 7.952243990263339486E-19 ) ) ;
#98 = AXIS2_PLACEMENT_3D ( 'NONE', #235, #7, #34 ) ;
#99 = LINE ( 'NONE', #231, #85 ) ;
#100 = DIRECTION ( 'NONE',  ( 1.000000000000000000, 0.0000000000000000000, -0.0000000000000000000 ) ) ;
#101 = DIRECTION ( 'NONE',  ( 0.0000000000000000000, 0.0000000000000000000, -1.000000000000000000 ) ) ;
#102 = SHAPE_DEFINITION_REPRESENTATION ( #193, #298 ) ;
#103 = ORIENTED_EDGE ( 'NONE', *, *, #262, .F. ) ;
#104 = CONICAL_SURFACE ( 'NONE', #55, 0.006493500000000001007, 0.1745329251994338637 ) ;
#105 = CARTESIAN_POINT ( 'NONE',  ( 4.122511928827411493E-17, 0.0000000000000000000, 0.3366286452304176890 ) ) ;
#106 = VERTEX_POINT ( 'NONE', #208 ) ;
#107 = DIRECTION ( 'NONE',  ( 0.0000000000000000000, 0.0000000000000000000, 1.000000000000000000 ) ) ;
#108 = ORIENTED_EDGE ( 'NONE', *, *, #161, .F. ) ;
#109 = PRESENTATION_STYLE_ASSIGNMENT (( #37 ) ) ;
#110 = DIRECTION ( 'NONE',  ( -1.224646799147353700E-16, -0.0000000000000000000, -1.000000000000000000 ) ) ;
#111 = ADVANCED_FACE ( 'NONE', ( #79 ), #288, .T. ) ;
#112 = AXIS2_PLACEMENT_3D ( 'NONE', #289, #41, #132 ) ;
#113 = APPLICATION_PROTOCOL_DEFINITION ( 'draft international standard', 'automotive_design', 1998, #182 ) ;
#114 = ADVANCED_FACE ( 'NONE', ( #200 ), #168, .T. ) ;
#115 = ORIENTED_EDGE ( 'NONE', *, *, #209, .T. ) ;
#116 = DIMENSIONAL_EXPONENTS ( 1.000000000000000000, 0.0000000000000000000, 0.0000000000000000000, 0.0000000000000000000, 0.0000000000000000000, 0.0000000000000000000, 0.0000000000000000000 ) ;
#117 = VECTOR ( 'NONE', #286, 39.37007874015748854 ) ;
#118 = DIRECTION ( 'NONE',  ( -1.224646799147353700E-16, -0.0000000000000000000, -1.000000000000000000 ) ) ;
#119 = DIRECTION ( 'NONE',  ( -0.0000000000000000000, -0.0000000000000000000, -1.000000000000000000 ) ) ;
#120 = VERTEX_POINT ( 'NONE', #204 ) ;
#121 = CIRCLE ( 'NONE', #98, 0.06250000000000002776 ) ;
#122 = FACE_OUTER_BOUND ( 'NONE', #28, .T. ) ;
#123 = EDGE_LOOP ( 'NONE', ( #103, #202, #115, #281 ) ) ;
#124 = DIRECTION ( 'NONE',  ( -1.224646799147353700E-16, -0.0000000000000000000, -1.000000000000000000 ) ) ;
#125 = ADVANCED_FACE ( 'NONE', ( #178 ), #265, .T. ) ;
#126 = DIRECTION ( 'NONE',  ( 0.0000000000000000000, 0.0000000000000000000, -1.000000000000000000 ) ) ;
#127 = AXIS2_PLACEMENT_3D ( 'NONE', #276, #118, #214 ) ;
#128 = DIRECTION ( 'NONE',  ( -1.224646799147353700E-16, -0.0000000000000000000, -1.000000000000000000 ) ) ;
#129 = LENGTH_MEASURE_WITH_UNIT ( LENGTH_MEASURE( 0.02539999999999999897 ), #31 );
#130 = LINE ( 'NONE', #157, #294 ) ;
#131 = ADVANCED_FACE ( 'NONE', ( #149 ), #241, .T. ) ;
#132 = DIRECTION ( 'NONE',  ( 1.000000000000000000, 0.0000000000000000000, 0.0000000000000000000 ) ) ;
#133 = CIRCLE ( 'NONE', #228, 0.006493500000000001007 ) ;
#134 = APPLICATION_CONTEXT ( 'automotive_design' ) ;
#135 = ADVANCED_FACE ( 'NONE', ( #173 ), #88, .F. ) ;
#136 =( GEOMETRIC_REPRESENTATION_CONTEXT ( 3 ) GLOBAL_UNCERTAINTY_ASSIGNED_CONTEXT ( ( #67 ) ) GLOBAL_UNIT_ASSIGNED_CONTEXT ( ( #242, #57, #63 ) ) REPRESENTATION_CONTEXT ( 'NONE', 'WORKASPACE' ) );
#137 = VERTEX_POINT ( 'NONE', #147 ) ;
#138 = ORIENTED_EDGE ( 'NONE', *, *, #209, .F. ) ;
#139 = ORIENTED_EDGE ( 'NONE', *, *, #179, .T. ) ;
#140 = CARTESIAN_POINT ( 'NONE',  ( -0.006493499999999999273, 7.952243990263339486E-19, 0.01899999999999999953 ) ) ;
#141 =( GEOMETRIC_REPRESENTATION_CONTEXT ( 3 ) GLOBAL_UNCERTAINTY_ASSIGNED_CONTEXT ( ( #46 ) ) GLOBAL_UNIT_ASSIGNED_CONTEXT ( ( #201, #83, #59 ) ) REPRESENTATION_CONTEXT ( 'NONE', 'WORKASPACE' ) );
#142 = ORIENTED_EDGE ( 'NONE', *, *, #161, .T. ) ;
#143 = ORIENTED_EDGE ( 'NONE', *, *, #269, .F. ) ;
#144 = CARTESIAN_POINT ( 'NONE',  ( 0.0000000000000000000, 0.0000000000000000000, 1.500000000000000222 ) ) ;
#145 = EDGE_LOOP ( 'NONE', ( #6, #86, #143, #53 ) ) ;
#146 = VECTOR ( 'NONE', #237, 39.37007874015748854 ) ;
#147 = CARTESIAN_POINT ( 'NONE',  ( -0.006493499999999996670, 0.0000000000000000000, 1.590448798052667512E-18 ) ) ;
#148 = EDGE_CURVE ( 'NONE', #106, #217, #121, .T. ) ;
#149 = FACE_OUTER_BOUND ( 'NONE', #60, .T. ) ;
#150 = UNCERTAINTY_MEASURE_WITH_UNIT (LENGTH_MEASURE( 1.000000000000000082E-05 ), #221, 'distance_accuracy_value', 'NONE');
#151 = CARTESIAN_POINT ( 'NONE',  ( -0.04750000000000064587, 0.0000000000000000000, 1.500000000000000222 ) ) ;
#152 = CARTESIAN_POINT ( 'NONE',  ( 9.738690148714777156E-35, 0.0000000000000000000, 7.952243990263337560E-19 ) ) ;
#153 =( LENGTH_UNIT ( ) NAMED_UNIT ( * ) SI_UNIT ( $, .METRE. ) );
#154 = ORIENTED_EDGE ( 'NONE', *, *, #16, .T. ) ;
#155 = CIRCLE ( 'NONE', #191, 0.006493499999999996670 ) ;
#156 = DIRECTION ( 'NONE',  ( 1.000000000000000000, 0.0000000000000000000, 0.0000000000000000000 ) ) ;
#157 = CARTESIAN_POINT ( 'NONE',  ( 0.06250000000000002776, 7.654042494670959086E-18, 1.500000000000000222 ) ) ;
#158 = DIRECTION ( 'NONE',  ( 1.224646799147353700E-16, 0.0000000000000000000, 1.000000000000000000 ) ) ;
#159 = EDGE_CURVE ( 'NONE', #73, #58, #223, .T. ) ;
#160 = CIRCLE ( 'NONE', #185, 0.04750000000000064587 ) ;
#161 = EDGE_CURVE ( 'NONE', #162, #48, #236, .T. ) ;
#162 = VERTEX_POINT ( 'NONE', #36 ) ;
#163 = ORIENTED_EDGE ( 'NONE', *, *, #44, .T. ) ;
#164 = FILL_AREA_STYLE ('',( #229 ) ) ;
#165 = VECTOR ( 'NONE', #70, 39.37007874015748143 ) ;
#166 = EDGE_CURVE ( 'NONE', #217, #106, #61, .T. ) ;
#167 = CARTESIAN_POINT ( 'NONE',  ( 0.0000000000000000000, 0.0000000000000000000, 1.500000000000000222 ) ) ;
#168 = CYLINDRICAL_SURFACE ( 'NONE', #66, 0.06250000000000002776 ) ;
#169 = APPLICATION_PROTOCOL_DEFINITION ( 'draft international standard', 'automotive_design', 1998, #134 ) ;
#170 = ORIENTED_EDGE ( 'NONE', *, *, #179, .F. ) ;
#171 = AXIS2_PLACEMENT_3D ( 'NONE', #266, #158, #156 ) ;
#172 = AXIS2_PLACEMENT_3D ( 'NONE', #144, #119, #192 ) ;
#173 = FACE_OUTER_BOUND ( 'NONE', #51, .T. ) ;
#174 =( NAMED_UNIT ( * ) SI_UNIT ( $, .STERADIAN. ) SOLID_ANGLE_UNIT ( ) );
#175 = LINE ( 'NONE', #151, #146 ) ;
#176 = DIRECTION ( 'NONE',  ( -1.224646799147353700E-16, -0.0000000000000000000, -1.000000000000000000 ) ) ;
#177 = ORIENTED_EDGE ( 'NONE', *, *, #166, .F. ) ;
#178 = FACE_OUTER_BOUND ( 'NONE', #145, .T. ) ;
#179 = EDGE_CURVE ( 'NONE', #15, #137, #155, .T. ) ;
#180 =( NAMED_UNIT ( * ) PLANE_ANGLE_UNIT ( ) SI_UNIT ( $, .RADIAN. ) );
#181 = CARTESIAN_POINT ( 'NONE',  ( 0.0000000000000000000, 0.0000000000000000000, 0.0000000000000000000 ) ) ;
#182 = APPLICATION_CONTEXT ( 'automotive_design' ) ;
#183 = EDGE_CURVE ( 'NONE', #162, #76, #283, .T. ) ;
#184 = ORIENTED_EDGE ( 'NONE', *, *, #26, .T. ) ;
#185 = AXIS2_PLACEMENT_3D ( 'NONE', #13, #42, #292 ) ;
#186 = STYLED_ITEM ( 'NONE', ( #109 ), #298 ) ;
#187 = ORIENTED_EDGE ( 'NONE', *, *, #44, .F. ) ;
#188 = CARTESIAN_POINT ( 'NONE',  ( 2.326828918379971719E-18, 0.0000000000000000000, 0.01899999999999999953 ) ) ;
#189 = DIRECTION ( 'NONE',  ( 1.000000000000000000, 0.0000000000000000000, 0.0000000000000000000 ) ) ;
#190 = ADVANCED_FACE ( 'NONE', ( #194 ), #104, .T. ) ;
#191 = AXIS2_PLACEMENT_3D ( 'NONE', #152, #251, #43 ) ;
#192 = DIRECTION ( 'NONE',  ( -1.000000000000000000, 0.0000000000000000000, 0.0000000000000000000 ) ) ;
#193 = PRODUCT_DEFINITION_SHAPE ( 'NONE', 'NONE',  #1 ) ;
#194 = FACE_OUTER_BOUND ( 'NONE', #123, .T. ) ;
#195 = DIRECTION ( 'NONE',  ( -0.0000000000000000000, -0.0000000000000000000, -1.000000000000000000 ) ) ;
#196 = CARTESIAN_POINT ( 'NONE',  ( 0.0000000000000000000, 0.0000000000000000000, 1.500000000000000222 ) ) ;
#197 = DIRECTION ( 'NONE',  ( -1.000000000000000000, 0.0000000000000000000, 1.224646799147353454E-16 ) ) ;
#198 = ORIENTED_EDGE ( 'NONE', *, *, #62, .T. ) ;
#199 = VECTOR ( 'NONE', #27, 39.37007874015748143 ) ;
#200 = FACE_OUTER_BOUND ( 'NONE', #256, .T. ) ;
#201 =( CONVERSION_BASED_UNIT ( 'INCH', #129 ) LENGTH_UNIT ( ) NAMED_UNIT ( #93 ) );
#202 = ORIENTED_EDGE ( 'NONE', *, *, #249, .F. ) ;
#203 = ORIENTED_EDGE ( 'NONE', *, *, #62, .F. ) ;
#204 = CARTESIAN_POINT ( 'NONE',  ( -0.06250000000000002776, 0.0000000000000000000, 1.485000000000000764 ) ) ;
#205 = CARTESIAN_POINT ( 'NONE',  ( 0.0000000000000000000, 0.0000000000000000000, 1.500000000000000222 ) ) ;
#206 = AXIS2_PLACEMENT_3D ( 'NONE', #167, #101, #84 ) ;
#207 = VECTOR ( 'NONE', #110, 39.37007874015748143 ) ;
#208 = CARTESIAN_POINT ( 'NONE',  ( 0.06250000000000006939, 7.654042494670963708E-18, 0.3366286452304176890 ) ) ;
#209 = EDGE_CURVE ( 'NONE', #58, #106, #257, .T. ) ;
#210 = PRESENTATION_LAYER_ASSIGNMENT (  '', '', ( #186 ) ) ;
#211 = DIRECTION ( 'NONE',  ( 1.000000000000000000, 0.0000000000000000000, 0.0000000000000000000 ) ) ;
#212 = CLOSED_SHELL ( 'NONE', ( #125, #54, #213, #114, #273, #111, #21, #190, #131, #135 ) ) ;
#213 = ADVANCED_FACE ( 'NONE', ( #295 ), #74, .T. ) ;
#214 = DIRECTION ( 'NONE',  ( -1.000000000000000000, 0.0000000000000000000, 1.224646799147353700E-16 ) ) ;
#215 = SURFACE_STYLE_USAGE ( .BOTH. , #75 ) ;
#216 = ORIENTED_EDGE ( 'NONE', *, *, #262, .T. ) ;
#217 = VERTEX_POINT ( 'NONE', #275 ) ;
#218 = DIRECTION ( 'NONE',  ( -1.000000000000000000, 0.0000000000000000000, 0.0000000000000000000 ) ) ;
#219 = ORIENTED_EDGE ( 'NONE', *, *, #166, .T. ) ;
#220 = DIRECTION ( 'NONE',  ( 1.000000000000000000, 0.0000000000000000000, -0.0000000000000000000 ) ) ;
#221 =( CONVERSION_BASED_UNIT ( 'INCH', #18 ) LENGTH_UNIT ( ) NAMED_UNIT ( #14 ) );
#222 = DIRECTION ( 'NONE',  ( 1.000000000000000000, 0.0000000000000000000, 0.0000000000000000000 ) ) ;
#223 = CIRCLE ( 'NONE', #22, 0.006493500000000001007 ) ;
#224 = EDGE_CURVE ( 'NONE', #73, #137, #25, .T. ) ;
#225 = DIRECTION ( 'NONE',  ( -0.0000000000000000000, -0.0000000000000000000, -1.000000000000000000 ) ) ;
#226 = CARTESIAN_POINT ( 'NONE',  ( -0.04750000000000064587, 0.0000000000000000000, 1.500000000000000222 ) ) ;
#227 = EDGE_LOOP ( 'NONE', ( #163, #35 ) ) ;
#228 = AXIS2_PLACEMENT_3D ( 'NONE', #250, #49, #52 ) ;
#229 = FILL_AREA_STYLE_COLOUR ( '', #2 ) ;
#230 = PRODUCT ( 'Micro_SME-013-2X', 'Micro_SME-013-2X', '', ( #280 ) ) ;
#231 = CARTESIAN_POINT ( 'NONE',  ( -0.06250000000000002776, 0.0000000000000000000, 1.500000000000000222 ) ) ;
#232 = CARTESIAN_POINT ( 'NONE',  ( 0.0000000000000000000, 0.0000000000000000000, 0.0000000000000000000 ) ) ;
#233 = AXIS2_PLACEMENT_3D ( 'NONE', #232, #128, #197 ) ;
#234 = DIRECTION ( 'NONE',  ( 0.0000000000000000000, 0.0000000000000000000, -1.000000000000000000 ) ) ;
#235 = CARTESIAN_POINT ( 'NONE',  ( 4.122511928827411493E-17, 0.0000000000000000000, 0.3366286452304176890 ) ) ;
#236 = LINE ( 'NONE', #82, #117 ) ;
#237 = DIRECTION ( 'NONE',  ( -0.7071067811865462405, 0.0000000000000000000, -0.7071067811865486830 ) ) ;
#238 = DIRECTION ( 'NONE',  ( -0.0000000000000000000, -0.0000000000000000000, -1.000000000000000000 ) ) ;
#239 = EDGE_LOOP ( 'NONE', ( #108, #187, #184, #23 ) ) ;
#240 = AXIS2_PLACEMENT_3D ( 'NONE', #5, #107, #100 ) ;
#241 = CYLINDRICAL_SURFACE ( 'NONE', #40, 0.006493499999999999273 ) ;
#242 =( CONVERSION_BASED_UNIT ( 'INCH', #284 ) LENGTH_UNIT ( ) NAMED_UNIT ( #116 ) );
#243 = CARTESIAN_POINT ( 'NONE',  ( 0.006493500000000003609, 0.0000000000000000000, 0.01899999999999999953 ) ) ;
#244 = CARTESIAN_POINT ( 'NONE',  ( -0.006493499999999999273, 4.224633446848647287E-18, 0.01899999999999999953 ) ) ;
#245 = PRODUCT_RELATED_PRODUCT_CATEGORY ( 'part', '', ( #230 ) ) ;
#246 = PRODUCT_DEFINITION_CONTEXT ( 'detailed design', #134, 'design' ) ;
#247 = AXIS2_PLACEMENT_3D ( 'NONE', #205, #68, #211 ) ;
#248 = DIRECTION ( 'NONE',  ( 0.0000000000000000000, 0.0000000000000000000, -1.000000000000000000 ) ) ;
#249 = EDGE_CURVE ( 'NONE', #58, #73, #133, .T. ) ;
#250 = CARTESIAN_POINT ( 'NONE',  ( 2.326828918379971719E-18, 0.0000000000000000000, 0.01899999999999999953 ) ) ;
#251 = DIRECTION ( 'NONE',  ( -1.224646799147353700E-16, -0.0000000000000000000, -1.000000000000000000 ) ) ;
#252 = ORIENTED_EDGE ( 'NONE', *, *, #159, .F. ) ;
#253 = MECHANICAL_DESIGN_GEOMETRIC_PRESENTATION_REPRESENTATION (  '', ( #277 ), #141 ) ;
#254 = PRESENTATION_STYLE_ASSIGNMENT (( #215 ) ) ;
#255 = CARTESIAN_POINT ( 'NONE',  ( 0.0000000000000000000, 0.0000000000000000000, 1.500000000000000222 ) ) ;
#256 = EDGE_LOOP ( 'NONE', ( #297, #198, #177, #260 ) ) ;
#257 = LINE ( 'NONE', #296, #165 ) ;
#258 = DIRECTION ( 'NONE',  ( -1.224646799147353700E-16, -0.0000000000000000000, -1.000000000000000000 ) ) ;
#259 = CIRCLE ( 'NONE', #64, 0.06250000000000002776 ) ;
#260 = ORIENTED_EDGE ( 'NONE', *, *, #8, .F. ) ;
#261 = ORIENTED_EDGE ( 'NONE', *, *, #183, .F. ) ;
#262 = EDGE_CURVE ( 'NONE', #73, #217, #3, .T. ) ;
#263 = DIRECTION ( 'NONE',  ( 1.000000000000000000, 0.0000000000000000000, 0.0000000000000000000 ) ) ;
#264 = FACE_OUTER_BOUND ( 'NONE', #239, .T. ) ;
#265 = CYLINDRICAL_SURFACE ( 'NONE', #233, 0.006493499999999999273 ) ;
#266 = CARTESIAN_POINT ( 'NONE',  ( 2.326828918379971719E-18, 0.0000000000000000000, 0.01899999999999999953 ) ) ;
#267 = COLOUR_RGB ( '',0.7921568627450980005, 0.8196078431372548767, 0.9333333333333333481 ) ;
#268 = SURFACE_STYLE_FILL_AREA ( #12 ) ;
#269 = EDGE_CURVE ( 'NONE', #137, #15, #274, .T. ) ;
#270 = CARTESIAN_POINT ( 'NONE',  ( 0.006493499999999999273, 7.952243990263336597E-19, -7.952243990263339486E-19 ) ) ;
#271 = CONICAL_SURFACE ( 'NONE', #171, 0.006493500000000001007, 0.1745329251994338637 ) ;
#272 = PRESENTATION_LAYER_ASSIGNMENT (  '', '', ( #277 ) ) ;
#273 = ADVANCED_FACE ( 'NONE', ( #122 ), #299, .T. ) ;
#274 = CIRCLE ( 'NONE', #127, 0.006493499999999996670 ) ;
#275 = CARTESIAN_POINT ( 'NONE',  ( -0.06249999999999997918, 0.0000000000000000000, 0.3366286452304176890 ) ) ;
#276 = CARTESIAN_POINT ( 'NONE',  ( 9.738690148714777156E-35, 0.0000000000000000000, 7.952243990263337560E-19 ) ) ;
#277 = STYLED_ITEM ( 'NONE', ( #254 ), #293 ) ;
#278 = SURFACE_STYLE_FILL_AREA ( #164 ) ;
#279 = CARTESIAN_POINT ( 'NONE',  ( 0.0000000000000000000, 0.0000000000000000000, 1.485000000000000764 ) ) ;
#280 = PRODUCT_CONTEXT ( 'NONE', #182, 'mechanical' ) ;
#281 = ORIENTED_EDGE ( 'NONE', *, *, #148, .T. ) ;
#282 = CARTESIAN_POINT ( 'NONE',  ( 2.326828918379971719E-18, 0.0000000000000000000, 0.01899999999999999953 ) ) ;
#283 = CIRCLE ( 'NONE', #247, 0.04750000000000064587 ) ;
#284 = LENGTH_MEASURE_WITH_UNIT ( LENGTH_MEASURE( 0.02539999999999999897 ), #90 );
#285 = ORIENTED_EDGE ( 'NONE', *, *, #8, .T. ) ;
#286 = DIRECTION ( 'NONE',  ( 0.7071067811865462405, 8.659560562354916834E-17, -0.7071067811865486830 ) ) ;
#287 = ORIENTED_EDGE ( 'NONE', *, *, #249, .T. ) ;
#288 = PLANE ( 'NONE',  #240 ) ;
#289 = CARTESIAN_POINT ( 'NONE',  ( 0.0000000000000000000, 0.0000000000000000000, 0.0000000000000000000 ) ) ;
#290 = DIRECTION ( 'NONE',  ( -1.000000000000000000, 0.0000000000000000000, 1.224646799147353454E-16 ) ) ;
#291 = CIRCLE ( 'NONE', #19, 0.06250000000000002776 ) ;
#292 = DIRECTION ( 'NONE',  ( 1.000000000000000000, 0.0000000000000000000, 0.0000000000000000000 ) ) ;
#293 = MANIFOLD_SOLID_BREP ( 'Cut-Revolve1', #212 ) ;
#294 = VECTOR ( 'NONE', #225, 39.37007874015748143 ) ;
#295 = FACE_OUTER_BOUND ( 'NONE', #71, .T. ) ;
#296 = CARTESIAN_POINT ( 'NONE',  ( 0.006493500000000003609, 0.0000000000000000000, 0.01899999999999999953 ) ) ;
#297 = ORIENTED_EDGE ( 'NONE', *, *, #33, .T. ) ;
#298 = ADVANCED_BREP_SHAPE_REPRESENTATION ( 'Micro_SME-013-2X', ( #293, #112 ), #69 ) ;
#299 = CYLINDRICAL_SURFACE ( 'NONE', #172, 0.06250000000000002776 ) ;
ENDSEC;
END-ISO-10303-21;
