ISO-10303-21;
HEADER;
FILE_DESCRIPTION (( 'STEP AP214' ),
    '1' );
FILE_NAME ('Micro_SME-031-2.STEP',
    '2021-09-02T11:42:21',
    ( '' ),
    ( '' ),
    'SwSTEP 2.0',
    'SolidWorks 2020',
    '' );
FILE_SCHEMA (( 'AUTOMOTIVE_DESIGN' ));
ENDSEC;

DATA;
#1 = DIRECTION ( 'NONE',  ( -0.0000000000000000000, -0.0000000000000000000, -1.000000000000000000 ) ) ;
#2 = CIRCLE ( 'NONE', #10, 0.06250000000000002776 ) ;
#3 = EDGE_CURVE ( 'NONE', #268, #250, #283, .T. ) ;
#4 = DIRECTION ( 'NONE',  ( -1.000000000000000000, 0.0000000000000000000, 0.0000000000000000000 ) ) ;
#5 = PRESENTATION_LAYER_ASSIGNMENT (  '', '', ( #275 ) ) ;
#6 = DIRECTION ( 'NONE',  ( 1.000000000000000000, 0.0000000000000000000, 0.0000000000000000000 ) ) ;
#7 = DIRECTION ( 'NONE',  ( -1.224646799147353700E-16, -0.0000000000000000000, -1.000000000000000000 ) ) ;
#8 = CARTESIAN_POINT ( 'NONE',  ( -0.01548450000000000173, 0.0000000000000000000, 3.792608672279440787E-18 ) ) ;
#9 = CARTESIAN_POINT ( 'NONE',  ( 0.01548450000000000694, 0.0000000000000000000, 0.04700000000000000705 ) ) ;
#10 = AXIS2_PLACEMENT_3D ( 'NONE', #112, #295, #209 ) ;
#11 = DIMENSIONAL_EXPONENTS ( 1.000000000000000000, 0.0000000000000000000, 0.0000000000000000000, 0.0000000000000000000, 0.0000000000000000000, 0.0000000000000000000, 0.0000000000000000000 ) ;
#12 = ADVANCED_BREP_SHAPE_REPRESENTATION ( 'Micro_SME-031-2', ( #115, #140 ), #191 ) ;
#13 =( NAMED_UNIT ( * ) SI_UNIT ( $, .STERADIAN. ) SOLID_ANGLE_UNIT ( ) );
#14 = PRODUCT_DEFINITION ( 'UNKNOWN', '', #205, #212 ) ;
#15 = ORIENTED_EDGE ( 'NONE', *, *, #131, .T. ) ;
#16 = LINE ( 'NONE', #114, #294 ) ;
#17 = CARTESIAN_POINT ( 'NONE',  ( 0.0000000000000000000, 0.0000000000000000000, 1.500000000000000222 ) ) ;
#18 = UNCERTAINTY_MEASURE_WITH_UNIT (LENGTH_MEASURE( 1.000000000000000082E-05 ), #258, 'distance_accuracy_value', 'NONE');
#19 = MECHANICAL_DESIGN_GEOMETRIC_PRESENTATION_REPRESENTATION (  '', ( #275 ), #63 ) ;
#20 = AXIS2_PLACEMENT_3D ( 'NONE', #107, #197, #245 ) ;
#21 = PRODUCT ( 'Micro_SME-031-2', 'Micro_SME-031-2', '', ( #101 ) ) ;
#22 = VERTEX_POINT ( 'NONE', #261 ) ;
#23 = VECTOR ( 'NONE', #137, 39.37007874015747433 ) ;
#24 = EDGE_CURVE ( 'NONE', #25, #221, #49, .T. ) ;
#25 = VERTEX_POINT ( 'NONE', #119 ) ;
#26 = ORIENTED_EDGE ( 'NONE', *, *, #113, .F. ) ;
#27 = DIRECTION ( 'NONE',  ( 1.000000000000000000, 0.0000000000000000000, 0.0000000000000000000 ) ) ;
#28 = PRODUCT_RELATED_PRODUCT_CATEGORY ( 'part', '', ( #21 ) ) ;
#29 = SURFACE_STYLE_FILL_AREA ( #79 ) ;
#30 = CIRCLE ( 'NONE', #204, 0.01548450000000000000 ) ;
#31 = DIRECTION ( 'NONE',  ( 0.0000000000000000000, 0.0000000000000000000, 1.000000000000000000 ) ) ;
#32 = ORIENTED_EDGE ( 'NONE', *, *, #66, .T. ) ;
#33 = ORIENTED_EDGE ( 'NONE', *, *, #131, .F. ) ;
#34 = ADVANCED_FACE ( 'NONE', ( #215 ), #91, .T. ) ;
#35 = DIRECTION ( 'NONE',  ( -1.000000000000000000, 0.0000000000000000000, 1.224646799147353947E-16 ) ) ;
#36 = CARTESIAN_POINT ( 'NONE',  ( 0.0000000000000000000, 0.0000000000000000000, 1.500000000000000222 ) ) ;
#37 = EDGE_LOOP ( 'NONE', ( #139, #56, #180, #94 ) ) ;
#38 = DIRECTION ( 'NONE',  ( -0.0000000000000000000, -0.0000000000000000000, -1.000000000000000000 ) ) ;
#39 = FACE_OUTER_BOUND ( 'NONE', #37, .T. ) ;
#40 = ORIENTED_EDGE ( 'NONE', *, *, #161, .F. ) ;
#41 = DIRECTION ( 'NONE',  ( -1.224646799147353700E-16, -0.0000000000000000000, -1.000000000000000000 ) ) ;
#42 = LINE ( 'NONE', #231, #93 ) ;
#43 = COLOUR_RGB ( '',0.7921568627450980005, 0.8196078431372548767, 0.9333333333333333481 ) ;
#44 = COLOUR_RGB ( '',0.7921568627450980005, 0.8196078431372548767, 0.9333333333333333481 ) ;
#45 = DIRECTION ( 'NONE',  ( -0.0000000000000000000, -0.0000000000000000000, -1.000000000000000000 ) ) ;
#46 = ORIENTED_EDGE ( 'NONE', *, *, #182, .F. ) ;
#47 = AXIS2_PLACEMENT_3D ( 'NONE', #246, #174, #175 ) ;
#48 = ADVANCED_FACE ( 'NONE', ( #150 ), #74, .F. ) ;
#49 = LINE ( 'NONE', #122, #23 ) ;
#50 = ORIENTED_EDGE ( 'NONE', *, *, #146, .T. ) ;
#51 = AXIS2_PLACEMENT_3D ( 'NONE', #227, #100, #108 ) ;
#52 = DIRECTION ( 'NONE',  ( 0.0000000000000000000, 0.0000000000000000000, 1.000000000000000000 ) ) ;
#53 = EDGE_LOOP ( 'NONE', ( #54, #154, #188, #141 ) ) ;
#54 = ORIENTED_EDGE ( 'NONE', *, *, #3, .F. ) ;
#55 = CARTESIAN_POINT ( 'NONE',  ( 5.755839955992562736E-18, 0.0000000000000000000, 0.04700000000000000705 ) ) ;
#56 = ORIENTED_EDGE ( 'NONE', *, *, #24, .T. ) ;
#57 = ORIENTED_EDGE ( 'NONE', *, *, #278, .F. ) ;
#58 = LINE ( 'NONE', #78, #81 ) ;
#59 = APPLICATION_PROTOCOL_DEFINITION ( 'draft international standard', 'automotive_design', 1998, #200 ) ;
#60 =( LENGTH_UNIT ( ) NAMED_UNIT ( * ) SI_UNIT ( $, .METRE. ) );
#61 = CARTESIAN_POINT ( 'NONE',  ( 0.04750000000000064587, 6.735557395310483192E-18, 1.500000000000000222 ) ) ;
#62 =( CONVERSION_BASED_UNIT ( 'INCH', #248 ) LENGTH_UNIT ( ) NAMED_UNIT ( #238 ) );
#63 =( GEOMETRIC_REPRESENTATION_CONTEXT ( 3 ) GLOBAL_UNCERTAINTY_ASSIGNED_CONTEXT ( ( #134 ) ) GLOBAL_UNIT_ASSIGNED_CONTEXT ( ( #62, #128, #149 ) ) REPRESENTATION_CONTEXT ( 'NONE', 'WORKASPACE' ) );
#64 = DIRECTION ( 'NONE',  ( -1.224646799147353700E-16, -0.0000000000000000000, -1.000000000000000000 ) ) ;
#65 = DIRECTION ( 'NONE',  ( -1.224646799147353700E-16, -0.0000000000000000000, -1.000000000000000000 ) ) ;
#66 = EDGE_CURVE ( 'NONE', #207, #127, #239, .T. ) ;
#67 = DIRECTION ( 'NONE',  ( 0.0000000000000000000, 0.0000000000000000000, 1.000000000000000000 ) ) ;
#68 = AXIS2_PLACEMENT_3D ( 'NONE', #55, #95, #6 ) ;
#69 = CARTESIAN_POINT ( 'NONE',  ( 5.755839955992562736E-18, 0.0000000000000000000, 0.04700000000000000705 ) ) ;
#70 = CIRCLE ( 'NONE', #111, 0.01548450000000000000 ) ;
#71 = VECTOR ( 'NONE', #254, 39.37007874015748854 ) ;
#72 = DIRECTION ( 'NONE',  ( 1.000000000000000000, 0.0000000000000000000, 0.0000000000000000000 ) ) ;
#73 = ORIENTED_EDGE ( 'NONE', *, *, #247, .F. ) ;
#74 = PLANE ( 'NONE',  #51 ) ;
#75 = AXIS2_PLACEMENT_3D ( 'NONE', #263, #52, #27 ) ;
#76 = LINE ( 'NONE', #9, #153 ) ;
#77 = DIRECTION ( 'NONE',  ( -1.224646799147353700E-16, -0.0000000000000000000, -1.000000000000000000 ) ) ;
#78 = CARTESIAN_POINT ( 'NONE',  ( -0.06250000000000002776, 0.0000000000000000000, 1.500000000000000222 ) ) ;
#79 = FILL_AREA_STYLE ('',( #241 ) ) ;
#80 = DIRECTION ( 'NONE',  ( -1.000000000000000000, 0.0000000000000000000, 1.224646799147353947E-16 ) ) ;
#81 = VECTOR ( 'NONE', #38, 39.37007874015748143 ) ;
#82 = LENGTH_MEASURE_WITH_UNIT ( LENGTH_MEASURE( 0.02539999999999999897 ), #293 );
#83 = ADVANCED_FACE ( 'NONE', ( #201 ), #292, .T. ) ;
#84 = CYLINDRICAL_SURFACE ( 'NONE', #116, 0.01548450000000000173 ) ;
#85 = SURFACE_STYLE_USAGE ( .BOTH. , #99 ) ;
#86 = ORIENTED_EDGE ( 'NONE', *, *, #187, .T. ) ;
#87 = CARTESIAN_POINT ( 'NONE',  ( 0.01548450000000000173, 1.896304336139719238E-18, 0.0000000000000000000 ) ) ;
#88 = DIRECTION ( 'NONE',  ( -1.224646799147353700E-16, -0.0000000000000000000, -1.000000000000000000 ) ) ;
#89 = DIRECTION ( 'NONE',  ( -1.000000000000000000, 0.0000000000000000000, 0.0000000000000000000 ) ) ;
#90 = AXIS2_PLACEMENT_3D ( 'NONE', #259, #45, #233 ) ;
#91 = CYLINDRICAL_SURFACE ( 'NONE', #298, 0.06250000000000002776 ) ;
#92 = EDGE_LOOP ( 'NONE', ( #285, #142, #144, #40 ) ) ;
#93 = VECTOR ( 'NONE', #65, 39.37007874015748143 ) ;
#94 = ORIENTED_EDGE ( 'NONE', *, *, #291, .F. ) ;
#95 = DIRECTION ( 'NONE',  ( 1.224646799147353700E-16, 0.0000000000000000000, 1.000000000000000000 ) ) ;
#96 = ADVANCED_FACE ( 'NONE', ( #251 ), #165, .T. ) ;
#97 = EDGE_LOOP ( 'NONE', ( #148, #32 ) ) ;
#98 = DIRECTION ( 'NONE',  ( -1.224646799147353700E-16, -0.0000000000000000000, -1.000000000000000000 ) ) ;
#99 = SURFACE_SIDE_STYLE ('',( #29 ) ) ;
#100 = DIRECTION ( 'NONE',  ( 0.0000000000000000000, 0.0000000000000000000, 1.000000000000000000 ) ) ;
#101 = PRODUCT_CONTEXT ( 'NONE', #136, 'mechanical' ) ;
#102 = PRESENTATION_LAYER_ASSIGNMENT (  '', '', ( #217 ) ) ;
#103 = CONICAL_SURFACE ( 'NONE', #68, 0.01548450000000000000, 0.1745329251994338637 ) ;
#104 = FACE_OUTER_BOUND ( 'NONE', #125, .T. ) ;
#105 = EDGE_LOOP ( 'NONE', ( #129, #202, #57, #33 ) ) ;
#106 = LINE ( 'NONE', #155, #71 ) ;
#107 = CARTESIAN_POINT ( 'NONE',  ( 2.322303035462755967E-34, 0.0000000000000000000, 1.896304336139720394E-18 ) ) ;
#108 = DIRECTION ( 'NONE',  ( 1.000000000000000000, 0.0000000000000000000, -0.0000000000000000000 ) ) ;
#109 = ADVANCED_FACE ( 'NONE', ( #39 ), #178, .T. ) ;
#110 = FACE_OUTER_BOUND ( 'NONE', #105, .T. ) ;
#111 = AXIS2_PLACEMENT_3D ( 'NONE', #69, #88, #296 ) ;
#112 = CARTESIAN_POINT ( 'NONE',  ( 0.0000000000000000000, 0.0000000000000000000, 1.485000000000000764 ) ) ;
#113 = EDGE_CURVE ( 'NONE', #269, #221, #58, .T. ) ;
#114 = CARTESIAN_POINT ( 'NONE',  ( -0.04750000000000064587, 0.0000000000000000000, 1.500000000000000222 ) ) ;
#115 = MANIFOLD_SOLID_BREP ( 'Cut-Revolve1', #176 ) ;
#116 = AXIS2_PLACEMENT_3D ( 'NONE', #158, #41, #35 ) ;
#117 = DIRECTION ( 'NONE',  ( 0.0000000000000000000, 0.0000000000000000000, -1.000000000000000000 ) ) ;
#118 = DIRECTION ( 'NONE',  ( 1.000000000000000000, 0.0000000000000000000, 0.0000000000000000000 ) ) ;
#119 = CARTESIAN_POINT ( 'NONE',  ( -0.01548449999999999480, 4.775173415405339547E-18, 0.04700000000000000705 ) ) ;
#120 = AXIS2_PLACEMENT_3D ( 'NONE', #203, #64, #255 ) ;
#121 = CIRCLE ( 'NONE', #20, 0.01548450000000000173 ) ;
#122 = CARTESIAN_POINT ( 'NONE',  ( -0.01548449999999999480, 1.896304336139719238E-18, 0.04700000000000000705 ) ) ;
#123 = AXIS2_PLACEMENT_3D ( 'NONE', #179, #234, #118 ) ;
#124 = VERTEX_POINT ( 'NONE', #277 ) ;
#125 = EDGE_LOOP ( 'NONE', ( #236, #266, #173, #50 ) ) ;
#126 = CARTESIAN_POINT ( 'NONE',  ( 0.0000000000000000000, 0.0000000000000000000, 0.0000000000000000000 ) ) ;
#127 = VERTEX_POINT ( 'NONE', #8 ) ;
#128 =( NAMED_UNIT ( * ) PLANE_ANGLE_UNIT ( ) SI_UNIT ( $, .RADIAN. ) );
#129 = ORIENTED_EDGE ( 'NONE', *, *, #206, .T. ) ;
#130 = PRESENTATION_STYLE_ASSIGNMENT (( #288 ) ) ;
#131 = EDGE_CURVE ( 'NONE', #25, #127, #274, .T. ) ;
#132 = CARTESIAN_POINT ( 'NONE',  ( 0.06250000000000002776, 7.654042494670959086E-18, 1.485000000000000764 ) ) ;
#133 = CARTESIAN_POINT ( 'NONE',  ( 5.755839955992562736E-18, 0.0000000000000000000, 0.04700000000000000705 ) ) ;
#134 = UNCERTAINTY_MEASURE_WITH_UNIT (LENGTH_MEASURE( 1.000000000000000082E-05 ), #62, 'distance_accuracy_value', 'NONE');
#135 = DIRECTION ( 'NONE',  ( 1.000000000000000000, 0.0000000000000000000, 0.0000000000000000000 ) ) ;
#136 = APPLICATION_CONTEXT ( 'automotive_design' ) ;
#137 = DIRECTION ( 'NONE',  ( -0.1736481776669311639, 2.126576849575783008E-17, 0.9848077530122080203 ) ) ;
#138 = EDGE_CURVE ( 'NONE', #273, #268, #106, .T. ) ;
#139 = ORIENTED_EDGE ( 'NONE', *, *, #206, .F. ) ;
#140 = AXIS2_PLACEMENT_3D ( 'NONE', #185, #237, #135 ) ;
#141 = ORIENTED_EDGE ( 'NONE', *, *, #146, .F. ) ;
#142 = ORIENTED_EDGE ( 'NONE', *, *, #229, .F. ) ;
#143 = EDGE_LOOP ( 'NONE', ( #157, #177 ) ) ;
#144 = ORIENTED_EDGE ( 'NONE', *, *, #182, .T. ) ;
#145 = CIRCLE ( 'NONE', #123, 0.06250000000000002776 ) ;
#146 = EDGE_CURVE ( 'NONE', #250, #221, #252, .T. ) ;
#147 =( GEOMETRIC_REPRESENTATION_CONTEXT ( 3 ) GLOBAL_UNCERTAINTY_ASSIGNED_CONTEXT ( ( #18 ) ) GLOBAL_UNIT_ASSIGNED_CONTEXT ( ( #258, #156, #13 ) ) REPRESENTATION_CONTEXT ( 'NONE', 'WORKASPACE' ) );
#148 = ORIENTED_EDGE ( 'NONE', *, *, #278, .T. ) ;
#149 =( NAMED_UNIT ( * ) SI_UNIT ( $, .STERADIAN. ) SOLID_ANGLE_UNIT ( ) );
#150 = FACE_OUTER_BOUND ( 'NONE', #97, .T. ) ;
#151 = DIRECTION ( 'NONE',  ( -1.000000000000000000, 0.0000000000000000000, 1.224646799147353947E-16 ) ) ;
#152 = AXIS2_PLACEMENT_3D ( 'NONE', #287, #98, #151 ) ;
#153 = VECTOR ( 'NONE', #267, 39.37007874015748143 ) ;
#154 = ORIENTED_EDGE ( 'NONE', *, *, #161, .T. ) ;
#155 = CARTESIAN_POINT ( 'NONE',  ( 0.04750000000000064587, 5.817072295950006528E-18, 1.500000000000000222 ) ) ;
#156 =( NAMED_UNIT ( * ) PLANE_ANGLE_UNIT ( ) SI_UNIT ( $, .RADIAN. ) );
#157 = ORIENTED_EDGE ( 'NONE', *, *, #229, .T. ) ;
#158 = CARTESIAN_POINT ( 'NONE',  ( 0.0000000000000000000, 0.0000000000000000000, 0.0000000000000000000 ) ) ;
#159 = PRESENTATION_STYLE_ASSIGNMENT (( #85 ) ) ;
#160 = ADVANCED_FACE ( 'NONE', ( #110 ), #84, .T. ) ;
#161 = EDGE_CURVE ( 'NONE', #268, #269, #145, .T. ) ;
#162 = UNCERTAINTY_MEASURE_WITH_UNIT (LENGTH_MEASURE( 1.000000000000000082E-05 ), #286, 'distance_accuracy_value', 'NONE');
#163 = CARTESIAN_POINT ( 'NONE',  ( 0.06250000000000002776, 7.654042494670959086E-18, 1.500000000000000222 ) ) ;
#164 = APPLICATION_PROTOCOL_DEFINITION ( 'draft international standard', 'automotive_design', 1998, #136 ) ;
#165 = CONICAL_SURFACE ( 'NONE', #47, 0.04750000000000064587, 0.7853981633974466137 ) ;
#166 = VECTOR ( 'NONE', #243, 39.37007874015748143 ) ;
#167 = EDGE_LOOP ( 'NONE', ( #190, #218, #193, #46 ) ) ;
#168 = EDGE_CURVE ( 'NONE', #124, #207, #42, .T. ) ;
#169 =( NAMED_UNIT ( * ) SI_UNIT ( $, .STERADIAN. ) SOLID_ANGLE_UNIT ( ) );
#170 = DIRECTION ( 'NONE',  ( 1.000000000000000000, 0.0000000000000000000, 0.0000000000000000000 ) ) ;
#171 = SHAPE_DEFINITION_REPRESENTATION ( #265, #12 ) ;
#172 = AXIS2_PLACEMENT_3D ( 'NONE', #126, #77, #80 ) ;
#173 = ORIENTED_EDGE ( 'NONE', *, *, #291, .T. ) ;
#174 = DIRECTION ( 'NONE',  ( 0.0000000000000000000, 0.0000000000000000000, -1.000000000000000000 ) ) ;
#175 = DIRECTION ( 'NONE',  ( -1.000000000000000000, 0.0000000000000000000, 0.0000000000000000000 ) ) ;
#176 = CLOSED_SHELL ( 'NONE', ( #160, #109, #96, #34, #232, #284, #235, #244, #83, #48 ) ) ;
#177 = ORIENTED_EDGE ( 'NONE', *, *, #242, .T. ) ;
#178 = CONICAL_SURFACE ( 'NONE', #280, 0.01548450000000000000, 0.1745329251994338637 ) ;
#179 = CARTESIAN_POINT ( 'NONE',  ( 0.0000000000000000000, 0.0000000000000000000, 1.485000000000000764 ) ) ;
#180 = ORIENTED_EDGE ( 'NONE', *, *, #247, .T. ) ;
#181 = CARTESIAN_POINT ( 'NONE',  ( -0.06249999999999999306, 0.0000000000000000000, 0.3136381503902351264 ) ) ;
#182 = EDGE_CURVE ( 'NONE', #22, #269, #16, .T. ) ;
#183 = CYLINDRICAL_SURFACE ( 'NONE', #90, 0.06250000000000002776 ) ;
#184 = LENGTH_MEASURE_WITH_UNIT ( LENGTH_MEASURE( 0.02539999999999999897 ), #211 );
#185 = CARTESIAN_POINT ( 'NONE',  ( 0.0000000000000000000, 0.0000000000000000000, 0.0000000000000000000 ) ) ;
#186 = AXIS2_PLACEMENT_3D ( 'NONE', #279, #67, #213 ) ;
#187 = EDGE_CURVE ( 'NONE', #269, #268, #2, .T. ) ;
#188 = ORIENTED_EDGE ( 'NONE', *, *, #113, .T. ) ;
#189 = CARTESIAN_POINT ( 'NONE',  ( 0.0000000000000000000, 0.0000000000000000000, 1.500000000000000222 ) ) ;
#190 = ORIENTED_EDGE ( 'NONE', *, *, #242, .F. ) ;
#191 =( GEOMETRIC_REPRESENTATION_CONTEXT ( 3 ) GLOBAL_UNCERTAINTY_ASSIGNED_CONTEXT ( ( #162 ) ) GLOBAL_UNIT_ASSIGNED_CONTEXT ( ( #286, #271, #169 ) ) REPRESENTATION_CONTEXT ( 'NONE', 'WORKASPACE' ) );
#192 = EDGE_CURVE ( 'NONE', #124, #25, #30, .T. ) ;
#193 = ORIENTED_EDGE ( 'NONE', *, *, #187, .F. ) ;
#194 = FACE_OUTER_BOUND ( 'NONE', #143, .T. ) ;
#195 = CARTESIAN_POINT ( 'NONE',  ( -0.06250000000000002776, 0.0000000000000000000, 1.485000000000000764 ) ) ;
#196 = CARTESIAN_POINT ( 'NONE',  ( 5.755839955992562736E-18, 0.0000000000000000000, 0.04700000000000000705 ) ) ;
#197 = DIRECTION ( 'NONE',  ( -1.224646799147353700E-16, -0.0000000000000000000, -1.000000000000000000 ) ) ;
#198 = ORIENTED_EDGE ( 'NONE', *, *, #192, .T. ) ;
#199 = FILL_AREA_STYLE_COLOUR ( '', #43 ) ;
#200 = APPLICATION_CONTEXT ( 'automotive_design' ) ;
#201 = FACE_OUTER_BOUND ( 'NONE', #262, .T. ) ;
#202 = ORIENTED_EDGE ( 'NONE', *, *, #168, .T. ) ;
#203 = CARTESIAN_POINT ( 'NONE',  ( 3.840959569658977750E-17, 0.0000000000000000000, 0.3136381503902351264 ) ) ;
#204 = AXIS2_PLACEMENT_3D ( 'NONE', #133, #208, #230 ) ;
#205 = PRODUCT_DEFINITION_FORMATION_WITH_SPECIFIED_SOURCE ( 'ANY', '', #21, .NOT_KNOWN. ) ;
#206 = EDGE_CURVE ( 'NONE', #25, #124, #70, .T. ) ;
#207 = VERTEX_POINT ( 'NONE', #87 ) ;
#208 = DIRECTION ( 'NONE',  ( -1.224646799147353700E-16, -0.0000000000000000000, -1.000000000000000000 ) ) ;
#209 = DIRECTION ( 'NONE',  ( 1.000000000000000000, 0.0000000000000000000, 0.0000000000000000000 ) ) ;
#210 = VECTOR ( 'NONE', #7, 39.37007874015748143 ) ;
#211 =( LENGTH_UNIT ( ) NAMED_UNIT ( * ) SI_UNIT ( $, .METRE. ) );
#212 = PRODUCT_DEFINITION_CONTEXT ( 'detailed design', #200, 'design' ) ;
#213 = DIRECTION ( 'NONE',  ( 1.000000000000000000, 0.0000000000000000000, 0.0000000000000000000 ) ) ;
#214 = CONICAL_SURFACE ( 'NONE', #240, 0.04750000000000064587, 0.7853981633974466137 ) ;
#215 = FACE_OUTER_BOUND ( 'NONE', #297, .T. ) ;
#216 = ORIENTED_EDGE ( 'NONE', *, *, #66, .F. ) ;
#217 = STYLED_ITEM ( 'NONE', ( #159 ), #12 ) ;
#218 = ORIENTED_EDGE ( 'NONE', *, *, #138, .T. ) ;
#219 = SURFACE_SIDE_STYLE ('',( #290 ) ) ;
#220 = DIRECTION ( 'NONE',  ( -1.224646799147353700E-16, -0.0000000000000000000, -1.000000000000000000 ) ) ;
#221 = VERTEX_POINT ( 'NONE', #181 ) ;
#222 = FILL_AREA_STYLE ('',( #199 ) ) ;
#223 = ORIENTED_EDGE ( 'NONE', *, *, #3, .T. ) ;
#224 = DIRECTION ( 'NONE',  ( 1.224646799147353700E-16, 0.0000000000000000000, 1.000000000000000000 ) ) ;
#225 = CARTESIAN_POINT ( 'NONE',  ( 0.06250000000000005551, 7.654042494670963708E-18, 0.3136381503902351264 ) ) ;
#226 = CARTESIAN_POINT ( 'NONE',  ( -0.01548450000000000173, 0.0000000000000000000, 1.896304336139720394E-18 ) ) ;
#227 = CARTESIAN_POINT ( 'NONE',  ( 0.0000000000000000000, 0.0000000000000000000, 0.0000000000000000000 ) ) ;
#228 = DIRECTION ( 'NONE',  ( -0.7071067811865462405, 0.0000000000000000000, -0.7071067811865486830 ) ) ;
#229 = EDGE_CURVE ( 'NONE', #22, #273, #282, .T. ) ;
#230 = DIRECTION ( 'NONE',  ( -1.000000000000000000, 0.0000000000000000000, 0.0000000000000000000 ) ) ;
#231 = CARTESIAN_POINT ( 'NONE',  ( 0.01548450000000000173, 1.896304336139719238E-18, -1.896304336139720394E-18 ) ) ;
#232 = ADVANCED_FACE ( 'NONE', ( #257 ), #183, .T. ) ;
#233 = DIRECTION ( 'NONE',  ( -1.000000000000000000, 0.0000000000000000000, 0.0000000000000000000 ) ) ;
#234 = DIRECTION ( 'NONE',  ( 0.0000000000000000000, 0.0000000000000000000, -1.000000000000000000 ) ) ;
#235 = ADVANCED_FACE ( 'NONE', ( #260 ), #214, .T. ) ;
#236 = ORIENTED_EDGE ( 'NONE', *, *, #24, .F. ) ;
#237 = DIRECTION ( 'NONE',  ( 0.0000000000000000000, 0.0000000000000000000, 1.000000000000000000 ) ) ;
#238 = DIMENSIONAL_EXPONENTS ( 1.000000000000000000, 0.0000000000000000000, 0.0000000000000000000, 0.0000000000000000000, 0.0000000000000000000, 0.0000000000000000000, 0.0000000000000000000 ) ;
#239 = CIRCLE ( 'NONE', #152, 0.01548450000000000173 ) ;
#240 = AXIS2_PLACEMENT_3D ( 'NONE', #17, #117, #89 ) ;
#241 = FILL_AREA_STYLE_COLOUR ( '', #44 ) ;
#242 = EDGE_CURVE ( 'NONE', #273, #22, #270, .T. ) ;
#243 = DIRECTION ( 'NONE',  ( -0.0000000000000000000, -0.0000000000000000000, -1.000000000000000000 ) ) ;
#244 = ADVANCED_FACE ( 'NONE', ( #104 ), #103, .T. ) ;
#245 = DIRECTION ( 'NONE',  ( -1.000000000000000000, 0.0000000000000000000, 1.224646799147353947E-16 ) ) ;
#246 = CARTESIAN_POINT ( 'NONE',  ( 0.0000000000000000000, 0.0000000000000000000, 1.500000000000000222 ) ) ;
#247 = EDGE_CURVE ( 'NONE', #221, #250, #256, .T. ) ;
#248 = LENGTH_MEASURE_WITH_UNIT ( LENGTH_MEASURE( 0.02539999999999999897 ), #60 );
#249 = DIRECTION ( 'NONE',  ( 1.000000000000000000, 0.0000000000000000000, -0.0000000000000000000 ) ) ;
#250 = VERTEX_POINT ( 'NONE', #225 ) ;
#251 = FACE_OUTER_BOUND ( 'NONE', #167, .T. ) ;
#252 = CIRCLE ( 'NONE', #120, 0.06250000000000002776 ) ;
#253 = CARTESIAN_POINT ( 'NONE',  ( 3.840959569658977750E-17, 0.0000000000000000000, 0.3136381503902351264 ) ) ;
#254 = DIRECTION ( 'NONE',  ( 0.7071067811865462405, 8.659560562354916834E-17, -0.7071067811865486830 ) ) ;
#255 = DIRECTION ( 'NONE',  ( 1.000000000000000000, 0.0000000000000000000, 0.0000000000000000000 ) ) ;
#256 = CIRCLE ( 'NONE', #276, 0.06250000000000002776 ) ;
#257 = FACE_OUTER_BOUND ( 'NONE', #53, .T. ) ;
#258 =( CONVERSION_BASED_UNIT ( 'INCH', #184 ) LENGTH_UNIT ( ) NAMED_UNIT ( #11 ) );
#259 = CARTESIAN_POINT ( 'NONE',  ( 0.0000000000000000000, 0.0000000000000000000, 1.500000000000000222 ) ) ;
#260 = FACE_OUTER_BOUND ( 'NONE', #92, .T. ) ;
#261 = CARTESIAN_POINT ( 'NONE',  ( -0.04750000000000064587, 0.0000000000000000000, 1.500000000000000222 ) ) ;
#262 = EDGE_LOOP ( 'NONE', ( #264, #198, #15, #216 ) ) ;
#263 = CARTESIAN_POINT ( 'NONE',  ( 0.0000000000000000000, 0.0000000000000000000, 1.500000000000000222 ) ) ;
#264 = ORIENTED_EDGE ( 'NONE', *, *, #168, .F. ) ;
#265 = PRODUCT_DEFINITION_SHAPE ( 'NONE', 'NONE',  #14 ) ;
#266 = ORIENTED_EDGE ( 'NONE', *, *, #192, .F. ) ;
#267 = DIRECTION ( 'NONE',  ( 0.1736481776669313581, 0.0000000000000000000, 0.9848077530122077983 ) ) ;
#268 = VERTEX_POINT ( 'NONE', #132 ) ;
#269 = VERTEX_POINT ( 'NONE', #195 ) ;
#270 = CIRCLE ( 'NONE', #75, 0.04750000000000064587 ) ;
#271 =( NAMED_UNIT ( * ) PLANE_ANGLE_UNIT ( ) SI_UNIT ( $, .RADIAN. ) );
#272 = PLANE ( 'NONE',  #289 ) ;
#273 = VERTEX_POINT ( 'NONE', #61 ) ;
#274 = LINE ( 'NONE', #226, #210 ) ;
#275 = STYLED_ITEM ( 'NONE', ( #130 ), #115 ) ;
#276 = AXIS2_PLACEMENT_3D ( 'NONE', #253, #220, #72 ) ;
#277 = CARTESIAN_POINT ( 'NONE',  ( 0.01548450000000000694, 0.0000000000000000000, 0.04700000000000000705 ) ) ;
#278 = EDGE_CURVE ( 'NONE', #127, #207, #121, .T. ) ;
#279 = CARTESIAN_POINT ( 'NONE',  ( 0.0000000000000000000, 0.0000000000000000000, 1.500000000000000222 ) ) ;
#280 = AXIS2_PLACEMENT_3D ( 'NONE', #196, #224, #170 ) ;
#281 = MECHANICAL_DESIGN_GEOMETRIC_PRESENTATION_REPRESENTATION (  '', ( #217 ), #147 ) ;
#282 = CIRCLE ( 'NONE', #186, 0.04750000000000064587 ) ;
#283 = LINE ( 'NONE', #163, #166 ) ;
#284 = ADVANCED_FACE ( 'NONE', ( #194 ), #272, .T. ) ;
#285 = ORIENTED_EDGE ( 'NONE', *, *, #138, .F. ) ;
#286 =( CONVERSION_BASED_UNIT ( 'INCH', #82 ) LENGTH_UNIT ( ) NAMED_UNIT ( #299 ) );
#287 = CARTESIAN_POINT ( 'NONE',  ( 2.322303035462755967E-34, 0.0000000000000000000, 1.896304336139720394E-18 ) ) ;
#288 = SURFACE_STYLE_USAGE ( .BOTH. , #219 ) ;
#289 = AXIS2_PLACEMENT_3D ( 'NONE', #36, #31, #249 ) ;
#290 = SURFACE_STYLE_FILL_AREA ( #222 ) ;
#291 = EDGE_CURVE ( 'NONE', #124, #250, #76, .T. ) ;
#292 = CYLINDRICAL_SURFACE ( 'NONE', #172, 0.01548450000000000173 ) ;
#293 =( LENGTH_UNIT ( ) NAMED_UNIT ( * ) SI_UNIT ( $, .METRE. ) );
#294 = VECTOR ( 'NONE', #228, 39.37007874015748854 ) ;
#295 = DIRECTION ( 'NONE',  ( 0.0000000000000000000, 0.0000000000000000000, -1.000000000000000000 ) ) ;
#296 = DIRECTION ( 'NONE',  ( -1.000000000000000000, 0.0000000000000000000, 0.0000000000000000000 ) ) ;
#297 = EDGE_LOOP ( 'NONE', ( #86, #223, #73, #26 ) ) ;
#298 = AXIS2_PLACEMENT_3D ( 'NONE', #189, #1, #4 ) ;
#299 = DIMENSIONAL_EXPONENTS ( 1.000000000000000000, 0.0000000000000000000, 0.0000000000000000000, 0.0000000000000000000, 0.0000000000000000000, 0.0000000000000000000, 0.0000000000000000000 ) ;
ENDSEC;
END-ISO-10303-21;
