ISO-10303-21;
HEADER;
FILE_DESCRIPTION (( 'STEP AP214' ),
    '1' );
FILE_NAME ('Micro_SFP-187-35.STEP',
    '2021-09-02T06:12:38',
    ( '' ),
    ( '' ),
    'SwSTEP 2.0',
    'SolidWorks 2020',
    '' );
FILE_SCHEMA (( 'AUTOMOTIVE_DESIGN' ));
ENDSEC;

DATA;
#1 = ORIENTED_EDGE ( 'NONE', *, *, #130, .F. ) ;
#2 = ORIENTED_EDGE ( 'NONE', *, *, #7, .T. ) ;
#3 = LINE ( 'NONE', #96, #281 ) ;
#4 = SURFACE_SIDE_STYLE ('',( #182 ) ) ;
#5 = APPLICATION_CONTEXT ( 'automotive_design' ) ;
#6 = AXIS2_PLACEMENT_3D ( 'NONE', #228, #213, #253 ) ;
#7 = EDGE_CURVE ( 'NONE', #181, #67, #53, .T. ) ;
#8 = UNCERTAINTY_MEASURE_WITH_UNIT (LENGTH_MEASURE( 1.000000000000000082E-05 ), #60, 'distance_accuracy_value', 'NONE');
#9 = CIRCLE ( 'NONE', #282, 0.09375000000000001388 ) ;
#10 = CARTESIAN_POINT ( 'NONE',  ( 7.660553729477949085E-17, 0.0000000000000000000, 0.6255316826705892286 ) ) ;
#11 = CARTESIAN_POINT ( 'NONE',  ( 0.0000000000000000000, 0.0000000000000000000, 2.000000000000000000 ) ) ;
#12 = DIRECTION ( 'NONE',  ( 1.000000000000000000, 0.0000000000000000000, -0.0000000000000000000 ) ) ;
#13 = AXIS2_PLACEMENT_3D ( 'NONE', #169, #104, #58 ) ;
#14 = AXIS2_PLACEMENT_3D ( 'NONE', #241, #220, #12 ) ;
#15 = LINE ( 'NONE', #270, #135 ) ;
#16 = LINE ( 'NONE', #132, #129 ) ;
#17 = LINE ( 'NONE', #61, #279 ) ;
#18 = CARTESIAN_POINT ( 'NONE',  ( 0.0000000000000000000, 0.0000000000000000000, 2.000000000000000000 ) ) ;
#19 = EDGE_CURVE ( 'NONE', #181, #207, #68, .T. ) ;
#20 = ORIENTED_EDGE ( 'NONE', *, *, #284, .F. ) ;
#21 = CONICAL_SURFACE ( 'NONE', #265, 0.09365624999999999645, 0.1745329251994338360 ) ;
#22 = VERTEX_POINT ( 'NONE', #31 ) ;
#23 = DIRECTION ( 'NONE',  ( -1.000000000000000000, 0.0000000000000000000, 1.224646799147352961E-16 ) ) ;
#24 = SHAPE_DEFINITION_REPRESENTATION ( #248, #109 ) ;
#25 = ORIENTED_EDGE ( 'NONE', *, *, #162, .F. ) ;
#26 = DIRECTION ( 'NONE',  ( 1.000000000000000000, 0.0000000000000000000, 0.0000000000000000000 ) ) ;
#27 = ORIENTED_EDGE ( 'NONE', *, *, #203, .F. ) ;
#28 = ORIENTED_EDGE ( 'NONE', *, *, #268, .F. ) ;
#29 =( GEOMETRIC_REPRESENTATION_CONTEXT ( 3 ) GLOBAL_UNCERTAINTY_ASSIGNED_CONTEXT ( ( #190 ) ) GLOBAL_UNIT_ASSIGNED_CONTEXT ( ( #74, #37, #84 ) ) REPRESENTATION_CONTEXT ( 'NONE', 'WORKASPACE' ) );
#30 = VERTEX_POINT ( 'NONE', #167 ) ;
#31 = CARTESIAN_POINT ( 'NONE',  ( 0.09365624999999999645, 1.146958267826442798E-17, 0.0000000000000000000 ) ) ;
#32 = ADVANCED_FACE ( 'NONE', ( #97 ), #49, .T. ) ;
#33 = DIRECTION ( 'NONE',  ( -1.224646799147353207E-16, -0.0000000000000000000, -1.000000000000000000 ) ) ;
#34 = DIRECTION ( 'NONE',  ( -1.224646799147353207E-16, -0.0000000000000000000, -1.000000000000000000 ) ) ;
#35 = DIRECTION ( 'NONE',  ( -1.224646799147353207E-16, -0.0000000000000000000, -1.000000000000000000 ) ) ;
#36 = DIRECTION ( 'NONE',  ( -1.224646799147353207E-16, -0.0000000000000000000, -1.000000000000000000 ) ) ;
#37 =( NAMED_UNIT ( * ) PLANE_ANGLE_UNIT ( ) SI_UNIT ( $, .RADIAN. ) );
#38 = AXIS2_PLACEMENT_3D ( 'NONE', #87, #229, #23 ) ;
#39 = DIRECTION ( 'NONE',  ( -1.224646799147353207E-16, -0.0000000000000000000, -1.000000000000000000 ) ) ;
#40 = DIRECTION ( 'NONE',  ( 0.0000000000000000000, 0.0000000000000000000, 1.000000000000000000 ) ) ;
#41 = EDGE_LOOP ( 'NONE', ( #264, #88, #142, #46 ) ) ;
#42 = MANIFOLD_SOLID_BREP ( 'Cut-Revolve1', #137 ) ;
#43 = DIRECTION ( 'NONE',  ( 0.0000000000000000000, 0.0000000000000000000, -1.000000000000000000 ) ) ;
#44 = ORIENTED_EDGE ( 'NONE', *, *, #19, .F. ) ;
#45 = EDGE_CURVE ( 'NONE', #269, #144, #163, .T. ) ;
#46 = ORIENTED_EDGE ( 'NONE', *, *, #275, .F. ) ;
#47 = CARTESIAN_POINT ( 'NONE',  ( 7.654042494670957853E-17, 0.0000000000000000000, 0.6250000000000000000 ) ) ;
#48 = EDGE_LOOP ( 'NONE', ( #2, #274, #20, #44 ) ) ;
#49 = CYLINDRICAL_SURFACE ( 'NONE', #6, 0.09365624999999999645 ) ;
#50 = PRODUCT_DEFINITION_FORMATION_WITH_SPECIFIED_SOURCE ( 'ANY', '', #156, .NOT_KNOWN. ) ;
#51 = DIRECTION ( 'NONE',  ( 1.224646799147353207E-16, 0.0000000000000000000, 1.000000000000000000 ) ) ;
#52 = CARTESIAN_POINT ( 'NONE',  ( 0.0000000000000000000, 0.0000000000000000000, 1.984999999999999654 ) ) ;
#53 = CIRCLE ( 'NONE', #193, 0.09375000000000001388 ) ;
#54 = DIRECTION ( 'NONE',  ( 1.000000000000000000, 0.0000000000000000000, 0.0000000000000000000 ) ) ;
#55 = EDGE_CURVE ( 'NONE', #30, #269, #160, .T. ) ;
#56 = CARTESIAN_POINT ( 'NONE',  ( 0.0000000000000000000, 0.0000000000000000000, 2.000000000000000000 ) ) ;
#57 = ADVANCED_FACE ( 'NONE', ( #277 ), #146, .T. ) ;
#58 = DIRECTION ( 'NONE',  ( 1.000000000000000000, 0.0000000000000000000, -0.0000000000000000000 ) ) ;
#59 = PLANE ( 'NONE',  #13 ) ;
#60 =( CONVERSION_BASED_UNIT ( 'INCH', #239 ) LENGTH_UNIT ( ) NAMED_UNIT ( #89 ) );
#61 = CARTESIAN_POINT ( 'NONE',  ( 0.09375000000000001388, 1.148106374200643863E-17, 2.000000000000000000 ) ) ;
#62 = CIRCLE ( 'NONE', #73, 0.09365624999999999645 ) ;
#63 = ADVANCED_FACE ( 'NONE', ( #175 ), #59, .T. ) ;
#64 = ORIENTED_EDGE ( 'NONE', *, *, #55, .F. ) ;
#65 = AXIS2_PLACEMENT_3D ( 'NONE', #47, #210, #95 ) ;
#66 = EDGE_LOOP ( 'NONE', ( #180, #206 ) ) ;
#67 = VERTEX_POINT ( 'NONE', #215 ) ;
#68 = LINE ( 'NONE', #118, #177 ) ;
#69 = ADVANCED_FACE ( 'NONE', ( #280 ), #255, .T. ) ;
#70 = AXIS2_PLACEMENT_3D ( 'NONE', #122, #51, #211 ) ;
#71 = CARTESIAN_POINT ( 'NONE',  ( 7.654042494670957853E-17, 0.0000000000000000000, 0.6250000000000000000 ) ) ;
#72 = DIRECTION ( 'NONE',  ( -1.000000000000000000, 0.0000000000000000000, 0.0000000000000000000 ) ) ;
#73 = AXIS2_PLACEMENT_3D ( 'NONE', #105, #200, #133 ) ;
#74 =( CONVERSION_BASED_UNIT ( 'INCH', #197 ) LENGTH_UNIT ( ) NAMED_UNIT ( #293 ) );
#75 = CARTESIAN_POINT ( 'NONE',  ( -0.09375000000000001388, 0.0000000000000000000, 1.984999999999999654 ) ) ;
#76 = DIRECTION ( 'NONE',  ( -0.0000000000000000000, -0.0000000000000000000, -1.000000000000000000 ) ) ;
#77 = DIRECTION ( 'NONE',  ( 1.000000000000000000, 0.0000000000000000000, 0.0000000000000000000 ) ) ;
#78 = ADVANCED_FACE ( 'NONE', ( #165 ), #110, .T. ) ;
#79 =( LENGTH_UNIT ( ) NAMED_UNIT ( * ) SI_UNIT ( $, .METRE. ) );
#80 = DIRECTION ( 'NONE',  ( -0.0000000000000000000, -0.0000000000000000000, -1.000000000000000000 ) ) ;
#81 =( GEOMETRIC_REPRESENTATION_CONTEXT ( 3 ) GLOBAL_UNCERTAINTY_ASSIGNED_CONTEXT ( ( #276 ) ) GLOBAL_UNIT_ASSIGNED_CONTEXT ( ( #246, #294, #91 ) ) REPRESENTATION_CONTEXT ( 'NONE', 'WORKASPACE' ) );
#82 = DIRECTION ( 'NONE',  ( -1.000000000000000000, 0.0000000000000000000, 0.0000000000000000000 ) ) ;
#83 = AXIS2_PLACEMENT_3D ( 'NONE', #56, #102, #72 ) ;
#84 =( NAMED_UNIT ( * ) SI_UNIT ( $, .STERADIAN. ) SOLID_ANGLE_UNIT ( ) );
#85 = DIRECTION ( 'NONE',  ( 1.000000000000000000, 0.0000000000000000000, 0.0000000000000000000 ) ) ;
#86 = ORIENTED_EDGE ( 'NONE', *, *, #288, .F. ) ;
#87 = CARTESIAN_POINT ( 'NONE',  ( 1.404618771449245766E-33, 0.0000000000000000000, 1.146958267826442798E-17 ) ) ;
#88 = ORIENTED_EDGE ( 'NONE', *, *, #268, .T. ) ;
#89 = DIMENSIONAL_EXPONENTS ( 1.000000000000000000, 0.0000000000000000000, 0.0000000000000000000, 0.0000000000000000000, 0.0000000000000000000, 0.0000000000000000000, 0.0000000000000000000 ) ;
#90 = EDGE_LOOP ( 'NONE', ( #28, #93, #185, #115 ) ) ;
#91 =( NAMED_UNIT ( * ) SI_UNIT ( $, .STERADIAN. ) SOLID_ANGLE_UNIT ( ) );
#92 = AXIS2_PLACEMENT_3D ( 'NONE', #152, #34, #128 ) ;
#93 = ORIENTED_EDGE ( 'NONE', *, *, #203, .T. ) ;
#94 = EDGE_LOOP ( 'NONE', ( #250, #114, #230, #1 ) ) ;
#95 = DIRECTION ( 'NONE',  ( -1.000000000000000000, 0.0000000000000000000, 0.0000000000000000000 ) ) ;
#96 = CARTESIAN_POINT ( 'NONE',  ( -0.07874999999999980627, 0.0000000000000000000, 2.000000000000000000 ) ) ;
#97 = FACE_OUTER_BOUND ( 'NONE', #90, .T. ) ;
#98 = CIRCLE ( 'NONE', #256, 0.09365624999999999645 ) ;
#99 = FACE_OUTER_BOUND ( 'NONE', #125, .T. ) ;
#100 = CARTESIAN_POINT ( 'NONE',  ( -0.07874999999999980627, 0.0000000000000000000, 2.000000000000000000 ) ) ;
#101 = DIRECTION ( 'NONE',  ( -1.000000000000000000, 0.0000000000000000000, 1.224646799147352961E-16 ) ) ;
#102 = DIRECTION ( 'NONE',  ( 0.0000000000000000000, 0.0000000000000000000, -1.000000000000000000 ) ) ;
#103 = LINE ( 'NONE', #198, #236 ) ;
#104 = DIRECTION ( 'NONE',  ( 0.0000000000000000000, 0.0000000000000000000, 1.000000000000000000 ) ) ;
#105 = CARTESIAN_POINT ( 'NONE',  ( 7.654042494670957853E-17, 0.0000000000000000000, 0.6250000000000000000 ) ) ;
#106 = PRODUCT_DEFINITION_CONTEXT ( 'detailed design', #219, 'design' ) ;
#107 = AXIS2_PLACEMENT_3D ( 'NONE', #259, #283, #85 ) ;
#108 = DIRECTION ( 'NONE',  ( 0.7071067811865463515, 8.659560562354916834E-17, -0.7071067811865486830 ) ) ;
#109 = ADVANCED_BREP_SHAPE_REPRESENTATION ( 'Micro_SFP-187-35', ( #42, #233 ), #29 ) ;
#110 = CONICAL_SURFACE ( 'NONE', #70, 0.09365624999999999645, 0.1745329251994338360 ) ;
#111 = ORIENTED_EDGE ( 'NONE', *, *, #147, .T. ) ;
#112 = EDGE_CURVE ( 'NONE', #141, #181, #3, .T. ) ;
#113 = DIRECTION ( 'NONE',  ( 1.000000000000000000, 0.0000000000000000000, 0.0000000000000000000 ) ) ;
#114 = ORIENTED_EDGE ( 'NONE', *, *, #235, .T. ) ;
#115 = ORIENTED_EDGE ( 'NONE', *, *, #179, .F. ) ;
#116 = ORIENTED_EDGE ( 'NONE', *, *, #162, .T. ) ;
#117 = AXIS2_PLACEMENT_3D ( 'NONE', #148, #204, #297 ) ;
#118 = CARTESIAN_POINT ( 'NONE',  ( -0.09375000000000001388, 0.0000000000000000000, 2.000000000000000000 ) ) ;
#119 = AXIS2_PLACEMENT_3D ( 'NONE', #285, #36, #101 ) ;
#120 = APPLICATION_PROTOCOL_DEFINITION ( 'draft international standard', 'automotive_design', 1998, #219 ) ;
#121 = ADVANCED_FACE ( 'NONE', ( #278 ), #21, .T. ) ;
#122 = CARTESIAN_POINT ( 'NONE',  ( 7.654042494670957853E-17, 0.0000000000000000000, 0.6250000000000000000 ) ) ;
#123 = EDGE_LOOP ( 'NONE', ( #111, #247 ) ) ;
#124 = DIRECTION ( 'NONE',  ( -1.000000000000000000, 0.0000000000000000000, 1.224646799147352961E-16 ) ) ;
#125 = EDGE_LOOP ( 'NONE', ( #86, #143, #161, #295 ) ) ;
#126 = VECTOR ( 'NONE', #249, 39.37007874015748143 ) ;
#127 = ADVANCED_FACE ( 'NONE', ( #99 ), #168, .T. ) ;
#128 = DIRECTION ( 'NONE',  ( 1.000000000000000000, 0.0000000000000000000, 0.0000000000000000000 ) ) ;
#129 = VECTOR ( 'NONE', #39, 39.37007874015748143 ) ;
#130 = EDGE_CURVE ( 'NONE', #144, #207, #222, .T. ) ;
#131 = SURFACE_STYLE_FILL_AREA ( #150 ) ;
#132 = CARTESIAN_POINT ( 'NONE',  ( 0.09365624999999999645, 1.146958267826442798E-17, -1.146958267826442798E-17 ) ) ;
#133 = DIRECTION ( 'NONE',  ( -1.000000000000000000, 0.0000000000000000000, 0.0000000000000000000 ) ) ;
#134 = MECHANICAL_DESIGN_GEOMETRIC_PRESENTATION_REPRESENTATION (  '', ( #183 ), #81 ) ;
#135 = VECTOR ( 'NONE', #244, 39.37007874015747433 ) ;
#136 =( NAMED_UNIT ( * ) PLANE_ANGLE_UNIT ( ) SI_UNIT ( $, .RADIAN. ) );
#137 = CLOSED_SHELL ( 'NONE', ( #262, #78, #69, #192, #57, #63, #127, #121, #32, #199 ) ) ;
#138 = ORIENTED_EDGE ( 'NONE', *, *, #45, .F. ) ;
#139 = PRODUCT_RELATED_PRODUCT_CATEGORY ( 'part', '', ( #156 ) ) ;
#140 = DIRECTION ( 'NONE',  ( 1.000000000000000000, 0.0000000000000000000, 0.0000000000000000000 ) ) ;
#141 = VERTEX_POINT ( 'NONE', #100 ) ;
#142 = ORIENTED_EDGE ( 'NONE', *, *, #172, .F. ) ;
#143 = ORIENTED_EDGE ( 'NONE', *, *, #147, .F. ) ;
#144 = VERTEX_POINT ( 'NONE', #196 ) ;
#145 = AXIS2_PLACEMENT_3D ( 'NONE', #266, #40, #113 ) ;
#146 = CYLINDRICAL_SURFACE ( 'NONE', #208, 0.09375000000000001388 ) ;
#147 = EDGE_CURVE ( 'NONE', #141, #226, #191, .T. ) ;
#148 = CARTESIAN_POINT ( 'NONE',  ( 0.0000000000000000000, 0.0000000000000000000, 2.000000000000000000 ) ) ;
#149 = CARTESIAN_POINT ( 'NONE',  ( 0.07874999999999980627, 9.644093543285380530E-18, 2.000000000000000000 ) ) ;
#150 = FILL_AREA_STYLE ('',( #258 ) ) ;
#151 = VECTOR ( 'NONE', #108, 39.37007874015748143 ) ;
#152 = CARTESIAN_POINT ( 'NONE',  ( 7.660553729477949085E-17, 0.0000000000000000000, 0.6255316826705892286 ) ) ;
#153 = DIRECTION ( 'NONE',  ( 1.000000000000000000, 0.0000000000000000000, 0.0000000000000000000 ) ) ;
#154 = DIRECTION ( 'NONE',  ( -0.0000000000000000000, -0.0000000000000000000, -1.000000000000000000 ) ) ;
#155 = EDGE_LOOP ( 'NONE', ( #231, #272, #298, #205 ) ) ;
#156 = PRODUCT ( 'Micro_SFP-187-35', 'Micro_SFP-187-35', '', ( #157 ) ) ;
#157 = PRODUCT_CONTEXT ( 'NONE', #5, 'mechanical' ) ;
#158 = DIMENSIONAL_EXPONENTS ( 1.000000000000000000, 0.0000000000000000000, 0.0000000000000000000, 0.0000000000000000000, 0.0000000000000000000, 0.0000000000000000000, 0.0000000000000000000 ) ;
#159 = LENGTH_MEASURE_WITH_UNIT ( LENGTH_MEASURE( 0.02539999999999999897 ), #209 );
#160 = CIRCLE ( 'NONE', #65, 0.09365624999999999645 ) ;
#161 = ORIENTED_EDGE ( 'NONE', *, *, #112, .T. ) ;
#162 = EDGE_CURVE ( 'NONE', #30, #207, #15, .T. ) ;
#163 = LINE ( 'NONE', #186, #126 ) ;
#164 = EDGE_LOOP ( 'NONE', ( #64, #116, #232, #138 ) ) ;
#165 = FACE_OUTER_BOUND ( 'NONE', #164, .T. ) ;
#166 = AXIS2_PLACEMENT_3D ( 'NONE', #201, #171, #77 ) ;
#167 = CARTESIAN_POINT ( 'NONE',  ( -0.09365624999999992706, 1.147532321013543253E-17, 0.6250000000000000000 ) ) ;
#168 = CONICAL_SURFACE ( 'NONE', #83, 0.07874999999999980627, 0.7853981633974466137 ) ;
#169 = CARTESIAN_POINT ( 'NONE',  ( 0.0000000000000000000, 0.0000000000000000000, 2.000000000000000000 ) ) ;
#170 = APPLICATION_PROTOCOL_DEFINITION ( 'draft international standard', 'automotive_design', 1998, #5 ) ;
#171 = DIRECTION ( 'NONE',  ( 0.0000000000000000000, 0.0000000000000000000, -1.000000000000000000 ) ) ;
#172 = EDGE_CURVE ( 'NONE', #251, #22, #243, .T. ) ;
#173 = SURFACE_STYLE_USAGE ( .BOTH. , #237 ) ;
#174 = STYLED_ITEM ( 'NONE', ( #221 ), #109 ) ;
#175 = FACE_OUTER_BOUND ( 'NONE', #123, .T. ) ;
#176 = EDGE_CURVE ( 'NONE', #226, #141, #238, .T. ) ;
#177 = VECTOR ( 'NONE', #188, 39.37007874015748143 ) ;
#178 = FACE_OUTER_BOUND ( 'NONE', #66, .T. ) ;
#179 = EDGE_CURVE ( 'NONE', #22, #251, #98, .T. ) ;
#180 = ORIENTED_EDGE ( 'NONE', *, *, #172, .T. ) ;
#181 = VERTEX_POINT ( 'NONE', #75 ) ;
#182 = SURFACE_STYLE_FILL_AREA ( #184 ) ;
#183 = STYLED_ITEM ( 'NONE', ( #234 ), #42 ) ;
#184 = FILL_AREA_STYLE ('',( #296 ) ) ;
#185 = ORIENTED_EDGE ( 'NONE', *, *, #275, .T. ) ;
#186 = CARTESIAN_POINT ( 'NONE',  ( 0.09365625000000006584, 0.0000000000000000000, 0.6250000000000000000 ) ) ;
#187 = ORIENTED_EDGE ( 'NONE', *, *, #130, .T. ) ;
#188 = DIRECTION ( 'NONE',  ( -0.0000000000000000000, -0.0000000000000000000, -1.000000000000000000 ) ) ;
#189 = DIRECTION ( 'NONE',  ( -0.7071067811865463515, 0.0000000000000000000, -0.7071067811865486830 ) ) ;
#190 = UNCERTAINTY_MEASURE_WITH_UNIT (LENGTH_MEASURE( 1.000000000000000082E-05 ), #74, 'distance_accuracy_value', 'NONE');
#191 = CIRCLE ( 'NONE', #107, 0.07874999999999980627 ) ;
#192 = ADVANCED_FACE ( 'NONE', ( #254 ), #286, .T. ) ;
#193 = AXIS2_PLACEMENT_3D ( 'NONE', #52, #43, #26 ) ;
#194 =( GEOMETRIC_REPRESENTATION_CONTEXT ( 3 ) GLOBAL_UNCERTAINTY_ASSIGNED_CONTEXT ( ( #8 ) ) GLOBAL_UNIT_ASSIGNED_CONTEXT ( ( #60, #136, #291 ) ) REPRESENTATION_CONTEXT ( 'NONE', 'WORKASPACE' ) );
#195 = COLOUR_RGB ( '',0.7921568627450980005, 0.8196078431372548767, 0.9333333333333333481 ) ;
#196 = CARTESIAN_POINT ( 'NONE',  ( 0.09375000000000006939, 1.148106374200644633E-17, 0.6255316826705892286 ) ) ;
#197 = LENGTH_MEASURE_WITH_UNIT ( LENGTH_MEASURE( 0.02539999999999999897 ), #79 );
#198 = CARTESIAN_POINT ( 'NONE',  ( -0.09365624999999999645, 0.0000000000000000000, 1.146958267826442798E-17 ) ) ;
#199 = ADVANCED_FACE ( 'NONE', ( #178 ), #242, .F. ) ;
#200 = DIRECTION ( 'NONE',  ( -1.224646799147353207E-16, -0.0000000000000000000, -1.000000000000000000 ) ) ;
#201 = CARTESIAN_POINT ( 'NONE',  ( 0.0000000000000000000, 0.0000000000000000000, 1.984999999999999654 ) ) ;
#202 = DIRECTION ( 'NONE',  ( -1.000000000000000000, 0.0000000000000000000, 0.0000000000000000000 ) ) ;
#203 = EDGE_CURVE ( 'NONE', #269, #30, #62, .T. ) ;
#204 = DIRECTION ( 'NONE',  ( 0.0000000000000000000, 0.0000000000000000000, -1.000000000000000000 ) ) ;
#205 = ORIENTED_EDGE ( 'NONE', *, *, #112, .F. ) ;
#206 = ORIENTED_EDGE ( 'NONE', *, *, #179, .T. ) ;
#207 = VERTEX_POINT ( 'NONE', #223 ) ;
#208 = AXIS2_PLACEMENT_3D ( 'NONE', #11, #76, #82 ) ;
#209 =( LENGTH_UNIT ( ) NAMED_UNIT ( * ) SI_UNIT ( $, .METRE. ) );
#210 = DIRECTION ( 'NONE',  ( -1.224646799147353207E-16, -0.0000000000000000000, -1.000000000000000000 ) ) ;
#211 = DIRECTION ( 'NONE',  ( 1.000000000000000000, 0.0000000000000000000, 0.0000000000000000000 ) ) ;
#212 = EDGE_CURVE ( 'NONE', #67, #144, #17, .T. ) ;
#213 = DIRECTION ( 'NONE',  ( -1.224646799147353207E-16, -0.0000000000000000000, -1.000000000000000000 ) ) ;
#214 = PRESENTATION_LAYER_ASSIGNMENT (  '', '', ( #183 ) ) ;
#215 = CARTESIAN_POINT ( 'NONE',  ( 0.09375000000000001388, 1.148106374200643863E-17, 1.984999999999999654 ) ) ;
#216 = LINE ( 'NONE', #149, #151 ) ;
#217 = PRODUCT_DEFINITION ( 'UNKNOWN', '', #50, #106 ) ;
#218 = FACE_OUTER_BOUND ( 'NONE', #41, .T. ) ;
#219 = APPLICATION_CONTEXT ( 'automotive_design' ) ;
#220 = DIRECTION ( 'NONE',  ( 0.0000000000000000000, 0.0000000000000000000, 1.000000000000000000 ) ) ;
#221 = PRESENTATION_STYLE_ASSIGNMENT (( #173 ) ) ;
#222 = CIRCLE ( 'NONE', #92, 0.09375000000000001388 ) ;
#223 = CARTESIAN_POINT ( 'NONE',  ( -0.09374999999999994449, 0.0000000000000000000, 0.6255316826705892286 ) ) ;
#224 = EDGE_LOOP ( 'NONE', ( #25, #27, #292, #187 ) ) ;
#225 = CARTESIAN_POINT ( 'NONE',  ( 0.09365625000000006584, 0.0000000000000000000, 0.6250000000000000000 ) ) ;
#226 = VERTEX_POINT ( 'NONE', #260 ) ;
#227 = MECHANICAL_DESIGN_GEOMETRIC_PRESENTATION_REPRESENTATION (  '', ( #174 ), #194 ) ;
#228 = CARTESIAN_POINT ( 'NONE',  ( 0.0000000000000000000, 0.0000000000000000000, 0.0000000000000000000 ) ) ;
#229 = DIRECTION ( 'NONE',  ( -1.224646799147353207E-16, -0.0000000000000000000, -1.000000000000000000 ) ) ;
#230 = ORIENTED_EDGE ( 'NONE', *, *, #19, .T. ) ;
#231 = ORIENTED_EDGE ( 'NONE', *, *, #176, .F. ) ;
#232 = ORIENTED_EDGE ( 'NONE', *, *, #284, .T. ) ;
#233 = AXIS2_PLACEMENT_3D ( 'NONE', #273, #245, #140 ) ;
#234 = PRESENTATION_STYLE_ASSIGNMENT (( #267 ) ) ;
#235 = EDGE_CURVE ( 'NONE', #67, #181, #252, .T. ) ;
#236 = VECTOR ( 'NONE', #35, 39.37007874015748143 ) ;
#237 = SURFACE_SIDE_STYLE ('',( #131 ) ) ;
#238 = CIRCLE ( 'NONE', #145, 0.07874999999999980627 ) ;
#239 = LENGTH_MEASURE_WITH_UNIT ( LENGTH_MEASURE( 0.02539999999999999897 ), #263 );
#240 = CARTESIAN_POINT ( 'NONE',  ( -0.09365624999999999645, 0.0000000000000000000, 2.293916535652885596E-17 ) ) ;
#241 = CARTESIAN_POINT ( 'NONE',  ( 0.0000000000000000000, 0.0000000000000000000, 0.0000000000000000000 ) ) ;
#242 = PLANE ( 'NONE',  #14 ) ;
#243 = CIRCLE ( 'NONE', #38, 0.09365624999999999645 ) ;
#244 = DIRECTION ( 'NONE',  ( -0.1736481776669311639, 2.126576849575782392E-17, 0.9848077530122080203 ) ) ;
#245 = DIRECTION ( 'NONE',  ( 0.0000000000000000000, 0.0000000000000000000, 1.000000000000000000 ) ) ;
#246 =( CONVERSION_BASED_UNIT ( 'INCH', #159 ) LENGTH_UNIT ( ) NAMED_UNIT ( #158 ) );
#247 = ORIENTED_EDGE ( 'NONE', *, *, #176, .T. ) ;
#248 = PRODUCT_DEFINITION_SHAPE ( 'NONE', 'NONE',  #217 ) ;
#249 = DIRECTION ( 'NONE',  ( 0.1736481776669313304, 0.0000000000000000000, 0.9848077530122077983 ) ) ;
#250 = ORIENTED_EDGE ( 'NONE', *, *, #212, .F. ) ;
#251 = VERTEX_POINT ( 'NONE', #240 ) ;
#252 = CIRCLE ( 'NONE', #166, 0.09375000000000001388 ) ;
#253 = DIRECTION ( 'NONE',  ( -1.000000000000000000, 0.0000000000000000000, 1.224646799147352961E-16 ) ) ;
#254 = FACE_OUTER_BOUND ( 'NONE', #48, .T. ) ;
#255 = CONICAL_SURFACE ( 'NONE', #117, 0.07874999999999980627, 0.7853981633974466137 ) ;
#256 = AXIS2_PLACEMENT_3D ( 'NONE', #289, #33, #124 ) ;
#257 = DIRECTION ( 'NONE',  ( 1.224646799147353207E-16, 0.0000000000000000000, 1.000000000000000000 ) ) ;
#258 = FILL_AREA_STYLE_COLOUR ( '', #195 ) ;
#259 = CARTESIAN_POINT ( 'NONE',  ( 0.0000000000000000000, 0.0000000000000000000, 2.000000000000000000 ) ) ;
#260 = CARTESIAN_POINT ( 'NONE',  ( 0.07874999999999980627, 1.056257864264590573E-17, 2.000000000000000000 ) ) ;
#261 = CYLINDRICAL_SURFACE ( 'NONE', #119, 0.09365624999999999645 ) ;
#262 = ADVANCED_FACE ( 'NONE', ( #218 ), #261, .T. ) ;
#263 =( LENGTH_UNIT ( ) NAMED_UNIT ( * ) SI_UNIT ( $, .METRE. ) );
#264 = ORIENTED_EDGE ( 'NONE', *, *, #55, .T. ) ;
#265 = AXIS2_PLACEMENT_3D ( 'NONE', #71, #257, #54 ) ;
#266 = CARTESIAN_POINT ( 'NONE',  ( 0.0000000000000000000, 0.0000000000000000000, 2.000000000000000000 ) ) ;
#267 = SURFACE_STYLE_USAGE ( .BOTH. , #4 ) ;
#268 = EDGE_CURVE ( 'NONE', #269, #22, #16, .T. ) ;
#269 = VERTEX_POINT ( 'NONE', #225 ) ;
#270 = CARTESIAN_POINT ( 'NONE',  ( -0.09365624999999992706, 1.146958267826442798E-17, 0.6250000000000000000 ) ) ;
#271 = COLOUR_RGB ( '',0.7921568627450980005, 0.8196078431372548767, 0.9333333333333333481 ) ;
#272 = ORIENTED_EDGE ( 'NONE', *, *, #288, .T. ) ;
#273 = CARTESIAN_POINT ( 'NONE',  ( 0.0000000000000000000, 0.0000000000000000000, 0.0000000000000000000 ) ) ;
#274 = ORIENTED_EDGE ( 'NONE', *, *, #212, .T. ) ;
#275 = EDGE_CURVE ( 'NONE', #30, #251, #103, .T. ) ;
#276 = UNCERTAINTY_MEASURE_WITH_UNIT (LENGTH_MEASURE( 1.000000000000000082E-05 ), #246, 'distance_accuracy_value', 'NONE');
#277 = FACE_OUTER_BOUND ( 'NONE', #94, .T. ) ;
#278 = FACE_OUTER_BOUND ( 'NONE', #224, .T. ) ;
#279 = VECTOR ( 'NONE', #154, 39.37007874015748143 ) ;
#280 = FACE_OUTER_BOUND ( 'NONE', #155, .T. ) ;
#281 = VECTOR ( 'NONE', #189, 39.37007874015748143 ) ;
#282 = AXIS2_PLACEMENT_3D ( 'NONE', #10, #290, #153 ) ;
#283 = DIRECTION ( 'NONE',  ( 0.0000000000000000000, 0.0000000000000000000, 1.000000000000000000 ) ) ;
#284 = EDGE_CURVE ( 'NONE', #207, #144, #9, .T. ) ;
#285 = CARTESIAN_POINT ( 'NONE',  ( 0.0000000000000000000, 0.0000000000000000000, 0.0000000000000000000 ) ) ;
#286 = CYLINDRICAL_SURFACE ( 'NONE', #299, 0.09375000000000001388 ) ;
#287 = PRESENTATION_LAYER_ASSIGNMENT (  '', '', ( #174 ) ) ;
#288 = EDGE_CURVE ( 'NONE', #226, #67, #216, .T. ) ;
#289 = CARTESIAN_POINT ( 'NONE',  ( 1.404618771449245766E-33, 0.0000000000000000000, 1.146958267826442798E-17 ) ) ;
#290 = DIRECTION ( 'NONE',  ( -1.224646799147353207E-16, -0.0000000000000000000, -1.000000000000000000 ) ) ;
#291 =( NAMED_UNIT ( * ) SI_UNIT ( $, .STERADIAN. ) SOLID_ANGLE_UNIT ( ) );
#292 = ORIENTED_EDGE ( 'NONE', *, *, #45, .T. ) ;
#293 = DIMENSIONAL_EXPONENTS ( 1.000000000000000000, 0.0000000000000000000, 0.0000000000000000000, 0.0000000000000000000, 0.0000000000000000000, 0.0000000000000000000, 0.0000000000000000000 ) ;
#294 =( NAMED_UNIT ( * ) PLANE_ANGLE_UNIT ( ) SI_UNIT ( $, .RADIAN. ) );
#295 = ORIENTED_EDGE ( 'NONE', *, *, #235, .F. ) ;
#296 = FILL_AREA_STYLE_COLOUR ( '', #271 ) ;
#297 = DIRECTION ( 'NONE',  ( -1.000000000000000000, 0.0000000000000000000, 0.0000000000000000000 ) ) ;
#298 = ORIENTED_EDGE ( 'NONE', *, *, #7, .F. ) ;
#299 = AXIS2_PLACEMENT_3D ( 'NONE', #18, #80, #202 ) ;
ENDSEC;
END-ISO-10303-21;
