ISO-10303-21;
HEADER;
FILE_DESCRIPTION (( 'STEP AP214' ),
    '1' );
FILE_NAME ('Micro_RME-022-2.STEP',
    '2021-09-01T22:50:30',
    ( '' ),
    ( '' ),
    'SwSTEP 2.0',
    'SolidWorks 2020',
    '' );
FILE_SCHEMA (( 'AUTOMOTIVE_DESIGN' ));
ENDSEC;

DATA;
#1 = CARTESIAN_POINT ( 'NONE',  ( 0.0000000000000000000, 0.0000000000000000000, 1.485000000000000764 ) ) ;
#2 = DIRECTION ( 'NONE',  ( 0.0000000000000000000, 0.0000000000000000000, -1.000000000000000000 ) ) ;
#3 = ADVANCED_BREP_SHAPE_REPRESENTATION ( 'Micro_RME-022-2', ( #6, #43 ), #55 ) ;
#4 = VECTOR ( 'NONE', #63, 39.37007874015748143 ) ;
#5 = CARTESIAN_POINT ( 'NONE',  ( -0.01098899999999999530, 0.0000000000000000000, 1.345764367583026016E-18 ) ) ;
#6 = MANIFOLD_SOLID_BREP ( 'Cut-Revolve1', #291 ) ;
#7 = APPLICATION_PROTOCOL_DEFINITION ( 'draft international standard', 'automotive_design', 1998, #162 ) ;
#8 = PRODUCT_DEFINITION_CONTEXT ( 'detailed design', #162, 'design' ) ;
#9 = EDGE_CURVE ( 'NONE', #217, #265, #147, .T. ) ;
#10 = ORIENTED_EDGE ( 'NONE', *, *, #102, .T. ) ;
#11 = AXIS2_PLACEMENT_3D ( 'NONE', #12, #51, #101 ) ;
#12 = CARTESIAN_POINT ( 'NONE',  ( 8.082668874372533300E-18, 0.0000000000000000000, 0.06600000000000000311 ) ) ;
#13 = DIRECTION ( 'NONE',  ( 0.0000000000000000000, 0.0000000000000000000, 1.000000000000000000 ) ) ;
#14 = DIRECTION ( 'NONE',  ( -1.224646799147353454E-16, -0.0000000000000000000, -1.000000000000000000 ) ) ;
#15 = CARTESIAN_POINT ( 'NONE',  ( 0.0000000000000000000, 0.0000000000000000000, 1.500000000000000222 ) ) ;
#16 = ORIENTED_EDGE ( 'NONE', *, *, #9, .F. ) ;
#17 = CARTESIAN_POINT ( 'NONE',  ( 0.04750000000000064587, 5.817072295950006528E-18, 1.500000000000000222 ) ) ;
#18 = ORIENTED_EDGE ( 'NONE', *, *, #184, .F. ) ;
#19 = ORIENTED_EDGE ( 'NONE', *, *, #184, .T. ) ;
#20 = DIRECTION ( 'NONE',  ( -1.000000000000000000, 0.0000000000000000000, 1.224646799147353454E-16 ) ) ;
#21 = AXIS2_PLACEMENT_3D ( 'NONE', #252, #141, #24 ) ;
#22 = CARTESIAN_POINT ( 'NONE',  ( 0.0000000000000000000, 0.0000000000000000000, 1.500000000000000222 ) ) ;
#23 = CARTESIAN_POINT ( 'NONE',  ( -0.01098899999999999530, 0.0000000000000000000, 2.691528735166052031E-18 ) ) ;
#24 = DIRECTION ( 'NONE',  ( 1.000000000000000000, 0.0000000000000000000, 0.0000000000000000000 ) ) ;
#25 = VECTOR ( 'NONE', #94, 39.37007874015748143 ) ;
#26 = PRESENTATION_STYLE_ASSIGNMENT (( #226 ) ) ;
#27 = DIMENSIONAL_EXPONENTS ( 1.000000000000000000, 0.0000000000000000000, 0.0000000000000000000, 0.0000000000000000000, 0.0000000000000000000, 0.0000000000000000000, 0.0000000000000000000 ) ;
#28 = LINE ( 'NONE', #5, #25 ) ;
#29 = ADVANCED_FACE ( 'NONE', ( #194 ), #146, .T. ) ;
#30 = VERTEX_POINT ( 'NONE', #210 ) ;
#31 = LENGTH_MEASURE_WITH_UNIT ( LENGTH_MEASURE( 0.02539999999999999897 ), #230 );
#32 = CIRCLE ( 'NONE', #67, 0.06250000000000002776 ) ;
#33 = CARTESIAN_POINT ( 'NONE',  ( 0.0000000000000000000, 0.0000000000000000000, 0.0000000000000000000 ) ) ;
#34 = ORIENTED_EDGE ( 'NONE', *, *, #9, .T. ) ;
#35 = CONICAL_SURFACE ( 'NONE', #193, 0.01098899999999999703, 0.1745329251994338637 ) ;
#36 = CARTESIAN_POINT ( 'NONE',  ( 8.082668874372533300E-18, 0.0000000000000000000, 0.06600000000000000311 ) ) ;
#37 = EDGE_CURVE ( 'NONE', #58, #217, #242, .T. ) ;
#38 = CYLINDRICAL_SURFACE ( 'NONE', #105, 0.06250000000000002776 ) ;
#39 = EDGE_LOOP ( 'NONE', ( #152, #125 ) ) ;
#40 = LINE ( 'NONE', #131, #50 ) ;
#41 = ORIENTED_EDGE ( 'NONE', *, *, #159, .T. ) ;
#42 = CARTESIAN_POINT ( 'NONE',  ( 0.0000000000000000000, 0.0000000000000000000, 0.0000000000000000000 ) ) ;
#43 = AXIS2_PLACEMENT_3D ( 'NONE', #56, #84, #167 ) ;
#44 = DIRECTION ( 'NONE',  ( -0.0000000000000000000, -0.0000000000000000000, -1.000000000000000000 ) ) ;
#45 =( GEOMETRIC_REPRESENTATION_CONTEXT ( 3 ) GLOBAL_UNCERTAINTY_ASSIGNED_CONTEXT ( ( #297 ) ) GLOBAL_UNIT_ASSIGNED_CONTEXT ( ( #71, #126, #187 ) ) REPRESENTATION_CONTEXT ( 'NONE', 'WORKASPACE' ) );
#46 = CARTESIAN_POINT ( 'NONE',  ( 0.01098899999999999530, 1.345764367583025823E-18, -1.345764367583026016E-18 ) ) ;
#47 = EDGE_CURVE ( 'NONE', #175, #168, #73, .T. ) ;
#48 = APPLICATION_PROTOCOL_DEFINITION ( 'draft international standard', 'automotive_design', 1998, #165 ) ;
#49 = ADVANCED_FACE ( 'NONE', ( #234 ), #288, .F. ) ;
#50 = VECTOR ( 'NONE', #295, 39.37007874015748854 ) ;
#51 = DIRECTION ( 'NONE',  ( -1.224646799147353454E-16, -0.0000000000000000000, -1.000000000000000000 ) ) ;
#52 = DIRECTION ( 'NONE',  ( 0.0000000000000000000, 0.0000000000000000000, 1.000000000000000000 ) ) ;
#53 = EDGE_CURVE ( 'NONE', #217, #58, #267, .T. ) ;
#54 =( NAMED_UNIT ( * ) PLANE_ANGLE_UNIT ( ) SI_UNIT ( $, .RADIAN. ) );
#55 =( GEOMETRIC_REPRESENTATION_CONTEXT ( 3 ) GLOBAL_UNCERTAINTY_ASSIGNED_CONTEXT ( ( #259 ) ) GLOBAL_UNIT_ASSIGNED_CONTEXT ( ( #138, #136, #185 ) ) REPRESENTATION_CONTEXT ( 'NONE', 'WORKASPACE' ) );
#56 = CARTESIAN_POINT ( 'NONE',  ( 0.0000000000000000000, 0.0000000000000000000, 0.0000000000000000000 ) ) ;
#57 = ORIENTED_EDGE ( 'NONE', *, *, #228, .F. ) ;
#58 = VERTEX_POINT ( 'NONE', #191 ) ;
#59 = CARTESIAN_POINT ( 'NONE',  ( 0.0000000000000000000, 0.0000000000000000000, 1.500000000000000222 ) ) ;
#60 = PRODUCT_RELATED_PRODUCT_CATEGORY ( 'part', '', ( #229 ) ) ;
#61 = ORIENTED_EDGE ( 'NONE', *, *, #281, .T. ) ;
#62 = VECTOR ( 'NONE', #120, 39.37007874015748143 ) ;
#63 = DIRECTION ( 'NONE',  ( -0.0000000000000000000, -0.0000000000000000000, -1.000000000000000000 ) ) ;
#64 = ORIENTED_EDGE ( 'NONE', *, *, #275, .T. ) ;
#65 = EDGE_LOOP ( 'NONE', ( #246, #287, #61, #78 ) ) ;
#66 = LINE ( 'NONE', #17, #190 ) ;
#67 = AXIS2_PLACEMENT_3D ( 'NONE', #151, #203, #149 ) ;
#68 = CARTESIAN_POINT ( 'NONE',  ( -0.01098899999999998836, 4.499903431126993417E-18, 0.06600000000000000311 ) ) ;
#69 = SURFACE_SIDE_STYLE ('',( #158 ) ) ;
#70 = CONICAL_SURFACE ( 'NONE', #133, 0.04750000000000064587, 0.7853981633974466137 ) ;
#71 =( CONVERSION_BASED_UNIT ( 'INCH', #183 ) LENGTH_UNIT ( ) NAMED_UNIT ( #27 ) );
#72 = CARTESIAN_POINT ( 'NONE',  ( 0.0000000000000000000, 0.0000000000000000000, 1.500000000000000222 ) ) ;
#73 = CIRCLE ( 'NONE', #188, 0.01098899999999999530 ) ;
#74 = CIRCLE ( 'NONE', #216, 0.06250000000000002776 ) ;
#75 = CYLINDRICAL_SURFACE ( 'NONE', #200, 0.01098899999999999530 ) ;
#76 = ADVANCED_FACE ( 'NONE', ( #283 ), #75, .T. ) ;
#77 = ORIENTED_EDGE ( 'NONE', *, *, #37, .F. ) ;
#78 = ORIENTED_EDGE ( 'NONE', *, *, #99, .F. ) ;
#79 = ADVANCED_FACE ( 'NONE', ( #85 ), #160, .T. ) ;
#80 =( NAMED_UNIT ( * ) SI_UNIT ( $, .STERADIAN. ) SOLID_ANGLE_UNIT ( ) );
#81 = EDGE_LOOP ( 'NONE', ( #244, #109, #294, #238 ) ) ;
#82 = DIRECTION ( 'NONE',  ( -1.224646799147353454E-16, -0.0000000000000000000, -1.000000000000000000 ) ) ;
#83 = ORIENTED_EDGE ( 'NONE', *, *, #124, .T. ) ;
#84 = DIRECTION ( 'NONE',  ( 0.0000000000000000000, 0.0000000000000000000, 1.000000000000000000 ) ) ;
#85 = FACE_OUTER_BOUND ( 'NONE', #285, .T. ) ;
#86 = ORIENTED_EDGE ( 'NONE', *, *, #99, .T. ) ;
#87 = DIRECTION ( 'NONE',  ( 1.224646799147353454E-16, 0.0000000000000000000, 1.000000000000000000 ) ) ;
#88 = DIRECTION ( 'NONE',  ( 1.000000000000000000, 0.0000000000000000000, 0.0000000000000000000 ) ) ;
#89 = VECTOR ( 'NONE', #279, 39.37007874015748143 ) ;
#90 = ADVANCED_FACE ( 'NONE', ( #154 ), #35, .T. ) ;
#91 = DIRECTION ( 'NONE',  ( 0.0000000000000000000, 0.0000000000000000000, 1.000000000000000000 ) ) ;
#92 = ADVANCED_FACE ( 'NONE', ( #174 ), #70, .T. ) ;
#93 = STYLED_ITEM ( 'NONE', ( #262 ), #6 ) ;
#94 = DIRECTION ( 'NONE',  ( -1.224646799147353454E-16, -0.0000000000000000000, -1.000000000000000000 ) ) ;
#95 = SHAPE_DEFINITION_REPRESENTATION ( #236, #3 ) ;
#96 = SURFACE_STYLE_USAGE ( .BOTH. , #264 ) ;
#97 = AXIS2_PLACEMENT_3D ( 'NONE', #214, #52, #258 ) ;
#98 = COLOUR_RGB ( '',0.7921568627450980005, 0.8196078431372548767, 0.9333333333333333481 ) ;
#99 = EDGE_CURVE ( 'NONE', #198, #265, #74, .T. ) ;
#100 = EDGE_LOOP ( 'NONE', ( #111, #10, #18, #107 ) ) ;
#101 = DIRECTION ( 'NONE',  ( -1.000000000000000000, 0.0000000000000000000, 0.0000000000000000000 ) ) ;
#102 = EDGE_CURVE ( 'NONE', #132, #198, #241, .T. ) ;
#103 = DIRECTION ( 'NONE',  ( -1.000000000000000000, 0.0000000000000000000, 1.224646799147353454E-16 ) ) ;
#104 = EDGE_CURVE ( 'NONE', #132, #189, #205, .T. ) ;
#105 = AXIS2_PLACEMENT_3D ( 'NONE', #250, #208, #117 ) ;
#106 = DIRECTION ( 'NONE',  ( -1.000000000000000000, 0.0000000000000000000, 1.224646799147353454E-16 ) ) ;
#107 = ORIENTED_EDGE ( 'NONE', *, *, #281, .F. ) ;
#108 = CARTESIAN_POINT ( 'NONE',  ( 0.0000000000000000000, 0.0000000000000000000, 1.485000000000000764 ) ) ;
#109 = ORIENTED_EDGE ( 'NONE', *, *, #284, .T. ) ;
#110 = DIRECTION ( 'NONE',  ( 0.0000000000000000000, 0.0000000000000000000, -1.000000000000000000 ) ) ;
#111 = ORIENTED_EDGE ( 'NONE', *, *, #225, .T. ) ;
#112 = CARTESIAN_POINT ( 'NONE',  ( 0.06250000000000002776, 7.654042494670959086E-18, 1.485000000000000764 ) ) ;
#113 = FACE_OUTER_BOUND ( 'NONE', #65, .T. ) ;
#114 = UNCERTAINTY_MEASURE_WITH_UNIT (LENGTH_MEASURE( 1.000000000000000082E-05 ), #166, 'distance_accuracy_value', 'NONE');
#115 = CARTESIAN_POINT ( 'NONE',  ( 0.04750000000000064587, 6.735557395310483192E-18, 1.500000000000000222 ) ) ;
#116 = PRODUCT_DEFINITION ( 'UNKNOWN', '', #263, #8 ) ;
#117 = DIRECTION ( 'NONE',  ( -1.000000000000000000, 0.0000000000000000000, 0.0000000000000000000 ) ) ;
#118 = CARTESIAN_POINT ( 'NONE',  ( 0.01098900000000000571, 0.0000000000000000000, 0.06600000000000000311 ) ) ;
#119 = FILL_AREA_STYLE_COLOUR ( '', #98 ) ;
#120 = DIRECTION ( 'NONE',  ( -0.0000000000000000000, -0.0000000000000000000, -1.000000000000000000 ) ) ;
#121 =( LENGTH_UNIT ( ) NAMED_UNIT ( * ) SI_UNIT ( $, .METRE. ) );
#122 = DIRECTION ( 'NONE',  ( -0.1736481776669311639, 2.126576849575783008E-17, 0.9848077530122080203 ) ) ;
#123 = AXIS2_PLACEMENT_3D ( 'NONE', #36, #129, #296 ) ;
#124 = EDGE_CURVE ( 'NONE', #177, #132, #66, .T. ) ;
#125 = ORIENTED_EDGE ( 'NONE', *, *, #153, .T. ) ;
#126 =( NAMED_UNIT ( * ) PLANE_ANGLE_UNIT ( ) SI_UNIT ( $, .RADIAN. ) );
#127 = DIRECTION ( 'NONE',  ( 1.000000000000000000, 0.0000000000000000000, -0.0000000000000000000 ) ) ;
#128 = ORIENTED_EDGE ( 'NONE', *, *, #159, .F. ) ;
#129 = DIRECTION ( 'NONE',  ( 1.224646799147353454E-16, 0.0000000000000000000, 1.000000000000000000 ) ) ;
#130 = EDGE_LOOP ( 'NONE', ( #271, #173, #286, #148 ) ) ;
#131 = CARTESIAN_POINT ( 'NONE',  ( -0.04750000000000064587, 0.0000000000000000000, 1.500000000000000222 ) ) ;
#132 = VERTEX_POINT ( 'NONE', #112 ) ;
#133 = AXIS2_PLACEMENT_3D ( 'NONE', #22, #110, #179 ) ;
#134 = DIRECTION ( 'NONE',  ( 0.7071067811865462405, 8.659560562354916834E-17, -0.7071067811865486830 ) ) ;
#135 = DIRECTION ( 'NONE',  ( -1.000000000000000000, 0.0000000000000000000, 0.0000000000000000000 ) ) ;
#136 =( NAMED_UNIT ( * ) PLANE_ANGLE_UNIT ( ) SI_UNIT ( $, .RADIAN. ) );
#137 = ADVANCED_FACE ( 'NONE', ( #197 ), #218, .T. ) ;
#138 =( CONVERSION_BASED_UNIT ( 'INCH', #209 ) LENGTH_UNIT ( ) NAMED_UNIT ( #186 ) );
#139 = PRESENTATION_LAYER_ASSIGNMENT (  '', '', ( #176 ) ) ;
#140 = DIRECTION ( 'NONE',  ( -1.000000000000000000, 0.0000000000000000000, 0.0000000000000000000 ) ) ;
#141 = DIRECTION ( 'NONE',  ( 0.0000000000000000000, 0.0000000000000000000, 1.000000000000000000 ) ) ;
#142 = CIRCLE ( 'NONE', #293, 0.04750000000000064587 ) ;
#143 = EDGE_LOOP ( 'NONE', ( #220, #155 ) ) ;
#144 = SURFACE_STYLE_FILL_AREA ( #215 ) ;
#145 = CIRCLE ( 'NONE', #21, 0.04750000000000064587 ) ;
#146 = PLANE ( 'NONE',  #164 ) ;
#147 = LINE ( 'NONE', #260, #212 ) ;
#148 = ORIENTED_EDGE ( 'NONE', *, *, #153, .F. ) ;
#149 = DIRECTION ( 'NONE',  ( 1.000000000000000000, 0.0000000000000000000, 0.0000000000000000000 ) ) ;
#150 = ORIENTED_EDGE ( 'NONE', *, *, #225, .F. ) ;
#151 = CARTESIAN_POINT ( 'NONE',  ( 4.385869192961820901E-17, 0.0000000000000000000, 0.3581333978103264370 ) ) ;
#152 = ORIENTED_EDGE ( 'NONE', *, *, #47, .T. ) ;
#153 = EDGE_CURVE ( 'NONE', #168, #175, #170, .T. ) ;
#154 = FACE_OUTER_BOUND ( 'NONE', #290, .T. ) ;
#155 = ORIENTED_EDGE ( 'NONE', *, *, #228, .T. ) ;
#156 = CARTESIAN_POINT ( 'NONE',  ( 0.06250000000000002776, 7.654042494670959086E-18, 1.500000000000000222 ) ) ;
#157 = DIRECTION ( 'NONE',  ( 1.000000000000000000, 0.0000000000000000000, 0.0000000000000000000 ) ) ;
#158 = SURFACE_STYLE_FILL_AREA ( #277 ) ;
#159 = EDGE_CURVE ( 'NONE', #30, #189, #40, .T. ) ;
#160 = CONICAL_SURFACE ( 'NONE', #123, 0.01098899999999999703, 0.1745329251994338637 ) ;
#161 = FACE_OUTER_BOUND ( 'NONE', #219, .T. ) ;
#162 = APPLICATION_CONTEXT ( 'automotive_design' ) ;
#163 = ADVANCED_FACE ( 'NONE', ( #113 ), #202, .T. ) ;
#164 = AXIS2_PLACEMENT_3D ( 'NONE', #15, #13, #127 ) ;
#165 = APPLICATION_CONTEXT ( 'automotive_design' ) ;
#166 =( CONVERSION_BASED_UNIT ( 'INCH', #31 ) LENGTH_UNIT ( ) NAMED_UNIT ( #255 ) );
#167 = DIRECTION ( 'NONE',  ( 1.000000000000000000, 0.0000000000000000000, 0.0000000000000000000 ) ) ;
#168 = VERTEX_POINT ( 'NONE', #223 ) ;
#169 = AXIS2_PLACEMENT_3D ( 'NONE', #72, #280, #140 ) ;
#170 = CIRCLE ( 'NONE', #299, 0.01098899999999999530 ) ;
#171 = FILL_AREA_STYLE_COLOUR ( '', #232 ) ;
#172 = CARTESIAN_POINT ( 'NONE',  ( -0.06250000000000002776, 0.0000000000000000000, 1.485000000000000764 ) ) ;
#173 = ORIENTED_EDGE ( 'NONE', *, *, #37, .T. ) ;
#174 = FACE_OUTER_BOUND ( 'NONE', #231, .T. ) ;
#175 = VERTEX_POINT ( 'NONE', #23 ) ;
#176 = STYLED_ITEM ( 'NONE', ( #26 ), #3 ) ;
#177 = VERTEX_POINT ( 'NONE', #115 ) ;
#178 = CARTESIAN_POINT ( 'NONE',  ( 8.082668874372533300E-18, 0.0000000000000000000, 0.06600000000000000311 ) ) ;
#179 = DIRECTION ( 'NONE',  ( -1.000000000000000000, 0.0000000000000000000, 0.0000000000000000000 ) ) ;
#180 = CONICAL_SURFACE ( 'NONE', #169, 0.04750000000000064587, 0.7853981633974466137 ) ;
#181 = LINE ( 'NONE', #118, #89 ) ;
#182 =( LENGTH_UNIT ( ) NAMED_UNIT ( * ) SI_UNIT ( $, .METRE. ) );
#183 = LENGTH_MEASURE_WITH_UNIT ( LENGTH_MEASURE( 0.02539999999999999897 ), #182 );
#184 = EDGE_CURVE ( 'NONE', #265, #198, #32, .T. ) ;
#185 =( NAMED_UNIT ( * ) SI_UNIT ( $, .STERADIAN. ) SOLID_ANGLE_UNIT ( ) );
#186 = DIMENSIONAL_EXPONENTS ( 1.000000000000000000, 0.0000000000000000000, 0.0000000000000000000, 0.0000000000000000000, 0.0000000000000000000, 0.0000000000000000000, 0.0000000000000000000 ) ;
#187 =( NAMED_UNIT ( * ) SI_UNIT ( $, .STERADIAN. ) SOLID_ANGLE_UNIT ( ) );
#188 = AXIS2_PLACEMENT_3D ( 'NONE', #282, #237, #106 ) ;
#189 = VERTEX_POINT ( 'NONE', #172 ) ;
#190 = VECTOR ( 'NONE', #134, 39.37007874015748854 ) ;
#191 = CARTESIAN_POINT ( 'NONE',  ( 0.01098900000000000571, 0.0000000000000000000, 0.06600000000000000311 ) ) ;
#192 = DIRECTION ( 'NONE',  ( -1.224646799147353454E-16, -0.0000000000000000000, -1.000000000000000000 ) ) ;
#193 = AXIS2_PLACEMENT_3D ( 'NONE', #178, #87, #273 ) ;
#194 = FACE_OUTER_BOUND ( 'NONE', #143, .T. ) ;
#195 = ORIENTED_EDGE ( 'NONE', *, *, #233, .F. ) ;
#196 = ORIENTED_EDGE ( 'NONE', *, *, #104, .F. ) ;
#197 = FACE_OUTER_BOUND ( 'NONE', #81, .T. ) ;
#198 = VERTEX_POINT ( 'NONE', #266 ) ;
#199 = PRESENTATION_LAYER_ASSIGNMENT (  '', '', ( #93 ) ) ;
#200 = AXIS2_PLACEMENT_3D ( 'NONE', #33, #14, #103 ) ;
#201 = DIRECTION ( 'NONE',  ( -1.000000000000000000, 0.0000000000000000000, 1.224646799147353454E-16 ) ) ;
#202 = CYLINDRICAL_SURFACE ( 'NONE', #243, 0.06250000000000002776 ) ;
#203 = DIRECTION ( 'NONE',  ( -1.224646799147353454E-16, -0.0000000000000000000, -1.000000000000000000 ) ) ;
#204 = AXIS2_PLACEMENT_3D ( 'NONE', #213, #192, #261 ) ;
#205 = CIRCLE ( 'NONE', #235, 0.06250000000000002776 ) ;
#206 = LINE ( 'NONE', #46, #257 ) ;
#207 = PRODUCT_CONTEXT ( 'NONE', #165, 'mechanical' ) ;
#208 = DIRECTION ( 'NONE',  ( -0.0000000000000000000, -0.0000000000000000000, -1.000000000000000000 ) ) ;
#209 = LENGTH_MEASURE_WITH_UNIT ( LENGTH_MEASURE( 0.02539999999999999897 ), #121 );
#210 = CARTESIAN_POINT ( 'NONE',  ( -0.04750000000000064587, 0.0000000000000000000, 1.500000000000000222 ) ) ;
#211 = ADVANCED_FACE ( 'NONE', ( #245 ), #38, .T. ) ;
#212 = VECTOR ( 'NONE', #122, 39.37007874015747433 ) ;
#213 = CARTESIAN_POINT ( 'NONE',  ( 8.082668874372533300E-18, 0.0000000000000000000, 0.06600000000000000311 ) ) ;
#214 = CARTESIAN_POINT ( 'NONE',  ( 0.0000000000000000000, 0.0000000000000000000, 0.0000000000000000000 ) ) ;
#215 = FILL_AREA_STYLE ('',( #171 ) ) ;
#216 = AXIS2_PLACEMENT_3D ( 'NONE', #272, #298, #221 ) ;
#217 = VERTEX_POINT ( 'NONE', #68 ) ;
#218 = CYLINDRICAL_SURFACE ( 'NONE', #248, 0.01098899999999999530 ) ;
#219 = EDGE_LOOP ( 'NONE', ( #57, #83, #150, #128 ) ) ;
#220 = ORIENTED_EDGE ( 'NONE', *, *, #233, .T. ) ;
#221 = DIRECTION ( 'NONE',  ( 1.000000000000000000, 0.0000000000000000000, 0.0000000000000000000 ) ) ;
#222 = MECHANICAL_DESIGN_GEOMETRIC_PRESENTATION_REPRESENTATION (  '', ( #176 ), #45 ) ;
#223 = CARTESIAN_POINT ( 'NONE',  ( 0.01098899999999999530, 1.345764367583025823E-18, 0.0000000000000000000 ) ) ;
#224 = LINE ( 'NONE', #254, #62 ) ;
#225 = EDGE_CURVE ( 'NONE', #189, #132, #274, .T. ) ;
#226 = SURFACE_STYLE_USAGE ( .BOTH. , #69 ) ;
#227 = CARTESIAN_POINT ( 'NONE',  ( 0.0000000000000000000, 0.0000000000000000000, 1.500000000000000222 ) ) ;
#228 = EDGE_CURVE ( 'NONE', #177, #30, #145, .T. ) ;
#229 = PRODUCT ( 'Micro_RME-022-2', 'Micro_RME-022-2', '', ( #207 ) ) ;
#230 =( LENGTH_UNIT ( ) NAMED_UNIT ( * ) SI_UNIT ( $, .METRE. ) );
#231 = EDGE_LOOP ( 'NONE', ( #268, #195, #41, #196 ) ) ;
#232 = COLOUR_RGB ( '',0.7921568627450980005, 0.8196078431372548767, 0.9333333333333333481 ) ;
#233 = EDGE_CURVE ( 'NONE', #30, #177, #142, .T. ) ;
#234 = FACE_OUTER_BOUND ( 'NONE', #39, .T. ) ;
#235 = AXIS2_PLACEMENT_3D ( 'NONE', #108, #292, #247 ) ;
#236 = PRODUCT_DEFINITION_SHAPE ( 'NONE', 'NONE',  #116 ) ;
#237 = DIRECTION ( 'NONE',  ( -1.224646799147353454E-16, -0.0000000000000000000, -1.000000000000000000 ) ) ;
#238 = ORIENTED_EDGE ( 'NONE', *, *, #253, .F. ) ;
#239 = ADVANCED_FACE ( 'NONE', ( #161 ), #180, .T. ) ;
#240 = ORIENTED_EDGE ( 'NONE', *, *, #53, .F. ) ;
#241 = LINE ( 'NONE', #156, #4 ) ;
#242 = CIRCLE ( 'NONE', #204, 0.01098899999999999703 ) ;
#243 = AXIS2_PLACEMENT_3D ( 'NONE', #59, #44, #135 ) ;
#244 = ORIENTED_EDGE ( 'NONE', *, *, #53, .T. ) ;
#245 = FACE_OUTER_BOUND ( 'NONE', #100, .T. ) ;
#246 = ORIENTED_EDGE ( 'NONE', *, *, #102, .F. ) ;
#247 = DIRECTION ( 'NONE',  ( 1.000000000000000000, 0.0000000000000000000, 0.0000000000000000000 ) ) ;
#248 = AXIS2_PLACEMENT_3D ( 'NONE', #42, #249, #20 ) ;
#249 = DIRECTION ( 'NONE',  ( -1.224646799147353454E-16, -0.0000000000000000000, -1.000000000000000000 ) ) ;
#250 = CARTESIAN_POINT ( 'NONE',  ( 0.0000000000000000000, 0.0000000000000000000, 1.500000000000000222 ) ) ;
#251 = CARTESIAN_POINT ( 'NONE',  ( -0.06249999999999997918, 0.0000000000000000000, 0.3581333978103264370 ) ) ;
#252 = CARTESIAN_POINT ( 'NONE',  ( 0.0000000000000000000, 0.0000000000000000000, 1.500000000000000222 ) ) ;
#253 = EDGE_CURVE ( 'NONE', #217, #175, #28, .T. ) ;
#254 = CARTESIAN_POINT ( 'NONE',  ( -0.06250000000000002776, 0.0000000000000000000, 1.500000000000000222 ) ) ;
#255 = DIMENSIONAL_EXPONENTS ( 1.000000000000000000, 0.0000000000000000000, 0.0000000000000000000, 0.0000000000000000000, 0.0000000000000000000, 0.0000000000000000000, 0.0000000000000000000 ) ;
#256 =( GEOMETRIC_REPRESENTATION_CONTEXT ( 3 ) GLOBAL_UNCERTAINTY_ASSIGNED_CONTEXT ( ( #114 ) ) GLOBAL_UNIT_ASSIGNED_CONTEXT ( ( #166, #54, #80 ) ) REPRESENTATION_CONTEXT ( 'NONE', 'WORKASPACE' ) );
#257 = VECTOR ( 'NONE', #276, 39.37007874015748143 ) ;
#258 = DIRECTION ( 'NONE',  ( 1.000000000000000000, 0.0000000000000000000, -0.0000000000000000000 ) ) ;
#259 = UNCERTAINTY_MEASURE_WITH_UNIT (LENGTH_MEASURE( 1.000000000000000082E-05 ), #138, 'distance_accuracy_value', 'NONE');
#260 = CARTESIAN_POINT ( 'NONE',  ( -0.01098899999999998836, 1.345764367583026016E-18, 0.06600000000000000311 ) ) ;
#261 = DIRECTION ( 'NONE',  ( -1.000000000000000000, 0.0000000000000000000, 0.0000000000000000000 ) ) ;
#262 = PRESENTATION_STYLE_ASSIGNMENT (( #96 ) ) ;
#263 = PRODUCT_DEFINITION_FORMATION_WITH_SPECIFIED_SOURCE ( 'ANY', '', #229, .NOT_KNOWN. ) ;
#264 = SURFACE_SIDE_STYLE ('',( #144 ) ) ;
#265 = VERTEX_POINT ( 'NONE', #251 ) ;
#266 = CARTESIAN_POINT ( 'NONE',  ( 0.06250000000000006939, 7.654042494670963708E-18, 0.3581333978103264370 ) ) ;
#267 = CIRCLE ( 'NONE', #11, 0.01098899999999999703 ) ;
#268 = ORIENTED_EDGE ( 'NONE', *, *, #124, .F. ) ;
#269 = MECHANICAL_DESIGN_GEOMETRIC_PRESENTATION_REPRESENTATION (  '', ( #93 ), #256 ) ;
#270 = CARTESIAN_POINT ( 'NONE',  ( 1.648086025167115131E-34, 0.0000000000000000000, 1.345764367583026016E-18 ) ) ;
#271 = ORIENTED_EDGE ( 'NONE', *, *, #284, .F. ) ;
#272 = CARTESIAN_POINT ( 'NONE',  ( 4.385869192961820901E-17, 0.0000000000000000000, 0.3581333978103264370 ) ) ;
#273 = DIRECTION ( 'NONE',  ( 1.000000000000000000, 0.0000000000000000000, 0.0000000000000000000 ) ) ;
#274 = CIRCLE ( 'NONE', #278, 0.06250000000000002776 ) ;
#275 = EDGE_CURVE ( 'NONE', #58, #198, #181, .T. ) ;
#276 = DIRECTION ( 'NONE',  ( -1.224646799147353454E-16, -0.0000000000000000000, -1.000000000000000000 ) ) ;
#277 = FILL_AREA_STYLE ('',( #119 ) ) ;
#278 = AXIS2_PLACEMENT_3D ( 'NONE', #1, #2, #88 ) ;
#279 = DIRECTION ( 'NONE',  ( 0.1736481776669313581, 0.0000000000000000000, 0.9848077530122077983 ) ) ;
#280 = DIRECTION ( 'NONE',  ( 0.0000000000000000000, 0.0000000000000000000, -1.000000000000000000 ) ) ;
#281 = EDGE_CURVE ( 'NONE', #189, #265, #224, .T. ) ;
#282 = CARTESIAN_POINT ( 'NONE',  ( 1.648086025167115131E-34, 0.0000000000000000000, 1.345764367583026016E-18 ) ) ;
#283 = FACE_OUTER_BOUND ( 'NONE', #130, .T. ) ;
#284 = EDGE_CURVE ( 'NONE', #58, #168, #206, .T. ) ;
#285 = EDGE_LOOP ( 'NONE', ( #240, #34, #19, #289 ) ) ;
#286 = ORIENTED_EDGE ( 'NONE', *, *, #253, .T. ) ;
#287 = ORIENTED_EDGE ( 'NONE', *, *, #104, .T. ) ;
#288 = PLANE ( 'NONE',  #97 ) ;
#289 = ORIENTED_EDGE ( 'NONE', *, *, #275, .F. ) ;
#290 = EDGE_LOOP ( 'NONE', ( #16, #77, #64, #86 ) ) ;
#291 = CLOSED_SHELL ( 'NONE', ( #137, #79, #239, #211, #163, #29, #92, #90, #76, #49 ) ) ;
#292 = DIRECTION ( 'NONE',  ( 0.0000000000000000000, 0.0000000000000000000, -1.000000000000000000 ) ) ;
#293 = AXIS2_PLACEMENT_3D ( 'NONE', #227, #91, #157 ) ;
#294 = ORIENTED_EDGE ( 'NONE', *, *, #47, .F. ) ;
#295 = DIRECTION ( 'NONE',  ( -0.7071067811865462405, 0.0000000000000000000, -0.7071067811865486830 ) ) ;
#296 = DIRECTION ( 'NONE',  ( 1.000000000000000000, 0.0000000000000000000, 0.0000000000000000000 ) ) ;
#297 = UNCERTAINTY_MEASURE_WITH_UNIT (LENGTH_MEASURE( 1.000000000000000082E-05 ), #71, 'distance_accuracy_value', 'NONE');
#298 = DIRECTION ( 'NONE',  ( -1.224646799147353454E-16, -0.0000000000000000000, -1.000000000000000000 ) ) ;
#299 = AXIS2_PLACEMENT_3D ( 'NONE', #270, #82, #201 ) ;
ENDSEC;
END-ISO-10303-21;
