ISO-10303-21;
HEADER;
FILE_DESCRIPTION (( 'STEP AP214' ),
    '1' );
FILE_NAME ('06375.STEP',
    '2023-07-05T16:02:11',
    ( '' ),
    ( '' ),
    'SwSTEP 2.0',
    'SolidWorks 2023',
    '' );
FILE_SCHEMA (( 'AUTOMOTIVE_DESIGN' ));
ENDSEC;

DATA;
#1 = ORIENTED_EDGE ( 'NONE', *, *, #44, .F. ) ;
#2 = DIRECTION ( 'NONE',  ( 6.123233995736778362E-17, 0.8660254037844380415, -0.5000000000000009992 ) ) ;
#3 = ORIENTED_EDGE ( 'NONE', *, *, #213, .T. ) ;
#4 = AXIS2_PLACEMENT_3D ( 'NONE', #199, #154, #11 ) ;
#5 = CIRCLE ( 'NONE', #95, 0.2499999999999999722 ) ;
#6 = PRODUCT_RELATED_PRODUCT_CATEGORY ( 'part', '', ( #14 ) ) ;
#7 = CARTESIAN_POINT ( 'NONE',  ( 0.000000000000000000, 0.000000000000000000, 0.000000000000000000 ) ) ;
#8 = CARTESIAN_POINT ( 'NONE',  ( 0.000000000000000000, 0.000000000000000000, 0.000000000000000000 ) ) ;
#9 = CARTESIAN_POINT ( 'NONE',  ( 2.603792618961250911E-16, 0.4330127018922180770, 0.000000000000000000 ) ) ;
#10 = VERTEX_POINT ( 'NONE', #176 ) ;
#11 = DIRECTION ( 'NONE',  ( 1.000000000000000000, 0.000000000000000000, 0.000000000000000000 ) ) ;
#12 = MECHANICAL_DESIGN_GEOMETRIC_PRESENTATION_REPRESENTATION (  '', ( #197 ), #86 ) ;
#13 = SURFACE_STYLE_FILL_AREA ( #123 ) ;
#14 = PRODUCT ( '06375', '06375', '', ( #262 ) ) ;
#15 = DIMENSIONAL_EXPONENTS ( 1.000000000000000000, 0.000000000000000000, 0.000000000000000000, 0.000000000000000000, 0.000000000000000000, 0.000000000000000000, 0.000000000000000000 ) ;
#16 =( NAMED_UNIT ( * ) PLANE_ANGLE_UNIT ( ) SI_UNIT ( $, .RADIAN. ) );
#17 = APPLICATION_PROTOCOL_DEFINITION ( 'draft international standard', 'automotive_design', 1998, #256 ) ;
#18 = SURFACE_SIDE_STYLE ('',( #13 ) ) ;
#19 = ORIENTED_EDGE ( 'NONE', *, *, #196, .T. ) ;
#20 = CARTESIAN_POINT ( 'NONE',  ( 0.000000000000000000, 0.4330127018922180770, 0.000000000000000000 ) ) ;
#21 = ORIENTED_EDGE ( 'NONE', *, *, #160, .F. ) ;
#22 = DIMENSIONAL_EXPONENTS ( 1.000000000000000000, 0.000000000000000000, 0.000000000000000000, 0.000000000000000000, 0.000000000000000000, 0.000000000000000000, 0.000000000000000000 ) ;
#23 = SURFACE_SIDE_STYLE ('',( #127 ) ) ;
#24 = LENGTH_MEASURE_WITH_UNIT ( LENGTH_MEASURE( 0.02539999999999999897 ), #65 );
#25 = CARTESIAN_POINT ( 'NONE',  ( 0.000000000000000000, 0.000000000000000000, 0.000000000000000000 ) ) ;
#26 = LINE ( 'NONE', #25, #249 ) ;
#27 = CYLINDRICAL_SURFACE ( 'NONE', #62, 0.2499999999999998612 ) ;
#28 = DIRECTION ( 'NONE',  ( -1.252875704100928464E-16, 1.000000000000000000, -0.000000000000000000 ) ) ;
#29 = LENGTH_MEASURE_WITH_UNIT ( LENGTH_MEASURE( 0.02539999999999999897 ), #81 );
#30 = DIRECTION ( 'NONE',  ( -1.000000000000000000, -1.252875704100928464E-16, 0.000000000000000000 ) ) ;
#31 = ORIENTED_EDGE ( 'NONE', *, *, #181, .F. ) ;
#32 = CARTESIAN_POINT ( 'NONE',  ( 0.000000000000000000, 0.4330127018922180770, 0.2499999999999999722 ) ) ;
#33 = ADVANCED_FACE ( 'NONE', ( #255 ), #71, .T. ) ;
#34 =( CONVERSION_BASED_UNIT ( 'INCH', #29 ) LENGTH_UNIT ( ) NAMED_UNIT ( #15 ) );
#35 = CIRCLE ( 'NONE', #164, 0.2499999999999997224 ) ;
#36 = FILL_AREA_STYLE ('',( #221 ) ) ;
#37 = AXIS2_PLACEMENT_3D ( 'NONE', #138, #209, #82 ) ;
#38 = EDGE_LOOP ( 'NONE', ( #179, #51 ) ) ;
#39 = MANIFOLD_SOLID_BREP ( 'Revolve - Cutting Edge', #67 ) ;
#40 =( CONVERSION_BASED_UNIT ( 'INCH', #24 ) LENGTH_UNIT ( ) NAMED_UNIT ( #22 ) );
#41 = PRESENTATION_LAYER_ASSIGNMENT (  '', '', ( #253 ) ) ;
#42 = CARTESIAN_POINT ( 'NONE',  ( 0.000000000000000000, 39.37007874015748143, 0.000000000000000000 ) ) ;
#43 = MANIFOLD_SOLID_BREP ( 'Revolve - Tool Body (Pointed)', #222 ) ;
#44 = EDGE_CURVE ( 'NONE', #97, #229, #189, .T. ) ;
#45 = DIRECTION ( 'NONE',  ( 1.252875704100928464E-16, -1.000000000000000000, 0.000000000000000000 ) ) ;
#46 = COLOUR_RGB ( '',1.000000000000000000, 0.000000000000000000, 0.000000000000000000 ) ;
#47 = PRODUCT_DEFINITION_FORMATION_WITH_SPECIFIED_SOURCE ( 'ANY', '', #14, .NOT_KNOWN. ) ;
#48 =( NAMED_UNIT ( * ) SI_UNIT ( $, .STERADIAN. ) SOLID_ANGLE_UNIT ( ) );
#49 = DIRECTION ( 'NONE',  ( 0.000000000000000000, 0.000000000000000000, 1.000000000000000000 ) ) ;
#50 = DIRECTION ( 'NONE',  ( -1.000000000000000000, 0.000000000000000000, 0.000000000000000000 ) ) ;
#51 = ORIENTED_EDGE ( 'NONE', *, *, #118, .F. ) ;
#52 = STYLED_ITEM ( 'NONE', ( #139 ), #33 ) ;
#53 = DIRECTION ( 'NONE',  ( -1.000000000000000000, 0.000000000000000000, 0.000000000000000000 ) ) ;
#54 = ADVANCED_FACE ( 'NONE', ( #184 ), #136, .T. ) ;
#55 = DIMENSIONAL_EXPONENTS ( 1.000000000000000000, 0.000000000000000000, 0.000000000000000000, 0.000000000000000000, 0.000000000000000000, 0.000000000000000000, 0.000000000000000000 ) ;
#56 =( GEOMETRIC_REPRESENTATION_CONTEXT ( 3 ) GLOBAL_UNCERTAINTY_ASSIGNED_CONTEXT ( ( #200 ) ) GLOBAL_UNIT_ASSIGNED_CONTEXT ( ( #235, #192, #48 ) ) REPRESENTATION_CONTEXT ( 'NONE', 'WORKASPACE' ) );
#57 = FILL_AREA_STYLE_COLOUR ( '', #239 ) ;
#58 = DIMENSIONAL_EXPONENTS ( 1.000000000000000000, 0.000000000000000000, 0.000000000000000000, 0.000000000000000000, 0.000000000000000000, 0.000000000000000000, 0.000000000000000000 ) ;
#59 = SURFACE_STYLE_USAGE ( .BOTH. , #245 ) ;
#60 = DIRECTION ( 'NONE',  ( -0.000000000000000000, -1.000000000000000000, -0.000000000000000000 ) ) ;
#61 = ORIENTED_EDGE ( 'NONE', *, *, #153, .F. ) ;
#62 = AXIS2_PLACEMENT_3D ( 'NONE', #150, #238, #53 ) ;
#63 = SURFACE_STYLE_FILL_AREA ( #190 ) ;
#64 = ORIENTED_EDGE ( 'NONE', *, *, #181, .T. ) ;
#65 =( LENGTH_UNIT ( ) NAMED_UNIT ( * ) SI_UNIT ( $, .METRE. ) );
#66 = DIRECTION ( 'NONE',  ( 0.000000000000000000, 1.000000000000000000, 0.000000000000000000 ) ) ;
#67 = CLOSED_SHELL ( 'NONE', ( #54, #33, #147 ) ) ;
#68 = AXIS2_PLACEMENT_3D ( 'NONE', #191, #66, #49 ) ;
#69 = CARTESIAN_POINT ( 'NONE',  ( -0.2500000000000001110, 3.000000000000000444, 0.000000000000000000 ) ) ;
#70 = EDGE_CURVE ( 'NONE', #205, #10, #26, .T. ) ;
#71 = PLANE ( 'NONE',  #201 ) ;
#72 = DIRECTION ( 'NONE',  ( -1.252875704100928464E-16, 1.000000000000000000, -0.000000000000000000 ) ) ;
#73 = FILL_AREA_STYLE ('',( #171 ) ) ;
#74 = DIRECTION ( 'NONE',  ( 0.000000000000000000, 0.8660254037844380415, 0.5000000000000009992 ) ) ;
#75 = ORIENTED_EDGE ( 'NONE', *, *, #160, .T. ) ;
#76 =( CONVERSION_BASED_UNIT ( 'INCH', #158 ) LENGTH_UNIT ( ) NAMED_UNIT ( #58 ) );
#77 = MECHANICAL_DESIGN_GEOMETRIC_PRESENTATION_REPRESENTATION (  '', ( #253 ), #56 ) ;
#78 =( NAMED_UNIT ( * ) PLANE_ANGLE_UNIT ( ) SI_UNIT ( $, .RADIAN. ) );
#79 = FILL_AREA_STYLE ('',( #57 ) ) ;
#80 =( GEOMETRIC_REPRESENTATION_CONTEXT ( 3 ) GLOBAL_UNCERTAINTY_ASSIGNED_CONTEXT ( ( #161 ) ) GLOBAL_UNIT_ASSIGNED_CONTEXT ( ( #40, #166, #126 ) ) REPRESENTATION_CONTEXT ( 'NONE', 'WORKASPACE' ) );
#81 =( LENGTH_UNIT ( ) NAMED_UNIT ( * ) SI_UNIT ( $, .METRE. ) );
#82 = DIRECTION ( 'NONE',  ( -1.000000000000000000, 0.000000000000000000, 0.000000000000000000 ) ) ;
#83 = DIRECTION ( 'NONE',  ( -1.252875704100928464E-16, 1.000000000000000000, -0.000000000000000000 ) ) ;
#84 =( NAMED_UNIT ( * ) PLANE_ANGLE_UNIT ( ) SI_UNIT ( $, .RADIAN. ) );
#85 = ADVANCED_FACE ( 'NONE', ( #248 ), #148, .F. ) ;
#86 =( GEOMETRIC_REPRESENTATION_CONTEXT ( 3 ) GLOBAL_UNCERTAINTY_ASSIGNED_CONTEXT ( ( #163 ) ) GLOBAL_UNIT_ASSIGNED_CONTEXT ( ( #207, #84, #143 ) ) REPRESENTATION_CONTEXT ( 'NONE', 'WORKASPACE' ) );
#87 = FACE_OUTER_BOUND ( 'NONE', #103, .T. ) ;
#88 = DIRECTION ( 'NONE',  ( -1.000000000000000000, 0.000000000000000000, 0.000000000000000000 ) ) ;
#89 = ORIENTED_EDGE ( 'NONE', *, *, #153, .T. ) ;
#90 = AXIS2_PLACEMENT_3D ( 'NONE', #252, #28, #88 ) ;
#91 = DIRECTION ( 'NONE',  ( -0.000000000000000000, -1.000000000000000000, -0.000000000000000000 ) ) ;
#92 = SURFACE_SIDE_STYLE ('',( #212 ) ) ;
#93 = DIMENSIONAL_EXPONENTS ( 1.000000000000000000, 0.000000000000000000, 0.000000000000000000, 0.000000000000000000, 0.000000000000000000, 0.000000000000000000, 0.000000000000000000 ) ;
#94 =( LENGTH_UNIT ( ) NAMED_UNIT ( * ) SI_UNIT ( $, .METRE. ) );
#95 = AXIS2_PLACEMENT_3D ( 'NONE', #204, #60, #187 ) ;
#96 = SHAPE_DEFINITION_REPRESENTATION ( #241, #234 ) ;
#97 = VERTEX_POINT ( 'NONE', #105 ) ;
#98 =( GEOMETRIC_REPRESENTATION_CONTEXT ( 3 ) GLOBAL_UNCERTAINTY_ASSIGNED_CONTEXT ( ( #226 ) ) GLOBAL_UNIT_ASSIGNED_CONTEXT ( ( #159, #78, #220 ) ) REPRESENTATION_CONTEXT ( 'NONE', 'WORKASPACE' ) );
#99 = AXIS2_PLACEMENT_3D ( 'NONE', #42, #208, #170 ) ;
#100 = DIRECTION ( 'NONE',  ( 0.000000000000000000, -0.000000000000000000, 1.000000000000000000 ) ) ;
#101 = ORIENTED_EDGE ( 'NONE', *, *, #110, .F. ) ;
#102 = PRESENTATION_STYLE_ASSIGNMENT (( #128 ) ) ;
#103 = EDGE_LOOP ( 'NONE', ( #19, #89, #21, #116 ) ) ;
#104 = CIRCLE ( 'NONE', #90, 0.2500000000000000555 ) ;
#105 = CARTESIAN_POINT ( 'NONE',  ( 0.2499999999999999722, 3.000000000000000444, 3.061616997868383018E-17 ) ) ;
#106 = CARTESIAN_POINT ( 'NONE',  ( 2.603792618961250418E-16, 0.4330127018922179105, 0.000000000000000000 ) ) ;
#107 = DIRECTION ( 'NONE',  ( 1.000000000000000000, 1.252875704100928464E-16, 0.000000000000000000 ) ) ;
#108 = PRESENTATION_LAYER_ASSIGNMENT (  '', '', ( #149 ) ) ;
#109 = DIRECTION ( 'NONE',  ( -1.252875704100928464E-16, 1.000000000000000000, 0.000000000000000000 ) ) ;
#110 = EDGE_CURVE ( 'NONE', #263, #10, #5, .T. ) ;
#111 = DIRECTION ( 'NONE',  ( 0.000000000000000000, 0.000000000000000000, -1.000000000000000000 ) ) ;
#112 = CARTESIAN_POINT ( 'NONE',  ( -6.123233995736772199E-17, 3.000000000000000444, 0.000000000000000000 ) ) ;
#113 = PRESENTATION_LAYER_ASSIGNMENT (  '', '', ( #52 ) ) ;
#114 = CIRCLE ( 'NONE', #145, 0.2499999999999997224 ) ;
#115 = DIRECTION ( 'NONE',  ( -1.252875704100928464E-16, 1.000000000000000000, -0.000000000000000000 ) ) ;
#116 = ORIENTED_EDGE ( 'NONE', *, *, #213, .F. ) ;
#117 = DIRECTION ( 'NONE',  ( 0.000000000000000000, 1.000000000000000000, 0.000000000000000000 ) ) ;
#118 = EDGE_CURVE ( 'NONE', #243, #155, #35, .T. ) ;
#119 = APPLICATION_PROTOCOL_DEFINITION ( 'draft international standard', 'automotive_design', 1998, #214 ) ;
#120 = PRODUCT_DEFINITION_CONTEXT ( 'detailed design', #256, 'design' ) ;
#121 = PRESENTATION_LAYER_ASSIGNMENT (  '', '', ( #197 ) ) ;
#122 = VECTOR ( 'NONE', #74, 39.37007874015748143 ) ;
#123 = FILL_AREA_STYLE ('',( #223 ) ) ;
#124 = UNCERTAINTY_MEASURE_WITH_UNIT (LENGTH_MEASURE( 1.000000000000000082E-05 ), #76, 'distance_accuracy_value', 'NONE');
#125 = ORIENTED_EDGE ( 'NONE', *, *, #44, .T. ) ;
#126 =( NAMED_UNIT ( * ) SI_UNIT ( $, .STERADIAN. ) SOLID_ANGLE_UNIT ( ) );
#127 = SURFACE_STYLE_FILL_AREA ( #36 ) ;
#128 = SURFACE_STYLE_USAGE ( .BOTH. , #232 ) ;
#129 = LINE ( 'NONE', #193, #168 ) ;
#130 = MECHANICAL_DESIGN_GEOMETRIC_PRESENTATION_REPRESENTATION (  '', ( #237 ), #140 ) ;
#131 = CARTESIAN_POINT ( 'NONE',  ( -0.2499999999999994449, 0.4330127018922179105, 0.000000000000000000 ) ) ;
#132 = SURFACE_STYLE_USAGE ( .BOTH. , #92 ) ;
#133 = FACE_OUTER_BOUND ( 'NONE', #188, .T. ) ;
#134 = ADVANCED_FACE ( 'NONE', ( #250 ), #257, .F. ) ;
#135 =( NAMED_UNIT ( * ) SI_UNIT ( $, .STERADIAN. ) SOLID_ANGLE_UNIT ( ) );
#136 = CONICAL_SURFACE ( 'NONE', #99, 22.73032555864674364, 0.5235987755983000369 ) ;
#137 =( NAMED_UNIT ( * ) PLANE_ANGLE_UNIT ( ) SI_UNIT ( $, .RADIAN. ) );
#138 = CARTESIAN_POINT ( 'NONE',  ( -6.123233995736770966E-17, 3.000000000000000444, 0.000000000000000000 ) ) ;
#139 = PRESENTATION_STYLE_ASSIGNMENT (( #178 ) ) ;
#140 =( GEOMETRIC_REPRESENTATION_CONTEXT ( 3 ) GLOBAL_UNCERTAINTY_ASSIGNED_CONTEXT ( ( #244 ) ) GLOBAL_UNIT_ASSIGNED_CONTEXT ( ( #34, #16, #261 ) ) REPRESENTATION_CONTEXT ( 'NONE', 'WORKASPACE' ) );
#141 =( LENGTH_UNIT ( ) NAMED_UNIT ( * ) SI_UNIT ( $, .METRE. ) );
#142 = ORIENTED_EDGE ( 'NONE', *, *, #70, .T. ) ;
#143 =( NAMED_UNIT ( * ) SI_UNIT ( $, .STERADIAN. ) SOLID_ANGLE_UNIT ( ) );
#144 = MECHANICAL_DESIGN_GEOMETRIC_PRESENTATION_REPRESENTATION (  '', ( #52 ), #98 ) ;
#145 = AXIS2_PLACEMENT_3D ( 'NONE', #236, #151, #152 ) ;
#146 = PRESENTATION_STYLE_ASSIGNMENT (( #265 ) ) ;
#147 = ADVANCED_FACE ( 'NONE', ( #133 ), #183, .T. ) ;
#148 = PLANE ( 'NONE',  #210 ) ;
#149 = STYLED_ITEM ( 'NONE', ( #102 ), #54 ) ;
#150 = CARTESIAN_POINT ( 'NONE',  ( -6.123233995736772199E-17, 3.000000000000000444, 0.000000000000000000 ) ) ;
#151 = DIRECTION ( 'NONE',  ( -1.252875704100928464E-16, 1.000000000000000000, -0.000000000000000000 ) ) ;
#152 = DIRECTION ( 'NONE',  ( -1.000000000000000000, 0.000000000000000000, 0.000000000000000000 ) ) ;
#153 = EDGE_CURVE ( 'NONE', #243, #97, #216, .T. ) ;
#154 = DIRECTION ( 'NONE',  ( 0.000000000000000000, 0.000000000000000000, 1.000000000000000000 ) ) ;
#155 = VERTEX_POINT ( 'NONE', #131 ) ;
#156 = ORIENTED_EDGE ( 'NONE', *, *, #182, .F. ) ;
#157 = CIRCLE ( 'NONE', #230, 0.2499999999999999722 ) ;
#158 = LENGTH_MEASURE_WITH_UNIT ( LENGTH_MEASURE( 0.02539999999999999897 ), #218 );
#159 =( CONVERSION_BASED_UNIT ( 'INCH', #264 ) LENGTH_UNIT ( ) NAMED_UNIT ( #93 ) );
#160 = EDGE_CURVE ( 'NONE', #229, #97, #104, .T. ) ;
#161 = UNCERTAINTY_MEASURE_WITH_UNIT (LENGTH_MEASURE( 1.000000000000000082E-05 ), #40, 'distance_accuracy_value', 'NONE');
#162 = SURFACE_STYLE_FILL_AREA ( #79 ) ;
#163 = UNCERTAINTY_MEASURE_WITH_UNIT (LENGTH_MEASURE( 1.000000000000000082E-05 ), #207, 'distance_accuracy_value', 'NONE');
#164 = AXIS2_PLACEMENT_3D ( 'NONE', #106, #83, #169 ) ;
#165 = PRODUCT_DEFINITION ( 'UNKNOWN', '', #47, #120 ) ;
#166 =( NAMED_UNIT ( * ) PLANE_ANGLE_UNIT ( ) SI_UNIT ( $, .RADIAN. ) );
#167 = ORIENTED_EDGE ( 'NONE', *, *, #110, .T. ) ;
#168 = VECTOR ( 'NONE', #174, 39.37007874015748143 ) ;
#169 = DIRECTION ( 'NONE',  ( -1.000000000000000000, 0.000000000000000000, 0.000000000000000000 ) ) ;
#170 = DIRECTION ( 'NONE',  ( 0.000000000000000000, 0.000000000000000000, 1.000000000000000000 ) ) ;
#171 = FILL_AREA_STYLE_COLOUR ( '', #46 ) ;
#172 = PRESENTATION_LAYER_ASSIGNMENT (  '', '', ( #237 ) ) ;
#173 = PRESENTATION_STYLE_ASSIGNMENT (( #132 ) ) ;
#174 = DIRECTION ( 'NONE',  ( -1.252875704100928464E-16, 1.000000000000000000, -0.000000000000000000 ) ) ;
#175 = CARTESIAN_POINT ( 'NONE',  ( 0.2499999999999998057, 3.000000000000000444, 3.061616997868381785E-17 ) ) ;
#176 = CARTESIAN_POINT ( 'NONE',  ( 3.061616997868382402E-17, 0.4330127018922180770, -0.2499999999999999722 ) ) ;
#177 = ADVANCED_FACE ( 'NONE', ( #87 ), #211, .T. ) ;
#178 = SURFACE_STYLE_USAGE ( .BOTH. , #18 ) ;
#179 = ORIENTED_EDGE ( 'NONE', *, *, #196, .F. ) ;
#180 = ORIENTED_EDGE ( 'NONE', *, *, #70, .F. ) ;
#181 = EDGE_CURVE ( 'NONE', #10, #263, #157, .T. ) ;
#182 = EDGE_CURVE ( 'NONE', #205, #263, #254, .T. ) ;
#183 = CONICAL_SURFACE ( 'NONE', #68, 22.73032555864674364, 0.5235987755983000369 ) ;
#184 = FACE_OUTER_BOUND ( 'NONE', #198, .T. ) ;
#185 = LENGTH_MEASURE_WITH_UNIT ( LENGTH_MEASURE( 0.02539999999999999897 ), #233 );
#186 = EDGE_LOOP ( 'NONE', ( #61, #251, #3, #1 ) ) ;
#187 = DIRECTION ( 'NONE',  ( 0.000000000000000000, 0.000000000000000000, -1.000000000000000000 ) ) ;
#188 = EDGE_LOOP ( 'NONE', ( #180, #203, #167 ) ) ;
#189 = CIRCLE ( 'NONE', #37, 0.2500000000000000555 ) ;
#190 = FILL_AREA_STYLE ('',( #228 ) ) ;
#191 = CARTESIAN_POINT ( 'NONE',  ( 0.000000000000000000, 39.37007874015748143, 0.000000000000000000 ) ) ;
#192 =( NAMED_UNIT ( * ) PLANE_ANGLE_UNIT ( ) SI_UNIT ( $, .RADIAN. ) );
#193 = CARTESIAN_POINT ( 'NONE',  ( -0.2499999999999999167, 3.000000000000000444, 0.000000000000000000 ) ) ;
#194 = COLOUR_RGB ( '',1.000000000000000000, 0.000000000000000000, 0.000000000000000000 ) ;
#195 = AXIS2_PLACEMENT_3D ( 'NONE', #112, #115, #50 ) ;
#196 = EDGE_CURVE ( 'NONE', #155, #243, #114, .T. ) ;
#197 = STYLED_ITEM ( 'NONE', ( #146 ), #43 ) ;
#198 = EDGE_LOOP ( 'NONE', ( #156, #142, #64 ) ) ;
#199 = CARTESIAN_POINT ( 'NONE',  ( 0.000000000000000000, 0.000000000000000000, 0.000000000000000000 ) ) ;
#200 = UNCERTAINTY_MEASURE_WITH_UNIT (LENGTH_MEASURE( 1.000000000000000082E-05 ), #235, 'distance_accuracy_value', 'NONE');
#201 = AXIS2_PLACEMENT_3D ( 'NONE', #20, #117, #100 ) ;
#202 =( GEOMETRIC_REPRESENTATION_CONTEXT ( 3 ) GLOBAL_UNCERTAINTY_ASSIGNED_CONTEXT ( ( #124 ) ) GLOBAL_UNIT_ASSIGNED_CONTEXT ( ( #76, #137, #135 ) ) REPRESENTATION_CONTEXT ( 'NONE', 'WORKASPACE' ) );
#203 = ORIENTED_EDGE ( 'NONE', *, *, #182, .T. ) ;
#204 = CARTESIAN_POINT ( 'NONE',  ( 0.000000000000000000, 0.4330127018922180770, 0.000000000000000000 ) ) ;
#205 = VERTEX_POINT ( 'NONE', #8 ) ;
#206 = CARTESIAN_POINT ( 'NONE',  ( 0.2499999999999999722, 3.000000000000000444, 0.000000000000000000 ) ) ;
#207 =( CONVERSION_BASED_UNIT ( 'INCH', #185 ) LENGTH_UNIT ( ) NAMED_UNIT ( #246 ) );
#208 = DIRECTION ( 'NONE',  ( 0.000000000000000000, 1.000000000000000000, 0.000000000000000000 ) ) ;
#209 = DIRECTION ( 'NONE',  ( -1.252875704100928464E-16, 1.000000000000000000, -0.000000000000000000 ) ) ;
#210 = AXIS2_PLACEMENT_3D ( 'NONE', #206, #45, #107 ) ;
#211 = CYLINDRICAL_SURFACE ( 'NONE', #195, 0.2499999999999998612 ) ;
#212 = SURFACE_STYLE_FILL_AREA ( #73 ) ;
#213 = EDGE_CURVE ( 'NONE', #155, #229, #129, .T. ) ;
#214 = APPLICATION_CONTEXT ( 'automotive_design' ) ;
#215 = LENGTH_MEASURE_WITH_UNIT ( LENGTH_MEASURE( 0.02539999999999999897 ), #94 );
#216 = LINE ( 'NONE', #175, #219 ) ;
#217 = CARTESIAN_POINT ( 'NONE',  ( 0.2500000000000000000, 0.4330127018922179105, 3.061616997868383018E-17 ) ) ;
#218 =( LENGTH_UNIT ( ) NAMED_UNIT ( * ) SI_UNIT ( $, .METRE. ) );
#219 = VECTOR ( 'NONE', #72, 39.37007874015748143 ) ;
#220 =( NAMED_UNIT ( * ) SI_UNIT ( $, .STERADIAN. ) SOLID_ANGLE_UNIT ( ) );
#221 = FILL_AREA_STYLE_COLOUR ( '', #242 ) ;
#222 = CLOSED_SHELL ( 'NONE', ( #177, #134, #231, #85 ) ) ;
#223 = FILL_AREA_STYLE_COLOUR ( '', #194 ) ;
#224 = COLOUR_RGB ( '',1.000000000000000000, 0.000000000000000000, 0.000000000000000000 ) ;
#225 = EDGE_LOOP ( 'NONE', ( #75, #125 ) ) ;
#226 = UNCERTAINTY_MEASURE_WITH_UNIT (LENGTH_MEASURE( 1.000000000000000082E-05 ), #159, 'distance_accuracy_value', 'NONE');
#227 = EDGE_LOOP ( 'NONE', ( #101, #31 ) ) ;
#228 = FILL_AREA_STYLE_COLOUR ( '', #224 ) ;
#229 = VERTEX_POINT ( 'NONE', #69 ) ;
#230 = AXIS2_PLACEMENT_3D ( 'NONE', #259, #91, #111 ) ;
#231 = ADVANCED_FACE ( 'NONE', ( #258 ), #27, .T. ) ;
#232 = SURFACE_SIDE_STYLE ('',( #63 ) ) ;
#233 =( LENGTH_UNIT ( ) NAMED_UNIT ( * ) SI_UNIT ( $, .METRE. ) );
#234 = ADVANCED_BREP_SHAPE_REPRESENTATION ( '06375', ( #39, #43, #4 ), #202 ) ;
#235 =( CONVERSION_BASED_UNIT ( 'INCH', #215 ) LENGTH_UNIT ( ) NAMED_UNIT ( #55 ) );
#236 = CARTESIAN_POINT ( 'NONE',  ( 2.603792618961250418E-16, 0.4330127018922179105, 0.000000000000000000 ) ) ;
#237 = STYLED_ITEM ( 'NONE', ( #240 ), #39 ) ;
#238 = DIRECTION ( 'NONE',  ( -1.252875704100928464E-16, 1.000000000000000000, -0.000000000000000000 ) ) ;
#239 = COLOUR_RGB ( '',0.7921568627450980005, 0.8196078431372548767, 0.9333333333333333481 ) ;
#240 = PRESENTATION_STYLE_ASSIGNMENT (( #59 ) ) ;
#241 = PRODUCT_DEFINITION_SHAPE ( 'NONE', 'NONE',  #165 ) ;
#242 = COLOUR_RGB ( '',0.7921568627450980005, 0.8196078431372548767, 0.9333333333333333481 ) ;
#243 = VERTEX_POINT ( 'NONE', #217 ) ;
#244 = UNCERTAINTY_MEASURE_WITH_UNIT (LENGTH_MEASURE( 1.000000000000000082E-05 ), #34, 'distance_accuracy_value', 'NONE');
#245 = SURFACE_SIDE_STYLE ('',( #162 ) ) ;
#246 = DIMENSIONAL_EXPONENTS ( 1.000000000000000000, 0.000000000000000000, 0.000000000000000000, 0.000000000000000000, 0.000000000000000000, 0.000000000000000000, 0.000000000000000000 ) ;
#247 = AXIS2_PLACEMENT_3D ( 'NONE', #9, #109, #30 ) ;
#248 = FACE_OUTER_BOUND ( 'NONE', #225, .T. ) ;
#249 = VECTOR ( 'NONE', #2, 39.37007874015748143 ) ;
#250 = FACE_OUTER_BOUND ( 'NONE', #38, .T. ) ;
#251 = ORIENTED_EDGE ( 'NONE', *, *, #118, .T. ) ;
#252 = CARTESIAN_POINT ( 'NONE',  ( -6.123233995736770966E-17, 3.000000000000000444, 0.000000000000000000 ) ) ;
#253 = STYLED_ITEM ( 'NONE', ( #173 ), #147 ) ;
#254 = LINE ( 'NONE', #7, #122 ) ;
#255 = FACE_OUTER_BOUND ( 'NONE', #227, .T. ) ;
#256 = APPLICATION_CONTEXT ( 'automotive_design' ) ;
#257 = PLANE ( 'NONE',  #247 ) ;
#258 = FACE_OUTER_BOUND ( 'NONE', #186, .T. ) ;
#259 = CARTESIAN_POINT ( 'NONE',  ( 0.000000000000000000, 0.4330127018922180770, 0.000000000000000000 ) ) ;
#260 = MECHANICAL_DESIGN_GEOMETRIC_PRESENTATION_REPRESENTATION (  '', ( #149 ), #80 ) ;
#261 =( NAMED_UNIT ( * ) SI_UNIT ( $, .STERADIAN. ) SOLID_ANGLE_UNIT ( ) );
#262 = PRODUCT_CONTEXT ( 'NONE', #214, 'mechanical' ) ;
#263 = VERTEX_POINT ( 'NONE', #32 ) ;
#264 = LENGTH_MEASURE_WITH_UNIT ( LENGTH_MEASURE( 0.02539999999999999897 ), #141 );
#265 = SURFACE_STYLE_USAGE ( .BOTH. , #23 ) ;
ENDSEC;
END-ISO-10303-21;
