ISO-10303-21;
HEADER;
FILE_DESCRIPTION (( 'STEP AP214' ),
    '1' );
FILE_NAME ('Micro_BMR-010-2X.STEP',
    '2021-09-03T13:39:40',
    ( '' ),
    ( '' ),
    'SwSTEP 2.0',
    'SolidWorks 2020',
    '' );
FILE_SCHEMA (( 'AUTOMOTIVE_DESIGN' ));
ENDSEC;

DATA;
#1 = VECTOR ( 'NONE', #285, 39.37007874015748143 ) ;
#2 = EDGE_CURVE ( 'NONE', #318, #275, #256, .T. ) ;
#3 = ORIENTED_EDGE ( 'NONE', *, *, #300, .T. ) ;
#4 = FACE_OUTER_BOUND ( 'NONE', #288, .T. ) ;
#5 = SPHERICAL_SURFACE ( 'NONE', #36, 0.004995000000000000308 ) ;
#6 = DIRECTION ( 'NONE',  ( -0.1736481776669309418, 2.126576849575780543E-17, 0.9848077530122080203 ) ) ;
#7 = MECHANICAL_DESIGN_GEOMETRIC_PRESENTATION_REPRESENTATION (  '', ( #15 ), #80 ) ;
#8 = UNCERTAINTY_MEASURE_WITH_UNIT (LENGTH_MEASURE( 1.000000000000000082E-05 ), #191, 'distance_accuracy_value', 'NONE');
#9 = SURFACE_STYLE_USAGE ( .BOTH. , #42 ) ;
#10 = ORIENTED_EDGE ( 'NONE', *, *, #192, .T. ) ;
#11 = DIRECTION ( 'NONE',  ( -1.000000000000000000, 1.224646799147353207E-16, 0.0000000000000000000 ) ) ;
#12 = DIRECTION ( 'NONE',  ( 0.0000000000000000000, 1.000000000000000000, 0.0000000000000000000 ) ) ;
#13 = CARTESIAN_POINT ( 'NONE',  ( 0.004994999999999982093, 6.117110761741005633E-19, 0.004994999999999999440 ) ) ;
#14 = EDGE_LOOP ( 'NONE', ( #179, #127, #193, #112 ) ) ;
#15 = STYLED_ITEM ( 'NONE', ( #195 ), #308 ) ;
#16 = MECHANICAL_DESIGN_GEOMETRIC_PRESENTATION_REPRESENTATION (  '', ( #122 ), #292 ) ;
#17 = ORIENTED_EDGE ( 'NONE', *, *, #148, .F. ) ;
#18 = CARTESIAN_POINT ( 'NONE',  ( 0.0000000000000000000, 0.0000000000000000000, 0.0000000000000000000 ) ) ;
#19 = ORIENTED_EDGE ( 'NONE', *, *, #132, .T. ) ;
#20 = ADVANCED_FACE ( 'NONE', ( #53 ), #254, .T. ) ;
#21 = FILL_AREA_STYLE_COLOUR ( '', #139 ) ;
#22 = CARTESIAN_POINT ( 'NONE',  ( 0.0000000000000000000, 0.0000000000000000000, 1.500000000000000222 ) ) ;
#23 = DIRECTION ( 'NONE',  ( 0.0000000000000000000, 0.0000000000000000000, -1.000000000000000000 ) ) ;
#24 = CYLINDRICAL_SURFACE ( 'NONE', #71, 0.06250000000000002776 ) ;
#25 = CARTESIAN_POINT ( 'NONE',  ( 0.0000000000000000000, 0.0000000000000000000, 0.0000000000000000000 ) ) ;
#26 = EDGE_CURVE ( 'NONE', #318, #145, #321, .T. ) ;
#27 = ADVANCED_FACE ( 'NONE', ( #103 ), #121, .T. ) ;
#28 = COLOUR_RGB ( '',0.7921568627450980005, 0.8196078431372548767, 0.9333333333333333481 ) ;
#29 = AXIS2_PLACEMENT_3D ( 'NONE', #69, #219, #250 ) ;
#30 = DIRECTION ( 'NONE',  ( 0.0000000000000000000, 1.000000000000000000, 0.0000000000000000000 ) ) ;
#31 = EDGE_CURVE ( 'NONE', #241, #323, #67, .T. ) ;
#32 = LINE ( 'NONE', #120, #286 ) ;
#33 = DIRECTION ( 'NONE',  ( -1.224646799147353454E-16, -0.0000000000000000000, -1.000000000000000000 ) ) ;
#34 = VERTEX_POINT ( 'NONE', #209 ) ;
#35 = DIRECTION ( 'NONE',  ( 1.000000000000000000, 0.0000000000000000000, 0.0000000000000000000 ) ) ;
#36 = AXIS2_PLACEMENT_3D ( 'NONE', #118, #12, #87 ) ;
#37 =( NAMED_UNIT ( * ) SI_UNIT ( $, .STERADIAN. ) SOLID_ANGLE_UNIT ( ) );
#38 = DIRECTION ( 'NONE',  ( -1.000000000000000000, 0.0000000000000000000, 2.136392637687901648E-16 ) ) ;
#39 = CARTESIAN_POINT ( 'NONE',  ( -0.04750000000000064587, 0.0000000000000000000, 1.500000000000000222 ) ) ;
#40 = ORIENTED_EDGE ( 'NONE', *, *, #227, .F. ) ;
#41 = CARTESIAN_POINT ( 'NONE',  ( 4.361298653888572598E-17, 0.0000000000000000000, 0.3561270610371152223 ) ) ;
#42 = SURFACE_SIDE_STYLE ('',( #200 ) ) ;
#43 = DIRECTION ( 'NONE',  ( -1.224646799147353454E-16, -0.0000000000000000000, -1.000000000000000000 ) ) ;
#44 = DIRECTION ( 'NONE',  ( -1.224646799147353454E-16, -0.0000000000000000000, -1.000000000000000000 ) ) ;
#45 = ORIENTED_EDGE ( 'NONE', *, *, #137, .F. ) ;
#46 =( NAMED_UNIT ( * ) SI_UNIT ( $, .STERADIAN. ) SOLID_ANGLE_UNIT ( ) );
#47 = DIRECTION ( 'NONE',  ( 1.000000000000000000, 0.0000000000000000000, 0.0000000000000000000 ) ) ;
#48 = PRODUCT_DEFINITION ( 'UNKNOWN', '', #161, #165 ) ;
#49 = LENGTH_MEASURE_WITH_UNIT ( LENGTH_MEASURE( 0.02539999999999999897 ), #231 );
#50 = ORIENTED_EDGE ( 'NONE', *, *, #148, .T. ) ;
#51 = UNCERTAINTY_MEASURE_WITH_UNIT (LENGTH_MEASURE( 1.000000000000000082E-05 ), #162, 'distance_accuracy_value', 'NONE');
#52 = CIRCLE ( 'NONE', #243, 0.04750000000000064587 ) ;
#53 = FACE_OUTER_BOUND ( 'NONE', #142, .T. ) ;
#54 = DIMENSIONAL_EXPONENTS ( 1.000000000000000000, 0.0000000000000000000, 0.0000000000000000000, 0.0000000000000000000, 0.0000000000000000000, 0.0000000000000000000, 0.0000000000000000000 ) ;
#55 = LENGTH_MEASURE_WITH_UNIT ( LENGTH_MEASURE( 0.02539999999999999897 ), #96 );
#56 = ADVANCED_FACE ( 'NONE', ( #232 ), #24, .T. ) ;
#57 = AXIS2_PLACEMENT_3D ( 'NONE', #147, #167, #113 ) ;
#58 = ADVANCED_FACE ( 'NONE', ( #297 ), #79, .T. ) ;
#59 = FACE_OUTER_BOUND ( 'NONE', #255, .T. ) ;
#60 = AXIS2_PLACEMENT_3D ( 'NONE', #214, #63, #164 ) ;
#61 = EDGE_LOOP ( 'NONE', ( #274, #86, #83, #251 ) ) ;
#62 = DIRECTION ( 'NONE',  ( 1.224646799147353207E-16, 1.000000000000000000, -0.0000000000000000000 ) ) ;
#63 = DIRECTION ( 'NONE',  ( 1.224646799147353454E-16, 0.0000000000000000000, 1.000000000000000000 ) ) ;
#64 = FACE_OUTER_BOUND ( 'NONE', #166, .T. ) ;
#65 = AXIS2_PLACEMENT_3D ( 'NONE', #41, #44, #202 ) ;
#66 = CARTESIAN_POINT ( 'NONE',  ( 0.004994999999999982961, 0.0000000000000000000, 0.02999999999999995379 ) ) ;
#67 = LINE ( 'NONE', #268, #259 ) ;
#68 = APPLICATION_CONTEXT ( 'automotive_design' ) ;
#69 = CARTESIAN_POINT ( 'NONE',  ( 0.0000000000000000000, 0.0000000000000000000, 1.500000000000000222 ) ) ;
#70 = ORIENTED_EDGE ( 'NONE', *, *, #111, .T. ) ;
#71 = AXIS2_PLACEMENT_3D ( 'NONE', #324, #185, #159 ) ;
#72 = PRESENTATION_LAYER_ASSIGNMENT (  '', '', ( #122 ) ) ;
#73 = ORIENTED_EDGE ( 'NONE', *, *, #257, .T. ) ;
#74 = DIRECTION ( 'NONE',  ( -0.0000000000000000000, -0.0000000000000000000, -1.000000000000000000 ) ) ;
#75 = VERTEX_POINT ( 'NONE', #133 ) ;
#76 = ADVANCED_FACE ( 'NONE', ( #64 ), #5, .T. ) ;
#77 = CLOSED_SHELL ( 'NONE', ( #233, #58, #223, #104, #27, #56, #20, #322, #204, #252, #76 ) ) ;
#78 = VECTOR ( 'NONE', #306, 39.37007874015748854 ) ;
#79 = CYLINDRICAL_SURFACE ( 'NONE', #302, 0.004994999999999981226 ) ;
#80 =( GEOMETRIC_REPRESENTATION_CONTEXT ( 3 ) GLOBAL_UNCERTAINTY_ASSIGNED_CONTEXT ( ( #8 ) ) GLOBAL_UNIT_ASSIGNED_CONTEXT ( ( #191, #197, #37 ) ) REPRESENTATION_CONTEXT ( 'NONE', 'WORKASPACE' ) );
#81 = CARTESIAN_POINT ( 'NONE',  ( -0.004994999999999981226, 0.0000000000000000000, 6.117110761741006596E-19 ) ) ;
#82 = EDGE_CURVE ( 'NONE', #323, #216, #100, .T. ) ;
#83 = ORIENTED_EDGE ( 'NONE', *, *, #2, .F. ) ;
#84 = DIRECTION ( 'NONE',  ( -1.224646799147353454E-16, -0.0000000000000000000, -1.000000000000000000 ) ) ;
#85 = VECTOR ( 'NONE', #74, 39.37007874015748143 ) ;
#86 = ORIENTED_EDGE ( 'NONE', *, *, #137, .T. ) ;
#87 = DIRECTION ( 'NONE',  ( 1.000000000000000000, 0.0000000000000000000, 0.0000000000000000000 ) ) ;
#88 =( LENGTH_UNIT ( ) NAMED_UNIT ( * ) SI_UNIT ( $, .METRE. ) );
#89 = CARTESIAN_POINT ( 'NONE',  ( 3.673940397442054568E-18, 0.0000000000000000000, 0.02999999999999995379 ) ) ;
#90 = ADVANCED_BREP_SHAPE_REPRESENTATION ( 'Micro_BMR-010-2X', ( #308, #221 ), #153 ) ;
#91 = FILL_AREA_STYLE_COLOUR ( '', #28 ) ;
#92 = DIRECTION ( 'NONE',  ( 0.0000000000000000000, 0.0000000000000000000, -1.000000000000000000 ) ) ;
#93 = CONICAL_SURFACE ( 'NONE', #270, 0.04750000000000064587, 0.7853981633974466137 ) ;
#94 = CARTESIAN_POINT ( 'NONE',  ( -0.04750000000000064587, 0.0000000000000000000, 1.500000000000000222 ) ) ;
#95 = DIRECTION ( 'NONE',  ( -1.000000000000000000, 0.0000000000000000000, 0.0000000000000000000 ) ) ;
#96 =( LENGTH_UNIT ( ) NAMED_UNIT ( * ) SI_UNIT ( $, .METRE. ) );
#97 = EDGE_LOOP ( 'NONE', ( #156, #10, #150, #203 ) ) ;
#98 = EDGE_CURVE ( 'NONE', #275, #318, #136, .T. ) ;
#99 = ORIENTED_EDGE ( 'NONE', *, *, #235, .T. ) ;
#100 = CIRCLE ( 'NONE', #115, 0.004994999999999981226 ) ;
#101 = CARTESIAN_POINT ( 'NONE',  ( -0.06250000000000002776, 0.0000000000000000000, 1.500000000000000222 ) ) ;
#102 = SURFACE_STYLE_FILL_AREA ( #126 ) ;
#103 = FACE_OUTER_BOUND ( 'NONE', #97, .T. ) ;
#104 = ADVANCED_FACE ( 'NONE', ( #171 ), #93, .T. ) ;
#105 = DIRECTION ( 'NONE',  ( 0.0000000000000000000, 0.0000000000000000000, 1.000000000000000000 ) ) ;
#106 = CARTESIAN_POINT ( 'NONE',  ( 0.0000000000000000000, 0.0000000000000000000, 0.0000000000000000000 ) ) ;
#107 = EDGE_CURVE ( 'NONE', #216, #323, #177, .T. ) ;
#108 = CIRCLE ( 'NONE', #320, 0.004994999999999980358 ) ;
#109 = CONICAL_SURFACE ( 'NONE', #146, 0.04750000000000064587, 0.7853981633974466137 ) ;
#110 = DIRECTION ( 'NONE',  ( 1.224646799147353454E-16, 0.0000000000000000000, 1.000000000000000000 ) ) ;
#111 = EDGE_CURVE ( 'NONE', #151, #323, #298, .T. ) ;
#112 = ORIENTED_EDGE ( 'NONE', *, *, #107, .T. ) ;
#113 = DIRECTION ( 'NONE',  ( 0.0000000000000000000, 0.0000000000000000000, -1.000000000000000000 ) ) ;
#114 = UNCERTAINTY_MEASURE_WITH_UNIT (LENGTH_MEASURE( 1.000000000000000082E-05 ), #184, 'distance_accuracy_value', 'NONE');
#115 = AXIS2_PLACEMENT_3D ( 'NONE', #143, #311, #239 ) ;
#116 = CARTESIAN_POINT ( 'NONE',  ( 3.673940397442054568E-18, 0.0000000000000000000, 0.02999999999999995379 ) ) ;
#117 = CARTESIAN_POINT ( 'NONE',  ( 0.0000000000000000000, 0.0000000000000000000, 1.500000000000000222 ) ) ;
#118 = CARTESIAN_POINT ( 'NONE',  ( 6.117110761741030670E-19, 0.0000000000000000000, 0.004995000000000000308 ) ) ;
#119 = CARTESIAN_POINT ( 'NONE',  ( 0.0000000000000000000, 0.0000000000000000000, 1.500000000000000222 ) ) ;
#120 = CARTESIAN_POINT ( 'NONE',  ( -0.004994999999999976889, 6.117110761741004670E-19, 0.02999999999999995379 ) ) ;
#121 = CYLINDRICAL_SURFACE ( 'NONE', #183, 0.06250000000000002776 ) ;
#122 = STYLED_ITEM ( 'NONE', ( #134 ), #90 ) ;
#123 = DIRECTION ( 'NONE',  ( -1.224646799147353454E-16, -0.0000000000000000000, -1.000000000000000000 ) ) ;
#124 = ORIENTED_EDGE ( 'NONE', *, *, #31, .T. ) ;
#125 = CARTESIAN_POINT ( 'NONE',  ( 0.004994999999999982961, 0.0000000000000000000, 0.02999999999999995379 ) ) ;
#126 = FILL_AREA_STYLE ('',( #21 ) ) ;
#127 = ORIENTED_EDGE ( 'NONE', *, *, #187, .T. ) ;
#128 = DIRECTION ( 'NONE',  ( 1.000000000000000000, 0.0000000000000000000, -0.0000000000000000000 ) ) ;
#129 = AXIS2_PLACEMENT_3D ( 'NONE', #194, #242, #35 ) ;
#130 =( NAMED_UNIT ( * ) SI_UNIT ( $, .STERADIAN. ) SOLID_ANGLE_UNIT ( ) );
#131 = ORIENTED_EDGE ( 'NONE', *, *, #82, .T. ) ;
#132 = EDGE_CURVE ( 'NONE', #241, #34, #217, .T. ) ;
#133 = CARTESIAN_POINT ( 'NONE',  ( -0.004994999999999976889, 4.132876785422530113E-18, 0.02999999999999995379 ) ) ;
#134 = PRESENTATION_STYLE_ASSIGNMENT (( #319 ) ) ;
#135 = CIRCLE ( 'NONE', #158, 0.004994999999999980358 ) ;
#136 = CIRCLE ( 'NONE', #129, 0.06250000000000002776 ) ;
#137 = EDGE_CURVE ( 'NONE', #224, #275, #190, .T. ) ;
#138 =( NAMED_UNIT ( * ) PLANE_ANGLE_UNIT ( ) SI_UNIT ( $, .RADIAN. ) );
#139 = COLOUR_RGB ( '',0.7921568627450980005, 0.8196078431372548767, 0.9333333333333333481 ) ;
#140 = CARTESIAN_POINT ( 'NONE',  ( 0.06250000000000002776, 7.654042494670959086E-18, 1.500000000000000222 ) ) ;
#141 = DIRECTION ( 'NONE',  ( 1.000000000000000000, 0.0000000000000000000, 0.0000000000000000000 ) ) ;
#142 = EDGE_LOOP ( 'NONE', ( #73, #182 ) ) ;
#143 = CARTESIAN_POINT ( 'NONE',  ( 6.117110761741030670E-19, 0.0000000000000000000, 0.004995000000000000308 ) ) ;
#144 = FILL_AREA_STYLE ('',( #91 ) ) ;
#145 = VERTEX_POINT ( 'NONE', #245 ) ;
#146 = AXIS2_PLACEMENT_3D ( 'NONE', #119, #314, #174 ) ;
#147 = CARTESIAN_POINT ( 'NONE',  ( 6.117110761741030670E-19, 0.0000000000000000000, 0.004995000000000000308 ) ) ;
#148 = EDGE_CURVE ( 'NONE', #75, #145, #32, .T. ) ;
#149 = FACE_OUTER_BOUND ( 'NONE', #273, .T. ) ;
#150 = ORIENTED_EDGE ( 'NONE', *, *, #300, .F. ) ;
#151 = VERTEX_POINT ( 'NONE', #266 ) ;
#152 = VECTOR ( 'NONE', #303, 39.37007874015748143 ) ;
#153 =( GEOMETRIC_REPRESENTATION_CONTEXT ( 3 ) GLOBAL_UNCERTAINTY_ASSIGNED_CONTEXT ( ( #51 ) ) GLOBAL_UNIT_ASSIGNED_CONTEXT ( ( #162, #138, #130 ) ) REPRESENTATION_CONTEXT ( 'NONE', 'WORKASPACE' ) );
#154 = CARTESIAN_POINT ( 'NONE',  ( 4.361298653888572598E-17, 0.0000000000000000000, 0.3561270610371152223 ) ) ;
#155 = ORIENTED_EDGE ( 'NONE', *, *, #26, .T. ) ;
#156 = ORIENTED_EDGE ( 'NONE', *, *, #2, .T. ) ;
#157 = CARTESIAN_POINT ( 'NONE',  ( 0.0000000000000000000, 0.0000000000000000000, 1.485000000000000764 ) ) ;
#158 = AXIS2_PLACEMENT_3D ( 'NONE', #281, #84, #218 ) ;
#159 = DIRECTION ( 'NONE',  ( -1.000000000000000000, 0.0000000000000000000, 0.0000000000000000000 ) ) ;
#160 = AXIS2_PLACEMENT_3D ( 'NONE', #157, #23, #47 ) ;
#161 = PRODUCT_DEFINITION_FORMATION_WITH_SPECIFIED_SOURCE ( 'ANY', '', #272, .NOT_KNOWN. ) ;
#162 =( CONVERSION_BASED_UNIT ( 'INCH', #55 ) LENGTH_UNIT ( ) NAMED_UNIT ( #234 ) );
#163 = EDGE_CURVE ( 'NONE', #75, #241, #108, .T. ) ;
#164 = DIRECTION ( 'NONE',  ( 1.000000000000000000, 0.0000000000000000000, 0.0000000000000000000 ) ) ;
#165 = PRODUCT_DEFINITION_CONTEXT ( 'detailed design', #178, 'design' ) ;
#166 = EDGE_LOOP ( 'NONE', ( #230, #70, #175 ) ) ;
#167 = DIRECTION ( 'NONE',  ( 0.0000000000000000000, -1.000000000000000000, 0.0000000000000000000 ) ) ;
#168 = DIRECTION ( 'NONE',  ( 1.000000000000000000, 0.0000000000000000000, 0.0000000000000000000 ) ) ;
#169 = FACE_OUTER_BOUND ( 'NONE', #208, .T. ) ;
#170 = AXIS2_PLACEMENT_3D ( 'NONE', #287, #304, #38 ) ;
#171 = FACE_OUTER_BOUND ( 'NONE', #61, .T. ) ;
#172 = LINE ( 'NONE', #39, #276 ) ;
#173 = DIRECTION ( 'NONE',  ( -1.000000000000000000, 0.0000000000000000000, 0.0000000000000000000 ) ) ;
#174 = DIRECTION ( 'NONE',  ( -1.000000000000000000, 0.0000000000000000000, 0.0000000000000000000 ) ) ;
#175 = ORIENTED_EDGE ( 'NONE', *, *, #107, .F. ) ;
#176 = ORIENTED_EDGE ( 'NONE', *, *, #237, .F. ) ;
#177 = CIRCLE ( 'NONE', #170, 0.004994999999999981226 ) ;
#178 = APPLICATION_CONTEXT ( 'automotive_design' ) ;
#179 = ORIENTED_EDGE ( 'NONE', *, *, #31, .F. ) ;
#180 = PRODUCT_DEFINITION_SHAPE ( 'NONE', 'NONE',  #48 ) ;
#181 = ORIENTED_EDGE ( 'NONE', *, *, #82, .F. ) ;
#182 = ORIENTED_EDGE ( 'NONE', *, *, #269, .T. ) ;
#183 = AXIS2_PLACEMENT_3D ( 'NONE', #220, #313, #95 ) ;
#184 =( CONVERSION_BASED_UNIT ( 'INCH', #49 ) LENGTH_UNIT ( ) NAMED_UNIT ( #301 ) );
#185 = DIRECTION ( 'NONE',  ( -0.0000000000000000000, -0.0000000000000000000, -1.000000000000000000 ) ) ;
#186 = CONICAL_SURFACE ( 'NONE', #229, 0.004994999999999980358, 0.1745329251994336694 ) ;
#187 = EDGE_CURVE ( 'NONE', #241, #75, #135, .T. ) ;
#188 = CARTESIAN_POINT ( 'NONE',  ( -0.004994999999999980358, 0.0000000000000000000, 0.004995000000000001175 ) ) ;
#189 = AXIS2_PLACEMENT_3D ( 'NONE', #154, #33, #307 ) ;
#190 = LINE ( 'NONE', #261, #78 ) ;
#191 =( CONVERSION_BASED_UNIT ( 'INCH', #247 ) LENGTH_UNIT ( ) NAMED_UNIT ( #54 ) );
#192 = EDGE_CURVE ( 'NONE', #275, #34, #199, .T. ) ;
#193 = ORIENTED_EDGE ( 'NONE', *, *, #227, .T. ) ;
#194 = CARTESIAN_POINT ( 'NONE',  ( 0.0000000000000000000, 0.0000000000000000000, 1.485000000000000764 ) ) ;
#195 = PRESENTATION_STYLE_ASSIGNMENT (( #9 ) ) ;
#196 = DIRECTION ( 'NONE',  ( 0.1736481776669311916, 0.0000000000000000000, 0.9848077530122080203 ) ) ;
#197 =( NAMED_UNIT ( * ) PLANE_ANGLE_UNIT ( ) SI_UNIT ( $, .RADIAN. ) );
#198 = AXIS2_PLACEMENT_3D ( 'NONE', #244, #30, #141 ) ;
#199 = LINE ( 'NONE', #140, #1 ) ;
#200 = SURFACE_STYLE_FILL_AREA ( #144 ) ;
#201 = ORIENTED_EDGE ( 'NONE', *, *, #257, .F. ) ;
#202 = DIRECTION ( 'NONE',  ( 1.000000000000000000, 0.0000000000000000000, 0.0000000000000000000 ) ) ;
#203 = ORIENTED_EDGE ( 'NONE', *, *, #26, .F. ) ;
#204 = ADVANCED_FACE ( 'NONE', ( #4 ), #236, .T. ) ;
#205 = ORIENTED_EDGE ( 'NONE', *, *, #282, .T. ) ;
#206 = AXIS2_PLACEMENT_3D ( 'NONE', #18, #123, #310 ) ;
#207 = ORIENTED_EDGE ( 'NONE', *, *, #132, .F. ) ;
#208 = EDGE_LOOP ( 'NONE', ( #296, #50, #3, #207 ) ) ;
#209 = CARTESIAN_POINT ( 'NONE',  ( 0.06250000000000006939, 7.654042494670963708E-18, 0.3561270610371152223 ) ) ;
#210 = CARTESIAN_POINT ( 'NONE',  ( 0.04750000000000064587, 6.735557395310483192E-18, 1.500000000000000222 ) ) ;
#211 = EDGE_LOOP ( 'NONE', ( #271, #291, #155, #176 ) ) ;
#212 = DIRECTION ( 'NONE',  ( -1.224646799147353454E-16, -0.0000000000000000000, -1.000000000000000000 ) ) ;
#213 = PRESENTATION_LAYER_ASSIGNMENT (  '', '', ( #15 ) ) ;
#214 = CARTESIAN_POINT ( 'NONE',  ( 3.673940397442054568E-18, 0.0000000000000000000, 0.02999999999999995379 ) ) ;
#215 = DIRECTION ( 'NONE',  ( 0.0000000000000000000, 0.0000000000000000000, 1.000000000000000000 ) ) ;
#216 = VERTEX_POINT ( 'NONE', #188 ) ;
#217 = LINE ( 'NONE', #66, #312 ) ;
#218 = DIRECTION ( 'NONE',  ( -1.000000000000000000, 0.0000000000000000000, 0.0000000000000000000 ) ) ;
#219 = DIRECTION ( 'NONE',  ( 0.0000000000000000000, 0.0000000000000000000, 1.000000000000000000 ) ) ;
#220 = CARTESIAN_POINT ( 'NONE',  ( 0.0000000000000000000, 0.0000000000000000000, 1.500000000000000222 ) ) ;
#221 = AXIS2_PLACEMENT_3D ( 'NONE', #25, #105, #317 ) ;
#222 = CYLINDRICAL_SURFACE ( 'NONE', #206, 0.004994999999999981226 ) ;
#223 = ADVANCED_FACE ( 'NONE', ( #169 ), #186, .T. ) ;
#224 = VERTEX_POINT ( 'NONE', #210 ) ;
#225 =( NAMED_UNIT ( * ) PLANE_ANGLE_UNIT ( ) SI_UNIT ( $, .RADIAN. ) );
#226 = EDGE_LOOP ( 'NONE', ( #315, #124, #131, #40 ) ) ;
#227 = EDGE_CURVE ( 'NONE', #75, #216, #284, .T. ) ;
#228 = ORIENTED_EDGE ( 'NONE', *, *, #111, .F. ) ;
#229 = AXIS2_PLACEMENT_3D ( 'NONE', #89, #110, #263 ) ;
#230 = ORIENTED_EDGE ( 'NONE', *, *, #235, .F. ) ;
#231 =( LENGTH_UNIT ( ) NAMED_UNIT ( * ) SI_UNIT ( $, .METRE. ) );
#232 = FACE_OUTER_BOUND ( 'NONE', #211, .T. ) ;
#233 = ADVANCED_FACE ( 'NONE', ( #59 ), #260, .T. ) ;
#234 = DIMENSIONAL_EXPONENTS ( 1.000000000000000000, 0.0000000000000000000, 0.0000000000000000000, 0.0000000000000000000, 0.0000000000000000000, 0.0000000000000000000, 0.0000000000000000000 ) ;
#235 = EDGE_CURVE ( 'NONE', #151, #216, #290, .T. ) ;
#236 = CONICAL_SURFACE ( 'NONE', #60, 0.004994999999999980358, 0.1745329251994336694 ) ;
#237 = EDGE_CURVE ( 'NONE', #34, #145, #325, .T. ) ;
#238 = CIRCLE ( 'NONE', #189, 0.06250000000000002776 ) ;
#239 = DIRECTION ( 'NONE',  ( -1.000000000000000000, 0.0000000000000000000, 2.136392637687901648E-16 ) ) ;
#240 = CARTESIAN_POINT ( 'NONE',  ( 6.117110761741030670E-19, 0.0000000000000000000, 0.004995000000000000308 ) ) ;
#241 = VERTEX_POINT ( 'NONE', #125 ) ;
#242 = DIRECTION ( 'NONE',  ( 0.0000000000000000000, 0.0000000000000000000, -1.000000000000000000 ) ) ;
#243 = AXIS2_PLACEMENT_3D ( 'NONE', #117, #215, #168 ) ;
#244 = CARTESIAN_POINT ( 'NONE',  ( 6.117110761741030670E-19, 0.0000000000000000000, 0.004995000000000000308 ) ) ;
#245 = CARTESIAN_POINT ( 'NONE',  ( -0.06249999999999997918, 0.0000000000000000000, 0.3561270610371152223 ) ) ;
#246 = DIRECTION ( 'NONE',  ( 0.0000000000000000000, 0.0000000000000000000, 1.000000000000000000 ) ) ;
#247 = LENGTH_MEASURE_WITH_UNIT ( LENGTH_MEASURE( 0.02539999999999999897 ), #88 );
#248 = VERTEX_POINT ( 'NONE', #94 ) ;
#249 = CIRCLE ( 'NONE', #29, 0.04750000000000064587 ) ;
#250 = DIRECTION ( 'NONE',  ( 1.000000000000000000, 0.0000000000000000000, 0.0000000000000000000 ) ) ;
#251 = ORIENTED_EDGE ( 'NONE', *, *, #282, .F. ) ;
#252 = ADVANCED_FACE ( 'NONE', ( #262 ), #222, .T. ) ;
#253 = SHAPE_DEFINITION_REPRESENTATION ( #180, #90 ) ;
#254 = PLANE ( 'NONE',  #280 ) ;
#255 = EDGE_LOOP ( 'NONE', ( #228, #99, #181 ) ) ;
#256 = CIRCLE ( 'NONE', #160, 0.06250000000000002776 ) ;
#257 = EDGE_CURVE ( 'NONE', #248, #224, #52, .T. ) ;
#258 = DIRECTION ( 'NONE',  ( -1.000000000000000000, 0.0000000000000000000, 1.224646799147353207E-16 ) ) ;
#259 = VECTOR ( 'NONE', #43, 39.37007874015748143 ) ;
#260 = SPHERICAL_SURFACE ( 'NONE', #198, 0.004995000000000000308 ) ;
#261 = CARTESIAN_POINT ( 'NONE',  ( 0.04750000000000064587, 5.817072295950006528E-18, 1.500000000000000222 ) ) ;
#262 = FACE_OUTER_BOUND ( 'NONE', #14, .T. ) ;
#263 = DIRECTION ( 'NONE',  ( 1.000000000000000000, 0.0000000000000000000, 0.0000000000000000000 ) ) ;
#264 = CARTESIAN_POINT ( 'NONE',  ( 0.0000000000000000000, 0.0000000000000000000, 1.500000000000000222 ) ) ;
#265 = CARTESIAN_POINT ( 'NONE',  ( -0.06250000000000002776, 0.0000000000000000000, 1.485000000000000764 ) ) ;
#266 = CARTESIAN_POINT ( 'NONE',  ( 9.175666142611546005E-19, 0.0000000000000000000, 0.0000000000000000000 ) ) ;
#267 = CARTESIAN_POINT ( 'NONE',  ( 0.06250000000000002776, 7.654042494670959086E-18, 1.485000000000000764 ) ) ;
#268 = CARTESIAN_POINT ( 'NONE',  ( 0.004994999999999981226, 6.117110761741005633E-19, -6.117110761741006596E-19 ) ) ;
#269 = EDGE_CURVE ( 'NONE', #224, #248, #249, .T. ) ;
#270 = AXIS2_PLACEMENT_3D ( 'NONE', #264, #92, #173 ) ;
#271 = ORIENTED_EDGE ( 'NONE', *, *, #192, .F. ) ;
#272 = PRODUCT ( 'Micro_BMR-010-2X', 'Micro_BMR-010-2X', '', ( #299 ) ) ;
#273 = EDGE_LOOP ( 'NONE', ( #45, #201, #205, #283 ) ) ;
#274 = ORIENTED_EDGE ( 'NONE', *, *, #269, .F. ) ;
#275 = VERTEX_POINT ( 'NONE', #267 ) ;
#276 = VECTOR ( 'NONE', #316, 39.37007874015748854 ) ;
#277 = PRODUCT_RELATED_PRODUCT_CATEGORY ( 'part', '', ( #272 ) ) ;
#278 = APPLICATION_PROTOCOL_DEFINITION ( 'draft international standard', 'automotive_design', 1998, #68 ) ;
#279 = DIRECTION ( 'NONE',  ( -1.224646799147353454E-16, -0.0000000000000000000, -1.000000000000000000 ) ) ;
#280 = AXIS2_PLACEMENT_3D ( 'NONE', #22, #246, #128 ) ;
#281 = CARTESIAN_POINT ( 'NONE',  ( 3.673940397442054568E-18, 0.0000000000000000000, 0.02999999999999995379 ) ) ;
#282 = EDGE_CURVE ( 'NONE', #248, #318, #172, .T. ) ;
#283 = ORIENTED_EDGE ( 'NONE', *, *, #98, .F. ) ;
#284 = LINE ( 'NONE', #81, #152 ) ;
#285 = DIRECTION ( 'NONE',  ( -0.0000000000000000000, -0.0000000000000000000, -1.000000000000000000 ) ) ;
#286 = VECTOR ( 'NONE', #6, 39.37007874015748854 ) ;
#287 = CARTESIAN_POINT ( 'NONE',  ( 6.117110761741030670E-19, 0.0000000000000000000, 0.004995000000000000308 ) ) ;
#288 = EDGE_LOOP ( 'NONE', ( #17, #294, #19, #289 ) ) ;
#289 = ORIENTED_EDGE ( 'NONE', *, *, #237, .T. ) ;
#290 = CIRCLE ( 'NONE', #305, 0.004995000000000000308 ) ;
#291 = ORIENTED_EDGE ( 'NONE', *, *, #98, .T. ) ;
#292 =( GEOMETRIC_REPRESENTATION_CONTEXT ( 3 ) GLOBAL_UNCERTAINTY_ASSIGNED_CONTEXT ( ( #114 ) ) GLOBAL_UNIT_ASSIGNED_CONTEXT ( ( #184, #225, #46 ) ) REPRESENTATION_CONTEXT ( 'NONE', 'WORKASPACE' ) );
#293 = APPLICATION_PROTOCOL_DEFINITION ( 'draft international standard', 'automotive_design', 1998, #178 ) ;
#294 = ORIENTED_EDGE ( 'NONE', *, *, #187, .F. ) ;
#295 = SURFACE_SIDE_STYLE ('',( #102 ) ) ;
#296 = ORIENTED_EDGE ( 'NONE', *, *, #163, .F. ) ;
#297 = FACE_OUTER_BOUND ( 'NONE', #226, .T. ) ;
#298 = CIRCLE ( 'NONE', #57, 0.004995000000000000308 ) ;
#299 = PRODUCT_CONTEXT ( 'NONE', #68, 'mechanical' ) ;
#300 = EDGE_CURVE ( 'NONE', #145, #34, #238, .T. ) ;
#301 = DIMENSIONAL_EXPONENTS ( 1.000000000000000000, 0.0000000000000000000, 0.0000000000000000000, 0.0000000000000000000, 0.0000000000000000000, 0.0000000000000000000, 0.0000000000000000000 ) ;
#302 = AXIS2_PLACEMENT_3D ( 'NONE', #106, #279, #258 ) ;
#303 = DIRECTION ( 'NONE',  ( -1.224646799147353454E-16, -0.0000000000000000000, -1.000000000000000000 ) ) ;
#304 = DIRECTION ( 'NONE',  ( 1.224646799147353454E-16, 0.0000000000000000000, 1.000000000000000000 ) ) ;
#305 = AXIS2_PLACEMENT_3D ( 'NONE', #240, #62, #11 ) ;
#306 = DIRECTION ( 'NONE',  ( 0.7071067811865462405, 8.659560562354916834E-17, -0.7071067811865486830 ) ) ;
#307 = DIRECTION ( 'NONE',  ( 1.000000000000000000, 0.0000000000000000000, 0.0000000000000000000 ) ) ;
#308 = MANIFOLD_SOLID_BREP ( 'Fillet1', #77 ) ;
#309 = DIRECTION ( 'NONE',  ( -1.000000000000000000, 0.0000000000000000000, 0.0000000000000000000 ) ) ;
#310 = DIRECTION ( 'NONE',  ( -1.000000000000000000, 0.0000000000000000000, 1.224646799147353207E-16 ) ) ;
#311 = DIRECTION ( 'NONE',  ( 1.224646799147353454E-16, 0.0000000000000000000, 1.000000000000000000 ) ) ;
#312 = VECTOR ( 'NONE', #196, 39.37007874015747433 ) ;
#313 = DIRECTION ( 'NONE',  ( -0.0000000000000000000, -0.0000000000000000000, -1.000000000000000000 ) ) ;
#314 = DIRECTION ( 'NONE',  ( 0.0000000000000000000, 0.0000000000000000000, -1.000000000000000000 ) ) ;
#315 = ORIENTED_EDGE ( 'NONE', *, *, #163, .T. ) ;
#316 = DIRECTION ( 'NONE',  ( -0.7071067811865462405, 0.0000000000000000000, -0.7071067811865486830 ) ) ;
#317 = DIRECTION ( 'NONE',  ( 1.000000000000000000, 0.0000000000000000000, 0.0000000000000000000 ) ) ;
#318 = VERTEX_POINT ( 'NONE', #265 ) ;
#319 = SURFACE_STYLE_USAGE ( .BOTH. , #295 ) ;
#320 = AXIS2_PLACEMENT_3D ( 'NONE', #116, #212, #309 ) ;
#321 = LINE ( 'NONE', #101, #85 ) ;
#322 = ADVANCED_FACE ( 'NONE', ( #149 ), #109, .T. ) ;
#323 = VERTEX_POINT ( 'NONE', #13 ) ;
#324 = CARTESIAN_POINT ( 'NONE',  ( 0.0000000000000000000, 0.0000000000000000000, 1.500000000000000222 ) ) ;
#325 = CIRCLE ( 'NONE', #65, 0.06250000000000002776 ) ;
ENDSEC;
END-ISO-10303-21;
