ISO-10303-21;
HEADER;
FILE_DESCRIPTION (( 'STEP AP214' ),
    '1' );
FILE_NAME ('Micro_SFPM-050-60.STEP',
    '2021-09-02T07:14:40',
    ( '' ),
    ( '' ),
    'SwSTEP 2.0',
    'SolidWorks 2020',
    '' );
FILE_SCHEMA (( 'AUTOMOTIVE_DESIGN' ));
ENDSEC;

DATA;
#1 = VERTEX_POINT ( 'NONE', #157 ) ;
#2 = CARTESIAN_POINT ( 'NONE',  ( -0.1031099999999991607, 0.0000000000000000000, 2.952755999999999936 ) ) ;
#3 = EDGE_LOOP ( 'NONE', ( #156, #184, #201, #90 ) ) ;
#4 = CIRCLE ( 'NONE', #43, 0.1181100000000000066 ) ;
#5 = ORIENTED_EDGE ( 'NONE', *, *, #92, .F. ) ;
#6 = ADVANCED_FACE ( 'NONE', ( #246 ), #211, .T. ) ;
#7 = DIRECTION ( 'NONE',  ( 1.000000000000000000, 0.0000000000000000000, 0.0000000000000000000 ) ) ;
#8 = LENGTH_MEASURE_WITH_UNIT ( LENGTH_MEASURE( 0.02539999999999999897 ), #76 );
#9 = ADVANCED_FACE ( 'NONE', ( #91 ), #117, .T. ) ;
#10 = SURFACE_SIDE_STYLE ('',( #56 ) ) ;
#11 = DIRECTION ( 'NONE',  ( -1.000000000000000000, 0.0000000000000000000, 0.0000000000000000000 ) ) ;
#12 =( CONVERSION_BASED_UNIT ( 'INCH', #289 ) LENGTH_UNIT ( ) NAMED_UNIT ( #286 ) );
#13 = AXIS2_PLACEMENT_3D ( 'NONE', #191, #107, #215 ) ;
#14 = DIRECTION ( 'NONE',  ( -0.0000000000000000000, -0.0000000000000000000, -1.000000000000000000 ) ) ;
#15 = ORIENTED_EDGE ( 'NONE', *, *, #244, .T. ) ;
#16 = CIRCLE ( 'NONE', #171, 0.1031099999999991607 ) ;
#17 = LENGTH_MEASURE_WITH_UNIT ( LENGTH_MEASURE( 0.02539999999999999897 ), #294 );
#18 = VERTEX_POINT ( 'NONE', #298 ) ;
#19 = DIRECTION ( 'NONE',  ( 1.000000000000000000, 0.0000000000000000000, 0.0000000000000000000 ) ) ;
#20 = EDGE_LOOP ( 'NONE', ( #5, #96, #15, #200 ) ) ;
#21 = ORIENTED_EDGE ( 'NONE', *, *, #178, .T. ) ;
#22 = CARTESIAN_POINT ( 'NONE',  ( 0.0000000000000000000, 0.0000000000000000000, 2.952755999999999936 ) ) ;
#23 = ORIENTED_EDGE ( 'NONE', *, *, #153, .T. ) ;
#24 = LINE ( 'NONE', #27, #42 ) ;
#25 = CARTESIAN_POINT ( 'NONE',  ( 1.487406255293943111E-16, 0.0000000000000000000, 1.214559378532270140 ) ) ;
#26 = AXIS2_PLACEMENT_3D ( 'NONE', #38, #132, #198 ) ;
#27 = CARTESIAN_POINT ( 'NONE',  ( -0.09832657499999998552, 0.0000000000000000000, 1.204153253448721512E-17 ) ) ;
#28 = EDGE_CURVE ( 'NONE', #273, #18, #276, .T. ) ;
#29 = SURFACE_STYLE_FILL_AREA ( #285 ) ;
#30 = CARTESIAN_POINT ( 'NONE',  ( 0.1181100000000000066, 1.446430334472939084E-17, 2.937755999999999368 ) ) ;
#31 = CIRCLE ( 'NONE', #235, 0.1181100000000000066 ) ;
#32 = CARTESIAN_POINT ( 'NONE',  ( 0.09832657500000012429, 0.0000000000000000000, 1.102362000000000064 ) ) ;
#33 = DIRECTION ( 'NONE',  ( 1.000000000000000000, 0.0000000000000000000, 0.0000000000000000000 ) ) ;
#34 = ADVANCED_FACE ( 'NONE', ( #64 ), #251, .T. ) ;
#35 = DIRECTION ( 'NONE',  ( -1.224646799147353207E-16, -0.0000000000000000000, -1.000000000000000000 ) ) ;
#36 = CIRCLE ( 'NONE', #291, 0.09832657499999998552 ) ;
#37 = EDGE_LOOP ( 'NONE', ( #131, #196 ) ) ;
#38 = CARTESIAN_POINT ( 'NONE',  ( 0.0000000000000000000, 0.0000000000000000000, 0.0000000000000000000 ) ) ;
#39 =( CONVERSION_BASED_UNIT ( 'INCH', #17 ) LENGTH_UNIT ( ) NAMED_UNIT ( #105 ) );
#40 = EDGE_CURVE ( 'NONE', #181, #67, #36, .T. ) ;
#41 = DIRECTION ( 'NONE',  ( 1.000000000000000000, 0.0000000000000000000, 0.0000000000000000000 ) ) ;
#42 = VECTOR ( 'NONE', #54, 39.37007874015748143 ) ;
#43 = AXIS2_PLACEMENT_3D ( 'NONE', #154, #243, #218 ) ;
#44 = APPLICATION_PROTOCOL_DEFINITION ( 'draft international standard', 'automotive_design', 1998, #282 ) ;
#45 = CARTESIAN_POINT ( 'NONE',  ( 1.474662427518848307E-33, 0.0000000000000000000, 1.204153253448721512E-17 ) ) ;
#46 = PRODUCT_DEFINITION ( 'UNKNOWN', '', #87, #161 ) ;
#47 = CARTESIAN_POINT ( 'NONE',  ( 0.09832657499999998552, 1.204153253448721512E-17, 0.0000000000000000000 ) ) ;
#48 = EDGE_LOOP ( 'NONE', ( #113, #145, #101, #225 ) ) ;
#49 = VERTEX_POINT ( 'NONE', #292 ) ;
#50 = DIRECTION ( 'NONE',  ( 1.000000000000000000, 0.0000000000000000000, 0.0000000000000000000 ) ) ;
#51 = ORIENTED_EDGE ( 'NONE', *, *, #178, .F. ) ;
#52 = CARTESIAN_POINT ( 'NONE',  ( 0.0000000000000000000, 0.0000000000000000000, 0.0000000000000000000 ) ) ;
#53 = DIRECTION ( 'NONE',  ( -0.0000000000000000000, -0.0000000000000000000, -1.000000000000000000 ) ) ;
#54 = DIRECTION ( 'NONE',  ( -1.224646799147353207E-16, -0.0000000000000000000, -1.000000000000000000 ) ) ;
#55 = DIRECTION ( 'NONE',  ( 0.0000000000000000000, 0.0000000000000000000, -1.000000000000000000 ) ) ;
#56 = SURFACE_STYLE_FILL_AREA ( #81 ) ;
#57 = DIRECTION ( 'NONE',  ( 1.000000000000000000, 0.0000000000000000000, 0.0000000000000000000 ) ) ;
#58 = AXIS2_PLACEMENT_3D ( 'NONE', #52, #207, #259 ) ;
#59 = MECHANICAL_DESIGN_GEOMETRIC_PRESENTATION_REPRESENTATION (  '', ( #79 ), #136 ) ;
#60 = FACE_OUTER_BOUND ( 'NONE', #37, .T. ) ;
#61 = DIRECTION ( 'NONE',  ( -1.000000000000000000, 0.0000000000000000000, 0.0000000000000000000 ) ) ;
#62 = ORIENTED_EDGE ( 'NONE', *, *, #168, .T. ) ;
#63 = AXIS2_PLACEMENT_3D ( 'NONE', #192, #55, #61 ) ;
#64 = FACE_OUTER_BOUND ( 'NONE', #48, .T. ) ;
#65 = DIRECTION ( 'NONE',  ( 0.0000000000000000000, 0.0000000000000000000, 1.000000000000000000 ) ) ;
#66 = ORIENTED_EDGE ( 'NONE', *, *, #221, .T. ) ;
#67 = VERTEX_POINT ( 'NONE', #47 ) ;
#68 = STYLED_ITEM ( 'NONE', ( #283 ), #139 ) ;
#69 = CARTESIAN_POINT ( 'NONE',  ( 0.0000000000000000000, 0.0000000000000000000, 0.0000000000000000000 ) ) ;
#70 = VERTEX_POINT ( 'NONE', #270 ) ;
#71 = DIRECTION ( 'NONE',  ( 0.7071067811865486830, 8.659560562354947649E-17, -0.7071067811865462405 ) ) ;
#72 =( NAMED_UNIT ( * ) PLANE_ANGLE_UNIT ( ) SI_UNIT ( $, .RADIAN. ) );
#73 = ORIENTED_EDGE ( 'NONE', *, *, #133, .F. ) ;
#74 = ADVANCED_FACE ( 'NONE', ( #227 ), #247, .F. ) ;
#75 = UNCERTAINTY_MEASURE_WITH_UNIT (LENGTH_MEASURE( 1.000000000000000082E-05 ), #39, 'distance_accuracy_value', 'NONE');
#76 =( LENGTH_UNIT ( ) NAMED_UNIT ( * ) SI_UNIT ( $, .METRE. ) );
#77 = SURFACE_SIDE_STYLE ('',( #29 ) ) ;
#78 = AXIS2_PLACEMENT_3D ( 'NONE', #162, #258, #234 ) ;
#79 = STYLED_ITEM ( 'NONE', ( #82 ), #173 ) ;
#80 = DIRECTION ( 'NONE',  ( 1.224646799147353207E-16, 0.0000000000000000000, 1.000000000000000000 ) ) ;
#81 = FILL_AREA_STYLE ('',( #288 ) ) ;
#82 = PRESENTATION_STYLE_ASSIGNMENT (( #106 ) ) ;
#83 = EDGE_CURVE ( 'NONE', #94, #158, #16, .T. ) ;
#84 = FACE_OUTER_BOUND ( 'NONE', #137, .T. ) ;
#85 = CIRCLE ( 'NONE', #249, 0.09832657499999998552 ) ;
#86 = AXIS2_PLACEMENT_3D ( 'NONE', #268, #65, #19 ) ;
#87 = PRODUCT_DEFINITION_FORMATION_WITH_SPECIFIED_SOURCE ( 'ANY', '', #266, .NOT_KNOWN. ) ;
#88 = ORIENTED_EDGE ( 'NONE', *, *, #40, .T. ) ;
#89 = VECTOR ( 'NONE', #233, 39.37007874015748143 ) ;
#90 = ORIENTED_EDGE ( 'NONE', *, *, #108, .F. ) ;
#91 = FACE_OUTER_BOUND ( 'NONE', #203, .T. ) ;
#92 = EDGE_CURVE ( 'NONE', #158, #273, #134, .T. ) ;
#93 = ORIENTED_EDGE ( 'NONE', *, *, #221, .F. ) ;
#94 = VERTEX_POINT ( 'NONE', #2 ) ;
#95 = EDGE_CURVE ( 'NONE', #67, #181, #109, .T. ) ;
#96 = ORIENTED_EDGE ( 'NONE', *, *, #83, .F. ) ;
#97 = UNCERTAINTY_MEASURE_WITH_UNIT (LENGTH_MEASURE( 1.000000000000000082E-05 ), #12, 'distance_accuracy_value', 'NONE');
#98 = DIRECTION ( 'NONE',  ( -1.224646799147353207E-16, -0.0000000000000000000, -1.000000000000000000 ) ) ;
#99 = ORIENTED_EDGE ( 'NONE', *, *, #28, .T. ) ;
#100 =( NAMED_UNIT ( * ) SI_UNIT ( $, .STERADIAN. ) SOLID_ANGLE_UNIT ( ) );
#101 = ORIENTED_EDGE ( 'NONE', *, *, #40, .F. ) ;
#102 = ADVANCED_FACE ( 'NONE', ( #256 ), #237, .T. ) ;
#103 = CARTESIAN_POINT ( 'NONE',  ( 1.350004094801674599E-16, 0.0000000000000000000, 1.102362000000000064 ) ) ;
#104 = FACE_OUTER_BOUND ( 'NONE', #164, .T. ) ;
#105 = DIMENSIONAL_EXPONENTS ( 1.000000000000000000, 0.0000000000000000000, 0.0000000000000000000, 0.0000000000000000000, 0.0000000000000000000, 0.0000000000000000000, 0.0000000000000000000 ) ;
#106 = SURFACE_STYLE_USAGE ( .BOTH. , #10 ) ;
#107 = DIRECTION ( 'NONE',  ( 0.0000000000000000000, 0.0000000000000000000, 1.000000000000000000 ) ) ;
#108 = EDGE_CURVE ( 'NONE', #18, #269, #31, .T. ) ;
#109 = CIRCLE ( 'NONE', #216, 0.09832657499999998552 ) ;
#110 = EDGE_CURVE ( 'NONE', #70, #67, #148, .T. ) ;
#111 = EDGE_LOOP ( 'NONE', ( #299, #143, #93, #118 ) ) ;
#112 = DIRECTION ( 'NONE',  ( 0.0000000000000000000, 0.0000000000000000000, -1.000000000000000000 ) ) ;
#113 = ORIENTED_EDGE ( 'NONE', *, *, #226, .T. ) ;
#114 = PRODUCT_CONTEXT ( 'NONE', #170, 'mechanical' ) ;
#115 = ORIENTED_EDGE ( 'NONE', *, *, #110, .F. ) ;
#116 = ORIENTED_EDGE ( 'NONE', *, *, #95, .T. ) ;
#117 = CONICAL_SURFACE ( 'NONE', #280, 0.09832657499999998552, 0.1745329251994337805 ) ;
#118 = ORIENTED_EDGE ( 'NONE', *, *, #244, .F. ) ;
#119 = DIRECTION ( 'NONE',  ( -1.224646799147353207E-16, -0.0000000000000000000, -1.000000000000000000 ) ) ;
#120 = CARTESIAN_POINT ( 'NONE',  ( 1.487406255293943111E-16, 0.0000000000000000000, 1.214559378532270140 ) ) ;
#121 = DIRECTION ( 'NONE',  ( -1.000000000000000000, 0.0000000000000000000, 1.224646799147353207E-16 ) ) ;
#122 = ORIENTED_EDGE ( 'NONE', *, *, #168, .F. ) ;
#123 = CARTESIAN_POINT ( 'NONE',  ( 0.1031099999999991607, 1.354581824536882251E-17, 2.952755999999999936 ) ) ;
#124 = CARTESIAN_POINT ( 'NONE',  ( 0.09832657499999998552, 1.204153253448721512E-17, -1.204153253448721512E-17 ) ) ;
#125 = VECTOR ( 'NONE', #214, 39.37007874015748854 ) ;
#126 = COLOUR_RGB ( '',0.7921568627450980005, 0.8196078431372548767, 0.9333333333333333481 ) ;
#127 = PLANE ( 'NONE',  #13 ) ;
#128 = ADVANCED_FACE ( 'NONE', ( #142 ), #166, .T. ) ;
#129 = DIRECTION ( 'NONE',  ( -0.7071067811865486830, 0.0000000000000000000, -0.7071067811865462405 ) ) ;
#130 = AXIS2_PLACEMENT_3D ( 'NONE', #69, #160, #252 ) ;
#131 = ORIENTED_EDGE ( 'NONE', *, *, #83, .T. ) ;
#132 = DIRECTION ( 'NONE',  ( 0.0000000000000000000, 0.0000000000000000000, 1.000000000000000000 ) ) ;
#133 = EDGE_CURVE ( 'NONE', #49, #269, #277, .T. ) ;
#134 = LINE ( 'NONE', #253, #194 ) ;
#135 = AXIS2_PLACEMENT_3D ( 'NONE', #22, #213, #7 ) ;
#136 =( GEOMETRIC_REPRESENTATION_CONTEXT ( 3 ) GLOBAL_UNCERTAINTY_ASSIGNED_CONTEXT ( ( #75 ) ) GLOBAL_UNIT_ASSIGNED_CONTEXT ( ( #39, #271, #297 ) ) REPRESENTATION_CONTEXT ( 'NONE', 'WORKASPACE' ) );
#137 = EDGE_LOOP ( 'NONE', ( #122, #51, #141, #254 ) ) ;
#138 = CARTESIAN_POINT ( 'NONE',  ( 0.0000000000000000000, 0.0000000000000000000, 2.952755999999999936 ) ) ;
#139 = MANIFOLD_SOLID_BREP ( 'Cut-Revolve1', #206 ) ;
#140 = AXIS2_PLACEMENT_3D ( 'NONE', #217, #149, #265 ) ;
#141 = ORIENTED_EDGE ( 'NONE', *, *, #229, .T. ) ;
#142 = FACE_OUTER_BOUND ( 'NONE', #3, .T. ) ;
#143 = ORIENTED_EDGE ( 'NONE', *, *, #92, .T. ) ;
#144 = DIRECTION ( 'NONE',  ( -1.224646799147353207E-16, -0.0000000000000000000, -1.000000000000000000 ) ) ;
#145 = ORIENTED_EDGE ( 'NONE', *, *, #110, .T. ) ;
#146 = FILL_AREA_STYLE_COLOUR ( '', #245 ) ;
#147 = VECTOR ( 'NONE', #263, 39.37007874015748143 ) ;
#148 = LINE ( 'NONE', #124, #89 ) ;
#149 = DIRECTION ( 'NONE',  ( -0.0000000000000000000, -0.0000000000000000000, -1.000000000000000000 ) ) ;
#150 =( NAMED_UNIT ( * ) SI_UNIT ( $, .STERADIAN. ) SOLID_ANGLE_UNIT ( ) );
#151 = VECTOR ( 'NONE', #14, 39.37007874015748143 ) ;
#152 = CARTESIAN_POINT ( 'NONE',  ( 0.0000000000000000000, 0.0000000000000000000, 2.937755999999999368 ) ) ;
#153 = EDGE_CURVE ( 'NONE', #1, #181, #24, .T. ) ;
#154 = CARTESIAN_POINT ( 'NONE',  ( 0.0000000000000000000, 0.0000000000000000000, 2.937755999999999368 ) ) ;
#155 = AXIS2_PLACEMENT_3D ( 'NONE', #172, #80, #33 ) ;
#156 = ORIENTED_EDGE ( 'NONE', *, *, #28, .F. ) ;
#157 = CARTESIAN_POINT ( 'NONE',  ( -0.09832657499999986062, 1.325291793960830067E-17, 1.102362000000000064 ) ) ;
#158 = VERTEX_POINT ( 'NONE', #123 ) ;
#159 = CARTESIAN_POINT ( 'NONE',  ( 0.1181100000000000066, 1.446430334472939084E-17, 2.952755999999999936 ) ) ;
#160 = DIRECTION ( 'NONE',  ( -1.224646799147353207E-16, -0.0000000000000000000, -1.000000000000000000 ) ) ;
#161 = PRODUCT_DEFINITION_CONTEXT ( 'detailed design', #282, 'design' ) ;
#162 = CARTESIAN_POINT ( 'NONE',  ( 0.0000000000000000000, 0.0000000000000000000, 2.952755999999999936 ) ) ;
#163 = AXIS2_PLACEMENT_3D ( 'NONE', #103, #119, #204 ) ;
#164 = EDGE_LOOP ( 'NONE', ( #66, #99, #174, #73 ) ) ;
#165 = CARTESIAN_POINT ( 'NONE',  ( -0.09832657499999986062, 1.204153253448721512E-17, 1.102362000000000064 ) ) ;
#166 = CYLINDRICAL_SURFACE ( 'NONE', #78, 0.1181100000000000066 ) ;
#167 = CARTESIAN_POINT ( 'NONE',  ( 1.474662427518848307E-33, 0.0000000000000000000, 1.204153253448721512E-17 ) ) ;
#168 = EDGE_CURVE ( 'NONE', #1, #269, #231, .T. ) ;
#169 = APPLICATION_PROTOCOL_DEFINITION ( 'draft international standard', 'automotive_design', 1998, #170 ) ;
#170 = APPLICATION_CONTEXT ( 'automotive_design' ) ;
#171 = AXIS2_PLACEMENT_3D ( 'NONE', #295, #175, #41 ) ;
#172 = CARTESIAN_POINT ( 'NONE',  ( 1.350004094801674599E-16, 0.0000000000000000000, 1.102362000000000064 ) ) ;
#173 = ADVANCED_BREP_SHAPE_REPRESENTATION ( 'Micro_SFPM-050-60', ( #139, #86 ), #250 ) ;
#174 = ORIENTED_EDGE ( 'NONE', *, *, #193, .F. ) ;
#175 = DIRECTION ( 'NONE',  ( 0.0000000000000000000, 0.0000000000000000000, 1.000000000000000000 ) ) ;
#176 = EDGE_CURVE ( 'NONE', #158, #94, #264, .T. ) ;
#177 = CARTESIAN_POINT ( 'NONE',  ( 1.350004094801674599E-16, 0.0000000000000000000, 1.102362000000000064 ) ) ;
#178 = EDGE_CURVE ( 'NONE', #70, #1, #239, .T. ) ;
#179 = VECTOR ( 'NONE', #129, 39.37007874015748854 ) ;
#180 = ORIENTED_EDGE ( 'NONE', *, *, #226, .F. ) ;
#181 = VERTEX_POINT ( 'NONE', #182 ) ;
#182 = CARTESIAN_POINT ( 'NONE',  ( -0.09832657499999998552, 0.0000000000000000000, 2.408306506897443024E-17 ) ) ;
#183 = VECTOR ( 'NONE', #53, 39.37007874015748143 ) ;
#184 = ORIENTED_EDGE ( 'NONE', *, *, #208, .T. ) ;
#185 = PRODUCT_RELATED_PRODUCT_CATEGORY ( 'part', '', ( #266 ) ) ;
#186 = CARTESIAN_POINT ( 'NONE',  ( -0.1181100000000000066, 0.0000000000000000000, 2.952755999999999936 ) ) ;
#187 = DIRECTION ( 'NONE',  ( -1.224646799147353207E-16, -0.0000000000000000000, -1.000000000000000000 ) ) ;
#188 = DIMENSIONAL_EXPONENTS ( 1.000000000000000000, 0.0000000000000000000, 0.0000000000000000000, 0.0000000000000000000, 0.0000000000000000000, 0.0000000000000000000, 0.0000000000000000000 ) ;
#189 = CYLINDRICAL_SURFACE ( 'NONE', #140, 0.1181100000000000066 ) ;
#190 = CONICAL_SURFACE ( 'NONE', #63, 0.1031099999999991607, 0.7853981633974500554 ) ;
#191 = CARTESIAN_POINT ( 'NONE',  ( 0.0000000000000000000, 0.0000000000000000000, 2.952755999999999936 ) ) ;
#192 = CARTESIAN_POINT ( 'NONE',  ( 0.0000000000000000000, 0.0000000000000000000, 2.952755999999999936 ) ) ;
#193 = EDGE_CURVE ( 'NONE', #269, #18, #197, .T. ) ;
#194 = VECTOR ( 'NONE', #71, 39.37007874015748854 ) ;
#195 = PRODUCT_DEFINITION_SHAPE ( 'NONE', 'NONE',  #46 ) ;
#196 = ORIENTED_EDGE ( 'NONE', *, *, #176, .T. ) ;
#197 = CIRCLE ( 'NONE', #274, 0.1181100000000000066 ) ;
#198 = DIRECTION ( 'NONE',  ( 1.000000000000000000, 0.0000000000000000000, -0.0000000000000000000 ) ) ;
#199 = SHAPE_DEFINITION_REPRESENTATION ( #195, #173 ) ;
#200 = ORIENTED_EDGE ( 'NONE', *, *, #208, .F. ) ;
#201 = ORIENTED_EDGE ( 'NONE', *, *, #133, .T. ) ;
#202 = AXIS2_PLACEMENT_3D ( 'NONE', #138, #112, #222 ) ;
#203 = EDGE_LOOP ( 'NONE', ( #180, #62, #228, #212 ) ) ;
#204 = DIRECTION ( 'NONE',  ( -1.000000000000000000, 0.0000000000000000000, 0.0000000000000000000 ) ) ;
#205 = ORIENTED_EDGE ( 'NONE', *, *, #95, .F. ) ;
#206 = CLOSED_SHELL ( 'NONE', ( #34, #9, #278, #284, #128, #240, #6, #275, #102, #74 ) ) ;
#207 = DIRECTION ( 'NONE',  ( -1.224646799147353207E-16, -0.0000000000000000000, -1.000000000000000000 ) ) ;
#208 = EDGE_CURVE ( 'NONE', #273, #49, #4, .T. ) ;
#209 =( CONVERSION_BASED_UNIT ( 'INCH', #8 ) LENGTH_UNIT ( ) NAMED_UNIT ( #188 ) );
#210 = AXIS2_PLACEMENT_3D ( 'NONE', #152, #241, #57 ) ;
#211 = CONICAL_SURFACE ( 'NONE', #202, 0.1031099999999991607, 0.7853981633974500554 ) ;
#212 = ORIENTED_EDGE ( 'NONE', *, *, #229, .F. ) ;
#213 = DIRECTION ( 'NONE',  ( 0.0000000000000000000, 0.0000000000000000000, 1.000000000000000000 ) ) ;
#214 = DIRECTION ( 'NONE',  ( -0.1736481776669310528, 2.126576849575781776E-17, 0.9848077530122080203 ) ) ;
#215 = DIRECTION ( 'NONE',  ( 1.000000000000000000, 0.0000000000000000000, -0.0000000000000000000 ) ) ;
#216 = AXIS2_PLACEMENT_3D ( 'NONE', #167, #187, #121 ) ;
#217 = CARTESIAN_POINT ( 'NONE',  ( 0.0000000000000000000, 0.0000000000000000000, 2.952755999999999936 ) ) ;
#218 = DIRECTION ( 'NONE',  ( 1.000000000000000000, 0.0000000000000000000, 0.0000000000000000000 ) ) ;
#219 =( LENGTH_UNIT ( ) NAMED_UNIT ( * ) SI_UNIT ( $, .METRE. ) );
#220 = CARTESIAN_POINT ( 'NONE',  ( -0.1181099999999998540, 0.0000000000000000000, 1.214559378532270140 ) ) ;
#221 = EDGE_CURVE ( 'NONE', #49, #273, #230, .T. ) ;
#222 = DIRECTION ( 'NONE',  ( -1.000000000000000000, 0.0000000000000000000, 0.0000000000000000000 ) ) ;
#223 = DIRECTION ( 'NONE',  ( -1.224646799147353207E-16, -0.0000000000000000000, -1.000000000000000000 ) ) ;
#224 = EDGE_LOOP ( 'NONE', ( #115, #21, #23, #205 ) ) ;
#225 = ORIENTED_EDGE ( 'NONE', *, *, #153, .F. ) ;
#226 = EDGE_CURVE ( 'NONE', #1, #70, #85, .T. ) ;
#227 = FACE_OUTER_BOUND ( 'NONE', #232, .T. ) ;
#228 = ORIENTED_EDGE ( 'NONE', *, *, #193, .T. ) ;
#229 = EDGE_CURVE ( 'NONE', #70, #18, #290, .T. ) ;
#230 = CIRCLE ( 'NONE', #210, 0.1181100000000000066 ) ;
#231 = LINE ( 'NONE', #165, #125 ) ;
#232 = EDGE_LOOP ( 'NONE', ( #88, #116 ) ) ;
#233 = DIRECTION ( 'NONE',  ( -1.224646799147353207E-16, -0.0000000000000000000, -1.000000000000000000 ) ) ;
#234 = DIRECTION ( 'NONE',  ( -1.000000000000000000, 0.0000000000000000000, 0.0000000000000000000 ) ) ;
#235 = AXIS2_PLACEMENT_3D ( 'NONE', #25, #144, #50 ) ;
#236 = UNCERTAINTY_MEASURE_WITH_UNIT (LENGTH_MEASURE( 1.000000000000000082E-05 ), #209, 'distance_accuracy_value', 'NONE');
#237 = CYLINDRICAL_SURFACE ( 'NONE', #58, 0.09832657499999998552 ) ;
#238 = CARTESIAN_POINT ( 'NONE',  ( 1.350004094801674599E-16, 0.0000000000000000000, 1.102362000000000064 ) ) ;
#239 = CIRCLE ( 'NONE', #163, 0.09832657499999998552 ) ;
#240 = ADVANCED_FACE ( 'NONE', ( #60 ), #127, .T. ) ;
#241 = DIRECTION ( 'NONE',  ( 0.0000000000000000000, 0.0000000000000000000, -1.000000000000000000 ) ) ;
#242 = CARTESIAN_POINT ( 'NONE',  ( -0.1031099999999991607, 0.0000000000000000000, 2.952755999999999936 ) ) ;
#243 = DIRECTION ( 'NONE',  ( 0.0000000000000000000, 0.0000000000000000000, -1.000000000000000000 ) ) ;
#244 = EDGE_CURVE ( 'NONE', #94, #49, #267, .T. ) ;
#245 = COLOUR_RGB ( '',0.7921568627450980005, 0.8196078431372548767, 0.9333333333333333481 ) ;
#246 = FACE_OUTER_BOUND ( 'NONE', #20, .T. ) ;
#247 = PLANE ( 'NONE',  #26 ) ;
#248 = DIRECTION ( 'NONE',  ( 1.000000000000000000, 0.0000000000000000000, 0.0000000000000000000 ) ) ;
#249 = AXIS2_PLACEMENT_3D ( 'NONE', #238, #35, #11 ) ;
#250 =( GEOMETRIC_REPRESENTATION_CONTEXT ( 3 ) GLOBAL_UNCERTAINTY_ASSIGNED_CONTEXT ( ( #97 ) ) GLOBAL_UNIT_ASSIGNED_CONTEXT ( ( #12, #261, #150 ) ) REPRESENTATION_CONTEXT ( 'NONE', 'WORKASPACE' ) );
#251 = CYLINDRICAL_SURFACE ( 'NONE', #130, 0.09832657499999998552 ) ;
#252 = DIRECTION ( 'NONE',  ( -1.000000000000000000, 0.0000000000000000000, 1.224646799147353207E-16 ) ) ;
#253 = CARTESIAN_POINT ( 'NONE',  ( 0.1031099999999991607, 1.262733314600825571E-17, 2.952755999999999936 ) ) ;
#254 = ORIENTED_EDGE ( 'NONE', *, *, #108, .T. ) ;
#255 =( GEOMETRIC_REPRESENTATION_CONTEXT ( 3 ) GLOBAL_UNCERTAINTY_ASSIGNED_CONTEXT ( ( #236 ) ) GLOBAL_UNIT_ASSIGNED_CONTEXT ( ( #209, #72, #100 ) ) REPRESENTATION_CONTEXT ( 'NONE', 'WORKASPACE' ) );
#256 = FACE_OUTER_BOUND ( 'NONE', #224, .T. ) ;
#257 = DIRECTION ( 'NONE',  ( 1.000000000000000000, 0.0000000000000000000, 0.0000000000000000000 ) ) ;
#258 = DIRECTION ( 'NONE',  ( -0.0000000000000000000, -0.0000000000000000000, -1.000000000000000000 ) ) ;
#259 = DIRECTION ( 'NONE',  ( -1.000000000000000000, 0.0000000000000000000, 1.224646799147353207E-16 ) ) ;
#260 = CONICAL_SURFACE ( 'NONE', #155, 0.09832657499999998552, 0.1745329251994337805 ) ;
#261 =( NAMED_UNIT ( * ) PLANE_ANGLE_UNIT ( ) SI_UNIT ( $, .RADIAN. ) );
#262 = FACE_OUTER_BOUND ( 'NONE', #111, .T. ) ;
#263 = DIRECTION ( 'NONE',  ( 0.1736481776669312749, 0.0000000000000000000, 0.9848077530122077983 ) ) ;
#264 = CIRCLE ( 'NONE', #135, 0.1031099999999991607 ) ;
#265 = DIRECTION ( 'NONE',  ( -1.000000000000000000, 0.0000000000000000000, 0.0000000000000000000 ) ) ;
#266 = PRODUCT ( 'Micro_SFPM-050-60', 'Micro_SFPM-050-60', '', ( #114 ) ) ;
#267 = LINE ( 'NONE', #242, #179 ) ;
#268 = CARTESIAN_POINT ( 'NONE',  ( 0.0000000000000000000, 0.0000000000000000000, 0.0000000000000000000 ) ) ;
#269 = VERTEX_POINT ( 'NONE', #220 ) ;
#270 = CARTESIAN_POINT ( 'NONE',  ( 0.09832657500000012429, 0.0000000000000000000, 1.102362000000000064 ) ) ;
#271 =( NAMED_UNIT ( * ) PLANE_ANGLE_UNIT ( ) SI_UNIT ( $, .RADIAN. ) );
#272 = DIRECTION ( 'NONE',  ( -1.000000000000000000, 0.0000000000000000000, 1.224646799147353207E-16 ) ) ;
#273 = VERTEX_POINT ( 'NONE', #30 ) ;
#274 = AXIS2_PLACEMENT_3D ( 'NONE', #120, #98, #257 ) ;
#275 = ADVANCED_FACE ( 'NONE', ( #84 ), #260, .T. ) ;
#276 = LINE ( 'NONE', #159, #151 ) ;
#277 = LINE ( 'NONE', #186, #183 ) ;
#278 = ADVANCED_FACE ( 'NONE', ( #262 ), #190, .T. ) ;
#279 = SURFACE_STYLE_USAGE ( .BOTH. , #77 ) ;
#280 = AXIS2_PLACEMENT_3D ( 'NONE', #177, #296, #248 ) ;
#281 = PRESENTATION_LAYER_ASSIGNMENT (  '', '', ( #79 ) ) ;
#282 = APPLICATION_CONTEXT ( 'automotive_design' ) ;
#283 = PRESENTATION_STYLE_ASSIGNMENT (( #279 ) ) ;
#284 = ADVANCED_FACE ( 'NONE', ( #104 ), #189, .T. ) ;
#285 = FILL_AREA_STYLE ('',( #146 ) ) ;
#286 = DIMENSIONAL_EXPONENTS ( 1.000000000000000000, 0.0000000000000000000, 0.0000000000000000000, 0.0000000000000000000, 0.0000000000000000000, 0.0000000000000000000, 0.0000000000000000000 ) ;
#287 = PRESENTATION_LAYER_ASSIGNMENT (  '', '', ( #68 ) ) ;
#288 = FILL_AREA_STYLE_COLOUR ( '', #126 ) ;
#289 = LENGTH_MEASURE_WITH_UNIT ( LENGTH_MEASURE( 0.02539999999999999897 ), #219 );
#290 = LINE ( 'NONE', #32, #147 ) ;
#291 = AXIS2_PLACEMENT_3D ( 'NONE', #45, #223, #272 ) ;
#292 = CARTESIAN_POINT ( 'NONE',  ( -0.1181100000000000066, 0.0000000000000000000, 2.937755999999999368 ) ) ;
#293 = MECHANICAL_DESIGN_GEOMETRIC_PRESENTATION_REPRESENTATION (  '', ( #68 ), #255 ) ;
#294 =( LENGTH_UNIT ( ) NAMED_UNIT ( * ) SI_UNIT ( $, .METRE. ) );
#295 = CARTESIAN_POINT ( 'NONE',  ( 0.0000000000000000000, 0.0000000000000000000, 2.952755999999999936 ) ) ;
#296 = DIRECTION ( 'NONE',  ( 1.224646799147353207E-16, 0.0000000000000000000, 1.000000000000000000 ) ) ;
#297 =( NAMED_UNIT ( * ) SI_UNIT ( $, .STERADIAN. ) SOLID_ANGLE_UNIT ( ) );
#298 = CARTESIAN_POINT ( 'NONE',  ( 0.1181100000000001593, 1.446430334472940933E-17, 1.214559378532270140 ) ) ;
#299 = ORIENTED_EDGE ( 'NONE', *, *, #176, .F. ) ;
ENDSEC;
END-ISO-10303-21;
