ISO-10303-21;
HEADER;
FILE_DESCRIPTION (( 'STEP AP214' ),
    '1' );
FILE_NAME ('49041.STEP',
    '2023-06-30T21:56:01',
    ( '' ),
    ( '' ),
    'SwSTEP 2.0',
    'SolidWorks 2023',
    '' );
FILE_SCHEMA (( 'AUTOMOTIVE_DESIGN' ));
ENDSEC;

DATA;
#1 =( NAMED_UNIT ( * ) SI_UNIT ( $, .STERADIAN. ) SOLID_ANGLE_UNIT ( ) );
#2 =( NAMED_UNIT ( * ) SI_UNIT ( $, .STERADIAN. ) SOLID_ANGLE_UNIT ( ) );
#3 = DIRECTION ( 'NONE',  ( 1.224646799147352961E-16, -1.000000000000000000, 0.000000000000000000 ) ) ;
#4 = DIRECTION ( 'NONE',  ( -1.000000000000000000, 0.000000000000000000, 0.000000000000000000 ) ) ;
#5 = MECHANICAL_DESIGN_GEOMETRIC_PRESENTATION_REPRESENTATION (  '', ( #157 ), #267 ) ;
#6 =( GEOMETRIC_REPRESENTATION_CONTEXT ( 3 ) GLOBAL_UNCERTAINTY_ASSIGNED_CONTEXT ( ( #19 ) ) GLOBAL_UNIT_ASSIGNED_CONTEXT ( ( #327, #40, #2 ) ) REPRESENTATION_CONTEXT ( 'NONE', 'WORKASPACE' ) );
#7 = CARTESIAN_POINT ( 'NONE',  ( 0.000000000000000000, 0.000000000000000000, 0.000000000000000000 ) ) ;
#8 = ORIENTED_EDGE ( 'NONE', *, *, #22, .T. ) ;
#9 = SURFACE_SIDE_STYLE ('',( #321 ) ) ;
#10 = SPHERICAL_SURFACE ( 'NONE', #162, 0.06249999999999997918 ) ;
#11 = AXIS2_PLACEMENT_3D ( 'NONE', #242, #130, #181 ) ;
#12 = AXIS2_PLACEMENT_3D ( 'NONE', #49, #311, #170 ) ;
#13 = DIRECTION ( 'NONE',  ( -0.000000000000000000, -1.000000000000000000, -0.000000000000000000 ) ) ;
#14 = ORIENTED_EDGE ( 'NONE', *, *, #96, .F. ) ;
#15 = DIRECTION ( 'NONE',  ( -1.224646799147352961E-16, 1.000000000000000000, -0.000000000000000000 ) ) ;
#16 = ORIENTED_EDGE ( 'NONE', *, *, #153, .T. ) ;
#17 =( GEOMETRIC_REPRESENTATION_CONTEXT ( 3 ) GLOBAL_UNCERTAINTY_ASSIGNED_CONTEXT ( ( #278 ) ) GLOBAL_UNIT_ASSIGNED_CONTEXT ( ( #337, #324, #126 ) ) REPRESENTATION_CONTEXT ( 'NONE', 'WORKASPACE' ) );
#18 = CARTESIAN_POINT ( 'NONE',  ( 7.654042494670949841E-18, 0.5000000000000000000, 0.06249999999999993755 ) ) ;
#19 = UNCERTAINTY_MEASURE_WITH_UNIT (LENGTH_MEASURE( 1.000000000000000082E-05 ), #327, 'distance_accuracy_value', 'NONE');
#20 = ADVANCED_FACE ( 'NONE', ( #268 ), #331, .T. ) ;
#21 = CYLINDRICAL_SURFACE ( 'NONE', #144, 0.06249999999999988204 ) ;
#22 = EDGE_CURVE ( 'NONE', #42, #209, #94, .T. ) ;
#23 =( CONVERSION_BASED_UNIT ( 'INCH', #141 ) LENGTH_UNIT ( ) NAMED_UNIT ( #51 ) );
#24 = COLOUR_RGB ( '',1.000000000000000000, 0.000000000000000000, 0.000000000000000000 ) ;
#25 = AXIS2_PLACEMENT_3D ( 'NONE', #73, #317, #34 ) ;
#26 = SURFACE_STYLE_USAGE ( .BOTH. , #280 ) ;
#27 = SURFACE_SIDE_STYLE ('',( #146 ) ) ;
#28 = ORIENTED_EDGE ( 'NONE', *, *, #62, .F. ) ;
#29 = EDGE_CURVE ( 'NONE', #221, #339, #124, .T. ) ;
#30 =( LENGTH_UNIT ( ) NAMED_UNIT ( * ) SI_UNIT ( $, .METRE. ) );
#31 = PLANE ( 'NONE',  #33 ) ;
#32 = FACE_OUTER_BOUND ( 'NONE', #227, .T. ) ;
#33 = AXIS2_PLACEMENT_3D ( 'NONE', #137, #312, #252 ) ;
#34 = DIRECTION ( 'NONE',  ( 1.000000000000000000, 0.000000000000000000, -1.224646799147353454E-16 ) ) ;
#35 =( NAMED_UNIT ( * ) PLANE_ANGLE_UNIT ( ) SI_UNIT ( $, .RADIAN. ) );
#36 = PRESENTATION_LAYER_ASSIGNMENT (  '', '', ( #157 ) ) ;
#37 = FILL_AREA_STYLE ('',( #290 ) ) ;
#38 = DIRECTION ( 'NONE',  ( 0.000000000000000000, 0.000000000000000000, -1.000000000000000000 ) ) ;
#39 = PRESENTATION_STYLE_ASSIGNMENT (( #351 ) ) ;
#40 =( NAMED_UNIT ( * ) PLANE_ANGLE_UNIT ( ) SI_UNIT ( $, .RADIAN. ) );
#41 = CIRCLE ( 'NONE', #352, 0.06249999999999995143 ) ;
#42 = VERTEX_POINT ( 'NONE', #156 ) ;
#43 = APPLICATION_CONTEXT ( 'automotive_design' ) ;
#44 = PRODUCT_DEFINITION_CONTEXT ( 'detailed design', #61, 'design' ) ;
#45 = AXIS2_PLACEMENT_3D ( 'NONE', #241, #297, #159 ) ;
#46 = EDGE_CURVE ( 'NONE', #350, #71, #273, .T. ) ;
#47 = FACE_OUTER_BOUND ( 'NONE', #366, .T. ) ;
#48 = ADVANCED_FACE ( 'NONE', ( #185 ), #301, .F. ) ;
#49 = CARTESIAN_POINT ( 'NONE',  ( 0.000000000000000000, 0.5000000000000000000, 0.000000000000000000 ) ) ;
#50 = FILL_AREA_STYLE_COLOUR ( '', #24 ) ;
#51 = DIMENSIONAL_EXPONENTS ( 1.000000000000000000, 0.000000000000000000, 0.000000000000000000, 0.000000000000000000, 0.000000000000000000, 0.000000000000000000, 0.000000000000000000 ) ;
#52 = FILL_AREA_STYLE ('',( #342 ) ) ;
#53 = SURFACE_STYLE_FILL_AREA ( #136 ) ;
#54 = DIRECTION ( 'NONE',  ( 1.000000000000000000, 0.000000000000000000, 0.000000000000000000 ) ) ;
#55 = ORIENTED_EDGE ( 'NONE', *, *, #29, .T. ) ;
#56 = DIRECTION ( 'NONE',  ( 0.000000000000000000, 0.000000000000000000, -1.000000000000000000 ) ) ;
#57 = DIRECTION ( 'NONE',  ( -1.000000000000000000, 0.000000000000000000, 0.000000000000000000 ) ) ;
#58 = AXIS2_PLACEMENT_3D ( 'NONE', #83, #282, #54 ) ;
#59 = DIMENSIONAL_EXPONENTS ( 1.000000000000000000, 0.000000000000000000, 0.000000000000000000, 0.000000000000000000, 0.000000000000000000, 0.000000000000000000, 0.000000000000000000 ) ;
#60 =( CONVERSION_BASED_UNIT ( 'INCH', #98 ) LENGTH_UNIT ( ) NAMED_UNIT ( #203 ) );
#61 = APPLICATION_CONTEXT ( 'automotive_design' ) ;
#62 = EDGE_CURVE ( 'NONE', #71, #221, #303, .T. ) ;
#63 = PRESENTATION_STYLE_ASSIGNMENT (( #232 ) ) ;
#64 = ORIENTED_EDGE ( 'NONE', *, *, #22, .F. ) ;
#65 =( NAMED_UNIT ( * ) SI_UNIT ( $, .STERADIAN. ) SOLID_ANGLE_UNIT ( ) );
#66 = PRESENTATION_LAYER_ASSIGNMENT (  '', '', ( #224 ) ) ;
#67 = AXIS2_PLACEMENT_3D ( 'NONE', #244, #81, #355 ) ;
#68 = ORIENTED_EDGE ( 'NONE', *, *, #91, .F. ) ;
#69 = DIRECTION ( 'NONE',  ( 1.000000000000000000, 1.224646799147352961E-16, 0.000000000000000000 ) ) ;
#70 =( LENGTH_UNIT ( ) NAMED_UNIT ( * ) SI_UNIT ( $, .METRE. ) );
#71 = VERTEX_POINT ( 'NONE', #272 ) ;
#72 = SURFACE_STYLE_FILL_AREA ( #37 ) ;
#73 = CARTESIAN_POINT ( 'NONE',  ( -7.654042494670957545E-18, 0.06250000000000001388, 0.000000000000000000 ) ) ;
#74 = EDGE_LOOP ( 'NONE', ( #294, #349, #64, #180, #120 ) ) ;
#75 = SURFACE_STYLE_USAGE ( .BOTH. , #329 ) ;
#76 = VERTEX_POINT ( 'NONE', #18 ) ;
#77 = CARTESIAN_POINT ( 'NONE',  ( -3.827021247335479543E-18, 3.414809992080329023E-17, 0.000000000000000000 ) ) ;
#78 = DIRECTION ( 'NONE',  ( -1.000000000000000000, 0.000000000000000000, 0.000000000000000000 ) ) ;
#79 =( CONVERSION_BASED_UNIT ( 'INCH', #213 ) LENGTH_UNIT ( ) NAMED_UNIT ( #85 ) );
#80 = DIRECTION ( 'NONE',  ( -0.000000000000000000, -1.000000000000000000, -0.000000000000000000 ) ) ;
#81 = DIRECTION ( 'NONE',  ( -0.000000000000000000, -1.000000000000000000, -0.000000000000000000 ) ) ;
#82 =( LENGTH_UNIT ( ) NAMED_UNIT ( * ) SI_UNIT ( $, .METRE. ) );
#83 = CARTESIAN_POINT ( 'NONE',  ( -7.654042494670957545E-18, 0.06250000000000001388, 0.000000000000000000 ) ) ;
#84 = UNCERTAINTY_MEASURE_WITH_UNIT (LENGTH_MEASURE( 1.000000000000000082E-05 ), #60, 'distance_accuracy_value', 'NONE');
#85 = DIMENSIONAL_EXPONENTS ( 1.000000000000000000, 0.000000000000000000, 0.000000000000000000, 0.000000000000000000, 0.000000000000000000, 0.000000000000000000, 0.000000000000000000 ) ;
#86 =( NAMED_UNIT ( * ) PLANE_ANGLE_UNIT ( ) SI_UNIT ( $, .RADIAN. ) );
#87 = ORIENTED_EDGE ( 'NONE', *, *, #62, .T. ) ;
#88 = DIRECTION ( 'NONE',  ( -1.224646799147352961E-16, 1.000000000000000000, -0.000000000000000000 ) ) ;
#89 = EDGE_LOOP ( 'NONE', ( #261, #55 ) ) ;
#90 = DIRECTION ( 'NONE',  ( 1.000000000000000000, 0.000000000000000000, 0.000000000000000000 ) ) ;
#91 = EDGE_CURVE ( 'NONE', #209, #103, #255, .T. ) ;
#92 = CARTESIAN_POINT ( 'NONE',  ( 7.654042494670951382E-18, 0.000000000000000000, 0.06249999999999995143 ) ) ;
#93 =( LENGTH_UNIT ( ) NAMED_UNIT ( * ) SI_UNIT ( $, .METRE. ) );
#94 = CIRCLE ( 'NONE', #11, 0.06249999999999995143 ) ;
#95 = LENGTH_MEASURE_WITH_UNIT ( LENGTH_MEASURE( 0.02539999999999999897 ), #288 );
#96 = EDGE_CURVE ( 'NONE', #71, #350, #108, .T. ) ;
#97 = EDGE_LOOP ( 'NONE', ( #270, #214, #175, #8 ) ) ;
#98 = LENGTH_MEASURE_WITH_UNIT ( LENGTH_MEASURE( 0.02539999999999999897 ), #93 );
#99 = VECTOR ( 'NONE', #335, 39.37007874015748143 ) ;
#100 = ORIENTED_EDGE ( 'NONE', *, *, #29, .F. ) ;
#101 = FACE_OUTER_BOUND ( 'NONE', #105, .T. ) ;
#102 = SHAPE_DEFINITION_REPRESENTATION ( #145, #148 ) ;
#103 = VERTEX_POINT ( 'NONE', #358 ) ;
#104 = CIRCLE ( 'NONE', #117, 0.06249999999999993755 ) ;
#105 = EDGE_LOOP ( 'NONE', ( #284, #251, #253, #235, #68 ) ) ;
#106 =( NAMED_UNIT ( * ) SI_UNIT ( $, .STERADIAN. ) SOLID_ANGLE_UNIT ( ) );
#107 = LINE ( 'NONE', #240, #319 ) ;
#108 = CIRCLE ( 'NONE', #196, 0.06249999999999975020 ) ;
#109 =( GEOMETRIC_REPRESENTATION_CONTEXT ( 3 ) GLOBAL_UNCERTAINTY_ASSIGNED_CONTEXT ( ( #186 ) ) GLOBAL_UNIT_ASSIGNED_CONTEXT ( ( #23, #86, #1 ) ) REPRESENTATION_CONTEXT ( 'NONE', 'WORKASPACE' ) );
#110 = CARTESIAN_POINT ( 'NONE',  ( 0.000000000000000000, 0.06250000000000001388, 0.000000000000000000 ) ) ;
#111 = DIRECTION ( 'NONE',  ( -0.000000000000000000, -1.000000000000000000, -0.000000000000000000 ) ) ;
#112 = DIRECTION ( 'NONE',  ( -1.224646799147352961E-16, 1.000000000000000000, 0.000000000000000000 ) ) ;
#113 = SURFACE_SIDE_STYLE ('',( #197 ) ) ;
#114 = ORIENTED_EDGE ( 'NONE', *, *, #313, .F. ) ;
#115 = EDGE_LOOP ( 'NONE', ( #314, #142, #151, #369 ) ) ;
#116 = STYLED_ITEM ( 'NONE', ( #139 ), #230 ) ;
#117 = AXIS2_PLACEMENT_3D ( 'NONE', #160, #293, #38 ) ;
#118 = STYLED_ITEM ( 'NONE', ( #279 ), #295 ) ;
#119 = LENGTH_MEASURE_WITH_UNIT ( LENGTH_MEASURE( 0.02539999999999999897 ), #247 );
#120 = ORIENTED_EDGE ( 'NONE', *, *, #326, .F. ) ;
#121 =( NAMED_UNIT ( * ) SI_UNIT ( $, .STERADIAN. ) SOLID_ANGLE_UNIT ( ) );
#122 = CARTESIAN_POINT ( 'NONE',  ( -0.06250000000000005551, 2.500000000000000000, 0.000000000000000000 ) ) ;
#123 = SURFACE_SIDE_STYLE ('',( #72 ) ) ;
#124 = CIRCLE ( 'NONE', #45, 0.06250000000000000000 ) ;
#125 = DIRECTION ( 'NONE',  ( -0.000000000000000000, -1.000000000000000000, -0.000000000000000000 ) ) ;
#126 =( NAMED_UNIT ( * ) SI_UNIT ( $, .STERADIAN. ) SOLID_ANGLE_UNIT ( ) );
#127 = AXIS2_PLACEMENT_3D ( 'NONE', #131, #88, #57 ) ;
#128 =( GEOMETRIC_REPRESENTATION_CONTEXT ( 3 ) GLOBAL_UNCERTAINTY_ASSIGNED_CONTEXT ( ( #84 ) ) GLOBAL_UNIT_ASSIGNED_CONTEXT ( ( #60, #35, #106 ) ) REPRESENTATION_CONTEXT ( 'NONE', 'WORKASPACE' ) );
#129 = PRODUCT_DEFINITION ( 'UNKNOWN', '', #163, #44 ) ;
#130 = DIRECTION ( 'NONE',  ( -0.000000000000000000, -1.000000000000000000, -0.000000000000000000 ) ) ;
#131 = CARTESIAN_POINT ( 'NONE',  ( -6.123233995736766036E-17, 2.500000000000000000, 0.000000000000000000 ) ) ;
#132 = CARTESIAN_POINT ( 'NONE',  ( 0.000000000000000000, 0.000000000000000000, 0.000000000000000000 ) ) ;
#133 = DIRECTION ( 'NONE',  ( -1.224646799147352961E-16, 1.000000000000000000, -0.000000000000000000 ) ) ;
#134 =( LENGTH_UNIT ( ) NAMED_UNIT ( * ) SI_UNIT ( $, .METRE. ) );
#135 = PRESENTATION_LAYER_ASSIGNMENT (  '', '', ( #347 ) ) ;
#136 = FILL_AREA_STYLE ('',( #256 ) ) ;
#137 = CARTESIAN_POINT ( 'NONE',  ( 0.000000000000000000, 0.5000000000000000000, 0.000000000000000000 ) ) ;
#138 =( GEOMETRIC_REPRESENTATION_CONTEXT ( 3 ) GLOBAL_UNCERTAINTY_ASSIGNED_CONTEXT ( ( #310 ) ) GLOBAL_UNIT_ASSIGNED_CONTEXT ( ( #192, #308, #228 ) ) REPRESENTATION_CONTEXT ( 'NONE', 'WORKASPACE' ) );
#139 = PRESENTATION_STYLE_ASSIGNMENT (( #26 ) ) ;
#140 = ORIENTED_EDGE ( 'NONE', *, *, #46, .F. ) ;
#141 = LENGTH_MEASURE_WITH_UNIT ( LENGTH_MEASURE( 0.02539999999999999897 ), #30 );
#142 = ORIENTED_EDGE ( 'NONE', *, *, #325, .T. ) ;
#143 = CIRCLE ( 'NONE', #238, 0.06249999999999997918 ) ;
#144 = AXIS2_PLACEMENT_3D ( 'NONE', #246, #359, #336 ) ;
#145 = PRODUCT_DEFINITION_SHAPE ( 'NONE', 'NONE',  #129 ) ;
#146 = SURFACE_STYLE_FILL_AREA ( #368 ) ;
#147 = DIMENSIONAL_EXPONENTS ( 1.000000000000000000, 0.000000000000000000, 0.000000000000000000, 0.000000000000000000, 0.000000000000000000, 0.000000000000000000, 0.000000000000000000 ) ;
#148 = ADVANCED_BREP_SHAPE_REPRESENTATION ( '49041', ( #300, #295, #323 ), #6 ) ;
#149 = CARTESIAN_POINT ( 'NONE',  ( -7.654042494670957545E-18, 0.06250000000000001388, 0.000000000000000000 ) ) ;
#150 = UNCERTAINTY_MEASURE_WITH_UNIT (LENGTH_MEASURE( 1.000000000000000082E-05 ), #79, 'distance_accuracy_value', 'NONE');
#151 = ORIENTED_EDGE ( 'NONE', *, *, #296, .T. ) ;
#152 = VERTEX_POINT ( 'NONE', #77 ) ;
#153 = EDGE_CURVE ( 'NONE', #350, #339, #107, .T. ) ;
#154 = CYLINDRICAL_SURFACE ( 'NONE', #371, 0.06249999999999995143 ) ;
#155 = APPLICATION_PROTOCOL_DEFINITION ( 'draft international standard', 'automotive_design', 1998, #61 ) ;
#156 = CARTESIAN_POINT ( 'NONE',  ( 0.06249999999999996531, 0.06250000000000001388, 0.000000000000000000 ) ) ;
#157 = STYLED_ITEM ( 'NONE', ( #219 ), #218 ) ;
#158 = CARTESIAN_POINT ( 'NONE',  ( 0.000000000000000000, 0.06250000000000001388, 0.000000000000000000 ) ) ;
#159 = DIRECTION ( 'NONE',  ( -1.000000000000000000, 0.000000000000000000, 0.000000000000000000 ) ) ;
#160 = CARTESIAN_POINT ( 'NONE',  ( 0.000000000000000000, 0.5000000000000000000, 0.000000000000000000 ) ) ;
#161 = SURFACE_STYLE_FILL_AREA ( #210 ) ;
#162 = AXIS2_PLACEMENT_3D ( 'NONE', #257, #265, #207 ) ;
#163 = PRODUCT_DEFINITION_FORMATION_WITH_SPECIFIED_SOURCE ( 'ANY', '', #305, .NOT_KNOWN. ) ;
#164 = UNCERTAINTY_MEASURE_WITH_UNIT (LENGTH_MEASURE( 1.000000000000000082E-05 ), #322, 'distance_accuracy_value', 'NONE');
#165 = CARTESIAN_POINT ( 'NONE',  ( 0.000000000000000000, 0.000000000000000000, 0.000000000000000000 ) ) ;
#166 = ADVANCED_FACE ( 'NONE', ( #215 ), #343, .T. ) ;
#167 = SURFACE_STYLE_FILL_AREA ( #193 ) ;
#168 = VECTOR ( 'NONE', #111, 39.37007874015748143 ) ;
#169 = MECHANICAL_DESIGN_GEOMETRIC_PRESENTATION_REPRESENTATION (  '', ( #269 ), #109 ) ;
#170 = DIRECTION ( 'NONE',  ( 0.000000000000000000, 0.000000000000000000, -1.000000000000000000 ) ) ;
#171 =( NAMED_UNIT ( * ) SI_UNIT ( $, .STERADIAN. ) SOLID_ANGLE_UNIT ( ) );
#172 = ORIENTED_EDGE ( 'NONE', *, *, #153, .F. ) ;
#173 = ORIENTED_EDGE ( 'NONE', *, *, #96, .T. ) ;
#174 = FACE_OUTER_BOUND ( 'NONE', #97, .T. ) ;
#175 = ORIENTED_EDGE ( 'NONE', *, *, #276, .F. ) ;
#176 = PRESENTATION_LAYER_ASSIGNMENT (  '', '', ( #118 ) ) ;
#177 = FACE_OUTER_BOUND ( 'NONE', #89, .T. ) ;
#178 = AXIS2_PLACEMENT_3D ( 'NONE', #165, #199, #316 ) ;
#179 = DIRECTION ( 'NONE',  ( 0.000000000000000000, 0.000000000000000000, 1.000000000000000000 ) ) ;
#180 = ORIENTED_EDGE ( 'NONE', *, *, #296, .F. ) ;
#181 = DIRECTION ( 'NONE',  ( 0.000000000000000000, 0.000000000000000000, -1.000000000000000000 ) ) ;
#182 = MECHANICAL_DESIGN_GEOMETRIC_PRESENTATION_REPRESENTATION (  '', ( #347 ), #128 ) ;
#183 = PRESENTATION_STYLE_ASSIGNMENT (( #75 ) ) ;
#184 = FILL_AREA_STYLE_COLOUR ( '', #258 ) ;
#185 = FACE_OUTER_BOUND ( 'NONE', #223, .T. ) ;
#186 = UNCERTAINTY_MEASURE_WITH_UNIT (LENGTH_MEASURE( 1.000000000000000082E-05 ), #23, 'distance_accuracy_value', 'NONE');
#187 = MECHANICAL_DESIGN_GEOMETRIC_PRESENTATION_REPRESENTATION (  '', ( #330 ), #212 ) ;
#188 = CIRCLE ( 'NONE', #25, 0.06249999999999997918 ) ;
#189 = EDGE_CURVE ( 'NONE', #339, #221, #248, .T. ) ;
#190 = CARTESIAN_POINT ( 'NONE',  ( 1.836970198721029194E-16, 0.5000000000000001110, 0.000000000000000000 ) ) ;
#191 = EDGE_CURVE ( 'NONE', #76, #209, #370, .T. ) ;
#192 =( CONVERSION_BASED_UNIT ( 'INCH', #222 ) LENGTH_UNIT ( ) NAMED_UNIT ( #59 ) );
#193 = FILL_AREA_STYLE ('',( #50 ) ) ;
#194 = DIMENSIONAL_EXPONENTS ( 1.000000000000000000, 0.000000000000000000, 0.000000000000000000, 0.000000000000000000, 0.000000000000000000, 0.000000000000000000, 0.000000000000000000 ) ;
#195 = VERTEX_POINT ( 'NONE', #345 ) ;
#196 = AXIS2_PLACEMENT_3D ( 'NONE', #190, #357, #307 ) ;
#197 = SURFACE_STYLE_FILL_AREA ( #52 ) ;
#198 =( NAMED_UNIT ( * ) PLANE_ANGLE_UNIT ( ) SI_UNIT ( $, .RADIAN. ) );
#199 = DIRECTION ( 'NONE',  ( -0.000000000000000000, -1.000000000000000000, -0.000000000000000000 ) ) ;
#200 = PRODUCT_CONTEXT ( 'NONE', #43, 'mechanical' ) ;
#201 = FILL_AREA_STYLE_COLOUR ( '', #338 ) ;
#202 = MECHANICAL_DESIGN_GEOMETRIC_PRESENTATION_REPRESENTATION (  '', ( #224 ), #356 ) ;
#203 = DIMENSIONAL_EXPONENTS ( 1.000000000000000000, 0.000000000000000000, 0.000000000000000000, 0.000000000000000000, 0.000000000000000000, 0.000000000000000000, 0.000000000000000000 ) ;
#204 = FILL_AREA_STYLE_COLOUR ( '', #360 ) ;
#205 = AXIS2_PLACEMENT_3D ( 'NONE', #236, #3, #69 ) ;
#206 = DIRECTION ( 'NONE',  ( 0.000000000000000000, 0.000000000000000000, -1.000000000000000000 ) ) ;
#207 = DIRECTION ( 'NONE',  ( 1.000000000000000000, 0.000000000000000000, 0.000000000000000000 ) ) ;
#208 = CARTESIAN_POINT ( 'NONE',  ( -0.06249999999999956285, 0.5000000000000001110, 0.000000000000000000 ) ) ;
#209 = VERTEX_POINT ( 'NONE', #250 ) ;
#210 = FILL_AREA_STYLE ('',( #184 ) ) ;
#211 = DIRECTION ( 'NONE',  ( -1.224646799147352961E-16, 1.000000000000000000, -0.000000000000000000 ) ) ;
#212 =( GEOMETRIC_REPRESENTATION_CONTEXT ( 3 ) GLOBAL_UNCERTAINTY_ASSIGNED_CONTEXT ( ( #150 ) ) GLOBAL_UNIT_ASSIGNED_CONTEXT ( ( #79, #275, #121 ) ) REPRESENTATION_CONTEXT ( 'NONE', 'WORKASPACE' ) );
#213 = LENGTH_MEASURE_WITH_UNIT ( LENGTH_MEASURE( 0.02539999999999999897 ), #134 );
#214 = ORIENTED_EDGE ( 'NONE', *, *, #353, .T. ) ;
#215 = FACE_OUTER_BOUND ( 'NONE', #115, .T. ) ;
#216 = AXIS2_PLACEMENT_3D ( 'NONE', #271, #133, #328 ) ;
#217 = VECTOR ( 'NONE', #13, 39.37007874015748143 ) ;
#218 = ADVANCED_FACE ( 'NONE', ( #32 ), #31, .T. ) ;
#219 = PRESENTATION_STYLE_ASSIGNMENT (( #318 ) ) ;
#220 = LENGTH_MEASURE_WITH_UNIT ( LENGTH_MEASURE( 0.02539999999999999897 ), #285 );
#221 = VERTEX_POINT ( 'NONE', #226 ) ;
#222 = LENGTH_MEASURE_WITH_UNIT ( LENGTH_MEASURE( 0.02539999999999999897 ), #82 );
#223 = EDGE_LOOP ( 'NONE', ( #140, #14 ) ) ;
#224 = STYLED_ITEM ( 'NONE', ( #63 ), #231 ) ;
#225 = MECHANICAL_DESIGN_GEOMETRIC_PRESENTATION_REPRESENTATION (  '', ( #116 ), #17 ) ;
#226 = CARTESIAN_POINT ( 'NONE',  ( 0.06249999999999993755, 2.500000000000000000, 7.654042494670949841E-18 ) ) ;
#227 = EDGE_LOOP ( 'NONE', ( #114, #291 ) ) ;
#228 =( NAMED_UNIT ( * ) SI_UNIT ( $, .STERADIAN. ) SOLID_ANGLE_UNIT ( ) );
#229 = FILL_AREA_STYLE ('',( #204 ) ) ;
#230 = ADVANCED_FACE ( 'NONE', ( #174 ), #10, .T. ) ;
#231 = ADVANCED_FACE ( 'NONE', ( #362 ), #154, .T. ) ;
#232 = SURFACE_STYLE_USAGE ( .BOTH. , #9 ) ;
#233 = ORIENTED_EDGE ( 'NONE', *, *, #189, .F. ) ;
#234 =( NAMED_UNIT ( * ) PLANE_ANGLE_UNIT ( ) SI_UNIT ( $, .RADIAN. ) );
#235 = ORIENTED_EDGE ( 'NONE', *, *, #325, .F. ) ;
#236 = CARTESIAN_POINT ( 'NONE',  ( 0.06249999999999993755, 2.500000000000000000, 0.000000000000000000 ) ) ;
#237 = DIRECTION ( 'NONE',  ( 0.000000000000000000, 0.000000000000000000, -1.000000000000000000 ) ) ;
#238 = AXIS2_PLACEMENT_3D ( 'NONE', #149, #206, #4 ) ;
#239 = DIRECTION ( 'NONE',  ( 0.000000000000000000, 0.000000000000000000, -1.000000000000000000 ) ) ;
#240 = CARTESIAN_POINT ( 'NONE',  ( -0.06249999999999993755, 2.500000000000000000, 0.000000000000000000 ) ) ;
#241 = CARTESIAN_POINT ( 'NONE',  ( -6.123233995736766036E-17, 2.500000000000000000, 0.000000000000000000 ) ) ;
#242 = CARTESIAN_POINT ( 'NONE',  ( 0.000000000000000000, 0.06250000000000001388, 0.000000000000000000 ) ) ;
#243 = PRESENTATION_LAYER_ASSIGNMENT (  '', '', ( #116 ) ) ;
#244 = CARTESIAN_POINT ( 'NONE',  ( 0.000000000000000000, 0.06250000000000001388, 0.000000000000000000 ) ) ;
#245 = ADVANCED_FACE ( 'NONE', ( #177 ), #262, .F. ) ;
#246 = CARTESIAN_POINT ( 'NONE',  ( -6.123233995736766036E-17, 2.500000000000000000, 0.000000000000000000 ) ) ;
#247 =( LENGTH_UNIT ( ) NAMED_UNIT ( * ) SI_UNIT ( $, .METRE. ) );
#248 = CIRCLE ( 'NONE', #127, 0.06250000000000000000 ) ;
#249 = SURFACE_STYLE_USAGE ( .BOTH. , #365 ) ;
#250 = CARTESIAN_POINT ( 'NONE',  ( 7.654042494670951382E-18, 0.06250000000000001388, 0.06249999999999995143 ) ) ;
#251 = ORIENTED_EDGE ( 'NONE', *, *, #361, .T. ) ;
#252 = DIRECTION ( 'NONE',  ( 0.000000000000000000, -0.000000000000000000, 1.000000000000000000 ) ) ;
#253 = ORIENTED_EDGE ( 'NONE', *, *, #326, .T. ) ;
#254 = CLOSED_SHELL ( 'NONE', ( #230, #231, #218, #287, #166 ) ) ;
#255 = CIRCLE ( 'NONE', #67, 0.06249999999999995143 ) ;
#256 = FILL_AREA_STYLE_COLOUR ( '', #372 ) ;
#257 = CARTESIAN_POINT ( 'NONE',  ( -7.654042494670957545E-18, 0.06250000000000001388, 0.000000000000000000 ) ) ;
#258 = COLOUR_RGB ( '',1.000000000000000000, 0.000000000000000000, 0.000000000000000000 ) ;
#259 = COLOUR_RGB ( '',0.7921568627450980005, 0.8196078431372548767, 0.9333333333333333481 ) ;
#260 = ORIENTED_EDGE ( 'NONE', *, *, #46, .T. ) ;
#261 = ORIENTED_EDGE ( 'NONE', *, *, #189, .T. ) ;
#262 = PLANE ( 'NONE',  #205 ) ;
#263 = LINE ( 'NONE', #266, #217 ) ;
#264 = CARTESIAN_POINT ( 'NONE',  ( 1.836970198721029194E-16, 0.5000000000000001110, 0.000000000000000000 ) ) ;
#265 = DIRECTION ( 'NONE',  ( 0.000000000000000000, 0.000000000000000000, 1.000000000000000000 ) ) ;
#266 = CARTESIAN_POINT ( 'NONE',  ( 0.000000000000000000, 0.000000000000000000, -0.06249999999999995143 ) ) ;
#267 =( GEOMETRIC_REPRESENTATION_CONTEXT ( 3 ) GLOBAL_UNCERTAINTY_ASSIGNED_CONTEXT ( ( #363 ) ) GLOBAL_UNIT_ASSIGNED_CONTEXT ( ( #309, #198, #171 ) ) REPRESENTATION_CONTEXT ( 'NONE', 'WORKASPACE' ) );
#268 = FACE_OUTER_BOUND ( 'NONE', #373, .T. ) ;
#269 = STYLED_ITEM ( 'NONE', ( #283 ), #300 ) ;
#270 = ORIENTED_EDGE ( 'NONE', *, *, #91, .T. ) ;
#271 = CARTESIAN_POINT ( 'NONE',  ( -6.123233995736766036E-17, 2.500000000000000000, 0.000000000000000000 ) ) ;
#272 = CARTESIAN_POINT ( 'NONE',  ( 0.06249999999999993755, 0.5000000000000001110, 7.654042494670949841E-18 ) ) ;
#273 = CIRCLE ( 'NONE', #333, 0.06249999999999975020 ) ;
#274 = CIRCLE ( 'NONE', #348, 0.06249999999999995143 ) ;
#275 =( NAMED_UNIT ( * ) PLANE_ANGLE_UNIT ( ) SI_UNIT ( $, .RADIAN. ) );
#276 = EDGE_CURVE ( 'NONE', #42, #152, #143, .T. ) ;
#277 = CARTESIAN_POINT ( 'NONE',  ( 0.06249999999999981959, 2.500000000000000000, 7.654042494670943678E-18 ) ) ;
#278 = UNCERTAINTY_MEASURE_WITH_UNIT (LENGTH_MEASURE( 1.000000000000000082E-05 ), #337, 'distance_accuracy_value', 'NONE');
#279 = PRESENTATION_STYLE_ASSIGNMENT (( #367 ) ) ;
#280 = SURFACE_SIDE_STYLE ('',( #167 ) ) ;
#281 = AXIS2_PLACEMENT_3D ( 'NONE', #341, #112, #306 ) ;
#282 = DIRECTION ( 'NONE',  ( 0.000000000000000000, 0.000000000000000000, 1.000000000000000000 ) ) ;
#283 = PRESENTATION_STYLE_ASSIGNMENT (( #249 ) ) ;
#284 = ORIENTED_EDGE ( 'NONE', *, *, #191, .F. ) ;
#285 =( LENGTH_UNIT ( ) NAMED_UNIT ( * ) SI_UNIT ( $, .METRE. ) );
#286 = COLOUR_RGB ( '',1.000000000000000000, 0.000000000000000000, 0.000000000000000000 ) ;
#287 = ADVANCED_FACE ( 'NONE', ( #101 ), #292, .T. ) ;
#288 =( LENGTH_UNIT ( ) NAMED_UNIT ( * ) SI_UNIT ( $, .METRE. ) );
#289 = CLOSED_SHELL ( 'NONE', ( #302, #48, #20, #245 ) ) ;
#290 = FILL_AREA_STYLE_COLOUR ( '', #286 ) ;
#291 = ORIENTED_EDGE ( 'NONE', *, *, #361, .F. ) ;
#292 = CYLINDRICAL_SURFACE ( 'NONE', #178, 0.06249999999999995143 ) ;
#293 = DIRECTION ( 'NONE',  ( -0.000000000000000000, -1.000000000000000000, -0.000000000000000000 ) ) ;
#294 = ORIENTED_EDGE ( 'NONE', *, *, #313, .T. ) ;
#295 = MANIFOLD_SOLID_BREP ( 'Revolve - Tool Body (Straight Shanked)', #289 ) ;
#296 = EDGE_CURVE ( 'NONE', #195, #42, #41, .T. ) ;
#297 = DIRECTION ( 'NONE',  ( -1.224646799147352961E-16, 1.000000000000000000, -0.000000000000000000 ) ) ;
#298 = CIRCLE ( 'NONE', #12, 0.06249999999999993755 ) ;
#299 = DIRECTION ( 'NONE',  ( -0.000000000000000000, -1.000000000000000000, -0.000000000000000000 ) ) ;
#300 = MANIFOLD_SOLID_BREP ( 'Revolve - Cutting Edge', #254 ) ;
#301 = PLANE ( 'NONE',  #281 ) ;
#302 = ADVANCED_FACE ( 'NONE', ( #47 ), #21, .T. ) ;
#303 = LINE ( 'NONE', #277, #99 ) ;
#304 = PRESENTATION_LAYER_ASSIGNMENT (  '', '', ( #330 ) ) ;
#305 = PRODUCT ( '49041', '49041', '', ( #200 ) ) ;
#306 = DIRECTION ( 'NONE',  ( -1.000000000000000000, -1.224646799147352961E-16, 0.000000000000000000 ) ) ;
#307 = DIRECTION ( 'NONE',  ( -1.000000000000000000, 0.000000000000000000, 0.000000000000000000 ) ) ;
#308 =( NAMED_UNIT ( * ) PLANE_ANGLE_UNIT ( ) SI_UNIT ( $, .RADIAN. ) );
#309 =( CONVERSION_BASED_UNIT ( 'INCH', #119 ) LENGTH_UNIT ( ) NAMED_UNIT ( #315 ) );
#310 = UNCERTAINTY_MEASURE_WITH_UNIT (LENGTH_MEASURE( 1.000000000000000082E-05 ), #192, 'distance_accuracy_value', 'NONE');
#311 = DIRECTION ( 'NONE',  ( -0.000000000000000000, -1.000000000000000000, -0.000000000000000000 ) ) ;
#312 = DIRECTION ( 'NONE',  ( 0.000000000000000000, 1.000000000000000000, 0.000000000000000000 ) ) ;
#313 = EDGE_CURVE ( 'NONE', #344, #76, #298, .T. ) ;
#314 = ORIENTED_EDGE ( 'NONE', *, *, #353, .F. ) ;
#315 = DIMENSIONAL_EXPONENTS ( 1.000000000000000000, 0.000000000000000000, 0.000000000000000000, 0.000000000000000000, 0.000000000000000000, 0.000000000000000000, 0.000000000000000000 ) ;
#316 = DIRECTION ( 'NONE',  ( 0.000000000000000000, 0.000000000000000000, -1.000000000000000000 ) ) ;
#317 = DIRECTION ( 'NONE',  ( 1.224646799147353207E-16, -0.000000000000000000, 1.000000000000000000 ) ) ;
#318 = SURFACE_STYLE_USAGE ( .BOTH. , #27 ) ;
#319 = VECTOR ( 'NONE', #15, 39.37007874015748143 ) ;
#320 = LENGTH_MEASURE_WITH_UNIT ( LENGTH_MEASURE( 0.02539999999999999897 ), #70 );
#321 = SURFACE_STYLE_FILL_AREA ( #229 ) ;
#322 =( CONVERSION_BASED_UNIT ( 'INCH', #95 ) LENGTH_UNIT ( ) NAMED_UNIT ( #194 ) );
#323 = AXIS2_PLACEMENT_3D ( 'NONE', #132, #179, #90 ) ;
#324 =( NAMED_UNIT ( * ) PLANE_ANGLE_UNIT ( ) SI_UNIT ( $, .RADIAN. ) );
#325 = EDGE_CURVE ( 'NONE', #103, #195, #274, .T. ) ;
#326 = EDGE_CURVE ( 'NONE', #344, #195, #263, .T. ) ;
#327 =( CONVERSION_BASED_UNIT ( 'INCH', #320 ) LENGTH_UNIT ( ) NAMED_UNIT ( #147 ) );
#328 = DIRECTION ( 'NONE',  ( -1.000000000000000000, 0.000000000000000000, 0.000000000000000000 ) ) ;
#329 = SURFACE_SIDE_STYLE ('',( #161 ) ) ;
#330 = STYLED_ITEM ( 'NONE', ( #183 ), #166 ) ;
#331 = CYLINDRICAL_SURFACE ( 'NONE', #216, 0.06249999999999988204 ) ;
#332 = PRODUCT_RELATED_PRODUCT_CATEGORY ( 'part', '', ( #305 ) ) ;
#333 = AXIS2_PLACEMENT_3D ( 'NONE', #264, #211, #78 ) ;
#334 = PRESENTATION_LAYER_ASSIGNMENT (  '', '', ( #269 ) ) ;
#335 = DIRECTION ( 'NONE',  ( -1.224646799147352961E-16, 1.000000000000000000, -0.000000000000000000 ) ) ;
#336 = DIRECTION ( 'NONE',  ( -1.000000000000000000, 0.000000000000000000, 0.000000000000000000 ) ) ;
#337 =( CONVERSION_BASED_UNIT ( 'INCH', #220 ) LENGTH_UNIT ( ) NAMED_UNIT ( #364 ) );
#338 = COLOUR_RGB ( '',1.000000000000000000, 0.000000000000000000, 0.000000000000000000 ) ;
#339 = VERTEX_POINT ( 'NONE', #122 ) ;
#340 = MECHANICAL_DESIGN_GEOMETRIC_PRESENTATION_REPRESENTATION (  '', ( #118 ), #138 ) ;
#341 = CARTESIAN_POINT ( 'NONE',  ( 1.836970198721029441E-16, 0.5000000000000000000, 0.000000000000000000 ) ) ;
#342 = FILL_AREA_STYLE_COLOUR ( '', #259 ) ;
#343 = SPHERICAL_SURFACE ( 'NONE', #58, 0.06249999999999997918 ) ;
#344 = VERTEX_POINT ( 'NONE', #346 ) ;
#345 = CARTESIAN_POINT ( 'NONE',  ( 0.000000000000000000, 0.06250000000000001388, -0.06249999999999995143 ) ) ;
#346 = CARTESIAN_POINT ( 'NONE',  ( 0.000000000000000000, 0.5000000000000000000, -0.06249999999999993755 ) ) ;
#347 = STYLED_ITEM ( 'NONE', ( #39 ), #287 ) ;
#348 = AXIS2_PLACEMENT_3D ( 'NONE', #158, #299, #237 ) ;
#349 = ORIENTED_EDGE ( 'NONE', *, *, #191, .T. ) ;
#350 = VERTEX_POINT ( 'NONE', #208 ) ;
#351 = SURFACE_STYLE_USAGE ( .BOTH. , #123 ) ;
#352 = AXIS2_PLACEMENT_3D ( 'NONE', #110, #80, #56 ) ;
#353 = EDGE_CURVE ( 'NONE', #103, #152, #188, .T. ) ;
#354 = APPLICATION_PROTOCOL_DEFINITION ( 'draft international standard', 'automotive_design', 1998, #43 ) ;
#355 = DIRECTION ( 'NONE',  ( 0.000000000000000000, 0.000000000000000000, -1.000000000000000000 ) ) ;
#356 =( GEOMETRIC_REPRESENTATION_CONTEXT ( 3 ) GLOBAL_UNCERTAINTY_ASSIGNED_CONTEXT ( ( #164 ) ) GLOBAL_UNIT_ASSIGNED_CONTEXT ( ( #322, #234, #65 ) ) REPRESENTATION_CONTEXT ( 'NONE', 'WORKASPACE' ) );
#357 = DIRECTION ( 'NONE',  ( -1.224646799147352961E-16, 1.000000000000000000, -0.000000000000000000 ) ) ;
#358 = CARTESIAN_POINT ( 'NONE',  ( -0.06249999999999996531, 0.06250000000000001388, 7.654042494670952923E-18 ) ) ;
#359 = DIRECTION ( 'NONE',  ( -1.224646799147352961E-16, 1.000000000000000000, -0.000000000000000000 ) ) ;
#360 = COLOUR_RGB ( '',1.000000000000000000, 0.000000000000000000, 0.000000000000000000 ) ;
#361 = EDGE_CURVE ( 'NONE', #76, #344, #104, .T. ) ;
#362 = FACE_OUTER_BOUND ( 'NONE', #74, .T. ) ;
#363 = UNCERTAINTY_MEASURE_WITH_UNIT (LENGTH_MEASURE( 1.000000000000000082E-05 ), #309, 'distance_accuracy_value', 'NONE');
#364 = DIMENSIONAL_EXPONENTS ( 1.000000000000000000, 0.000000000000000000, 0.000000000000000000, 0.000000000000000000, 0.000000000000000000, 0.000000000000000000, 0.000000000000000000 ) ;
#365 = SURFACE_SIDE_STYLE ('',( #53 ) ) ;
#366 = EDGE_LOOP ( 'NONE', ( #260, #87, #233, #172 ) ) ;
#367 = SURFACE_STYLE_USAGE ( .BOTH. , #113 ) ;
#368 = FILL_AREA_STYLE ('',( #201 ) ) ;
#369 = ORIENTED_EDGE ( 'NONE', *, *, #276, .T. ) ;
#370 = LINE ( 'NONE', #92, #168 ) ;
#371 = AXIS2_PLACEMENT_3D ( 'NONE', #7, #125, #239 ) ;
#372 = COLOUR_RGB ( '',0.7921568627450980005, 0.8196078431372548767, 0.9333333333333333481 ) ;
#373 = EDGE_LOOP ( 'NONE', ( #28, #173, #16, #100 ) ) ;
ENDSEC;
END-ISO-10303-21;
