ISO-10303-21;
HEADER;
FILE_DESCRIPTION (( 'STEP AP214' ),
    '1' );
FILE_NAME ('59649.STEP',
    '2023-07-24T15:19:25',
    ( '' ),
    ( '' ),
    'SwSTEP 2.0',
    'SolidWorks 2023',
    '' );
FILE_SCHEMA (( 'AUTOMOTIVE_DESIGN' ));
ENDSEC;

DATA;
#1 = ORIENTED_EDGE ( 'NONE', *, *, #319, .T. ) ;
#2 = ORIENTED_EDGE ( 'NONE', *, *, #363, .T. ) ;
#3 = CIRCLE ( 'NONE', #289, 9.999999999999992895 ) ;
#4 = ORIENTED_EDGE ( 'NONE', *, *, #297, .T. ) ;
#5 = PRESENTATION_STYLE_ASSIGNMENT (( #148 ) ) ;
#6 =( LENGTH_UNIT ( ) NAMED_UNIT ( * ) SI_UNIT ( .MILLI., .METRE. ) );
#7 = ORIENTED_EDGE ( 'NONE', *, *, #355, .F. ) ;
#8 = DIRECTION ( 'NONE',  ( -0.000000000000000000, -1.000000000000000000, -0.000000000000000000 ) ) ;
#9 = FILL_AREA_STYLE_COLOUR ( '', #158 ) ;
#10 = MECHANICAL_DESIGN_GEOMETRIC_PRESENTATION_REPRESENTATION (  '', ( #304 ), #133 ) ;
#11 = AXIS2_PLACEMENT_3D ( 'NONE', #129, #105, #251 ) ;
#12 = SURFACE_SIDE_STYLE ('',( #163 ) ) ;
#13 = CARTESIAN_POINT ( 'NONE',  ( 0.000000000000000000, 1.000000000000000000, 0.000000000000000000 ) ) ;
#14 = CARTESIAN_POINT ( 'NONE',  ( -1.714505518806293652E-15, 89.00000000000000000, 0.000000000000000000 ) ) ;
#15 = ADVANCED_FACE ( 'NONE', ( #33 ), #323, .T. ) ;
#16 = DIRECTION ( 'NONE',  ( -1.224646799147353454E-16, 0.000000000000000000, -1.000000000000000000 ) ) ;
#17 =( NAMED_UNIT ( * ) PLANE_ANGLE_UNIT ( ) SI_UNIT ( $, .RADIAN. ) );
#18 = PRESENTATION_STYLE_ASSIGNMENT (( #283 ) ) ;
#19 = STYLED_ITEM ( 'NONE', ( #18 ), #35 ) ;
#20 = DIRECTION ( 'NONE',  ( 0.000000000000000000, 0.000000000000000000, -1.000000000000000000 ) ) ;
#21 = DIRECTION ( 'NONE',  ( -1.000000000000000000, 0.000000000000000000, 0.000000000000000000 ) ) ;
#22 = CARTESIAN_POINT ( 'NONE',  ( -10.00000000000000355, 89.00000000000000000, 0.000000000000000000 ) ) ;
#23 = FILL_AREA_STYLE_COLOUR ( '', #179 ) ;
#24 = DIRECTION ( 'NONE',  ( 0.000000000000000000, -0.000000000000000000, 1.000000000000000000 ) ) ;
#25 =( LENGTH_UNIT ( ) NAMED_UNIT ( * ) SI_UNIT ( .MILLI., .METRE. ) );
#26 = AXIS2_PLACEMENT_3D ( 'NONE', #284, #131, #189 ) ;
#27 = EDGE_CURVE ( 'NONE', #176, #81, #280, .T. ) ;
#28 = PRODUCT_DEFINITION_SHAPE ( 'NONE', 'NONE',  #327 ) ;
#29 = VECTOR ( 'NONE', #91, 1000.000000000000000 ) ;
#30 = MECHANICAL_DESIGN_GEOMETRIC_PRESENTATION_REPRESENTATION (  '', ( #325 ), #313 ) ;
#31 = ADVANCED_FACE ( 'NONE', ( #302 ), #224, .F. ) ;
#32 = DIRECTION ( 'NONE',  ( -0.000000000000000000, -1.000000000000000000, -0.000000000000000000 ) ) ;
#33 = FACE_OUTER_BOUND ( 'NONE', #234, .T. ) ;
#34 = ORIENTED_EDGE ( 'NONE', *, *, #335, .T. ) ;
#35 = ADVANCED_FACE ( 'NONE', ( #50 ), #241, .T. ) ;
#36 = ORIENTED_EDGE ( 'NONE', *, *, #27, .F. ) ;
#37 =( NAMED_UNIT ( * ) PLANE_ANGLE_UNIT ( ) SI_UNIT ( $, .RADIAN. ) );
#38 = MANIFOLD_SOLID_BREP ( 'Revolve - Cutting Edge', #298 ) ;
#39 = LINE ( 'NONE', #362, #118 ) ;
#40 = CIRCLE ( 'NONE', #190, 9.000000000000001776 ) ;
#41 = CARTESIAN_POINT ( 'NONE',  ( 1.102182119232617911E-15, 1.000000000000000000, 9.000000000000001776 ) ) ;
#42 = MANIFOLD_SOLID_BREP ( 'Revolve - Tool Body (Straight Shanked)', #144 ) ;
#43 = CARTESIAN_POINT ( 'NONE',  ( 0.000000000000000000, 1.000000000000000000, -9.000000000000001776 ) ) ;
#44 = DIRECTION ( 'NONE',  ( -1.000000000000000000, 0.000000000000000000, 0.000000000000000000 ) ) ;
#45 =( NAMED_UNIT ( * ) SI_UNIT ( $, .STERADIAN. ) SOLID_ANGLE_UNIT ( ) );
#46 = DIRECTION ( 'NONE',  ( -0.000000000000000000, -1.000000000000000000, -0.000000000000000000 ) ) ;
#47 = FACE_OUTER_BOUND ( 'NONE', #245, .T. ) ;
#48 = DIRECTION ( 'NONE',  ( -1.000000000000000000, -1.576935716305902603E-16, 0.000000000000000000 ) ) ;
#49 = EDGE_CURVE ( 'NONE', #345, #294, #39, .T. ) ;
#50 = FACE_OUTER_BOUND ( 'NONE', #324, .T. ) ;
#51 = DIRECTION ( 'NONE',  ( 0.000000000000000000, 0.000000000000000000, 1.000000000000000000 ) ) ;
#52 = CARTESIAN_POINT ( 'NONE',  ( 0.000000000000000000, 0.000000000000000000, 0.000000000000000000 ) ) ;
#53 = PRESENTATION_STYLE_ASSIGNMENT (( #136 ) ) ;
#54 = STYLED_ITEM ( 'NONE', ( #53 ), #279 ) ;
#55 = ORIENTED_EDGE ( 'NONE', *, *, #218, .F. ) ;
#56 = UNCERTAINTY_MEASURE_WITH_UNIT (LENGTH_MEASURE( 1.000000000000000082E-05 ), #295, 'distance_accuracy_value', 'NONE');
#57 = VECTOR ( 'NONE', #329, 1000.000000000000000 ) ;
#58 = AXIS2_PLACEMENT_3D ( 'NONE', #162, #217, #21 ) ;
#59 = ORIENTED_EDGE ( 'NONE', *, *, #319, .F. ) ;
#60 = PLANE ( 'NONE',  #143 ) ;
#61 = SURFACE_STYLE_FILL_AREA ( #155 ) ;
#62 = CARTESIAN_POINT ( 'NONE',  ( 0.000000000000000000, 30.00000000000000000, 0.000000000000000000 ) ) ;
#63 = ORIENTED_EDGE ( 'NONE', *, *, #181, .F. ) ;
#64 = CIRCLE ( 'NONE', #26, 10.00000000000000000 ) ;
#65 = VERTEX_POINT ( 'NONE', #336 ) ;
#66 = DIRECTION ( 'NONE',  ( 1.000000000000000000, 1.576935716305902603E-16, 0.000000000000000000 ) ) ;
#67 = DIRECTION ( 'NONE',  ( -1.576935716305902603E-16, 1.000000000000000000, -0.000000000000000000 ) ) ;
#68 = AXIS2_PLACEMENT_3D ( 'NONE', #130, #307, #192 ) ;
#69 = DIRECTION ( 'NONE',  ( 0.000000000000000000, 0.000000000000000000, -1.000000000000000000 ) ) ;
#70 = DIRECTION ( 'NONE',  ( 0.000000000000000000, 1.000000000000000000, 0.000000000000000000 ) ) ;
#71 = DIRECTION ( 'NONE',  ( 0.000000000000000000, -1.000000000000000000, -0.000000000000000000 ) ) ;
#72 = FILL_AREA_STYLE_COLOUR ( '', #111 ) ;
#73 =( NAMED_UNIT ( * ) PLANE_ANGLE_UNIT ( ) SI_UNIT ( $, .RADIAN. ) );
#74 = CARTESIAN_POINT ( 'NONE',  ( 0.000000000000000000, 1.000000000000000000, -10.00000000000000178 ) ) ;
#75 = PRODUCT_CONTEXT ( 'NONE', #183, 'mechanical' ) ;
#76 = PRESENTATION_LAYER_ASSIGNMENT (  '', '', ( #312 ) ) ;
#77 = DIRECTION ( 'NONE',  ( -1.000000000000000000, 0.000000000000000000, 0.000000000000000000 ) ) ;
#78 = SURFACE_STYLE_FILL_AREA ( #193 ) ;
#79 = ADVANCED_FACE ( 'NONE', ( #342 ), #260, .F. ) ;
#80 = ORIENTED_EDGE ( 'NONE', *, *, #335, .F. ) ;
#81 = VERTEX_POINT ( 'NONE', #22 ) ;
#82 = CIRCLE ( 'NONE', #160, 9.000000000000001776 ) ;
#83 = ADVANCED_FACE ( 'NONE', ( #369 ), #221, .T. ) ;
#84 = UNCERTAINTY_MEASURE_WITH_UNIT (LENGTH_MEASURE( 1.000000000000000082E-05 ), #214, 'distance_accuracy_value', 'NONE');
#85 = EDGE_LOOP ( 'NONE', ( #349, #207 ) ) ;
#86 = SURFACE_SIDE_STYLE ('',( #326 ) ) ;
#87 = AXIS2_PLACEMENT_3D ( 'NONE', #340, #309, #48 ) ;
#88 = PRODUCT_DEFINITION_FORMATION_WITH_SPECIFIED_SOURCE ( 'ANY', '', #233, .NOT_KNOWN. ) ;
#89 = EDGE_LOOP ( 'NONE', ( #296, #357 ) ) ;
#90 = EDGE_CURVE ( 'NONE', #237, #149, #243, .T. ) ;
#91 = DIRECTION ( 'NONE',  ( -0.000000000000000000, -1.000000000000000000, -0.000000000000000000 ) ) ;
#92 = ORIENTED_EDGE ( 'NONE', *, *, #262, .F. ) ;
#93 = ORIENTED_EDGE ( 'NONE', *, *, #322, .F. ) ;
#94 = LINE ( 'NONE', #331, #223 ) ;
#95 = ADVANCED_FACE ( 'NONE', ( #273 ), #60, .T. ) ;
#96 = DIRECTION ( 'NONE',  ( -1.000000000000000000, 0.000000000000000000, 0.000000000000000000 ) ) ;
#97 = DIRECTION ( 'NONE',  ( -1.576935716305902603E-16, 1.000000000000000000, -0.000000000000000000 ) ) ;
#98 = SURFACE_STYLE_USAGE ( .BOTH. , #257 ) ;
#99 = EDGE_CURVE ( 'NONE', #294, #81, #299, .T. ) ;
#100 = CIRCLE ( 'NONE', #11, 10.00000000000000178 ) ;
#101 = DIRECTION ( 'NONE',  ( -0.000000000000000000, -1.000000000000000000, -0.000000000000000000 ) ) ;
#102 = DIRECTION ( 'NONE',  ( 0.000000000000000000, 0.000000000000000000, -1.000000000000000000 ) ) ;
#103 = PRESENTATION_STYLE_ASSIGNMENT (( #141 ) ) ;
#104 = CARTESIAN_POINT ( 'NONE',  ( -10.00000000000000000, 89.00000000000000000, 0.000000000000000000 ) ) ;
#105 = DIRECTION ( 'NONE',  ( -1.576935716305902603E-16, 1.000000000000000000, -0.000000000000000000 ) ) ;
#106 =( NAMED_UNIT ( * ) SI_UNIT ( $, .STERADIAN. ) SOLID_ANGLE_UNIT ( ) );
#107 = FILL_AREA_STYLE_COLOUR ( '', #205 ) ;
#108 = SURFACE_STYLE_FILL_AREA ( #199 ) ;
#109 = AXIS2_PLACEMENT_3D ( 'NONE', #310, #330, #102 ) ;
#110 = CIRCLE ( 'NONE', #306, 10.00000000000000178 ) ;
#111 = COLOUR_RGB ( '',1.000000000000000000, 0.000000000000000000, 0.000000000000000000 ) ;
#112 =( GEOMETRIC_REPRESENTATION_CONTEXT ( 3 ) GLOBAL_UNCERTAINTY_ASSIGNED_CONTEXT ( ( #84 ) ) GLOBAL_UNIT_ASSIGNED_CONTEXT ( ( #214, #277, #185 ) ) REPRESENTATION_CONTEXT ( 'NONE', 'WORKASPACE' ) );
#113 = ORIENTED_EDGE ( 'NONE', *, *, #218, .T. ) ;
#114 = ORIENTED_EDGE ( 'NONE', *, *, #181, .T. ) ;
#115 =( NAMED_UNIT ( * ) PLANE_ANGLE_UNIT ( ) SI_UNIT ( $, .RADIAN. ) );
#116 = UNCERTAINTY_MEASURE_WITH_UNIT (LENGTH_MEASURE( 1.000000000000000082E-05 ), #276, 'distance_accuracy_value', 'NONE');
#117 = EDGE_LOOP ( 'NONE', ( #352, #213 ) ) ;
#118 = VECTOR ( 'NONE', #288, 1000.000000000000000 ) ;
#119 = AXIS2_PLACEMENT_3D ( 'NONE', #216, #275, #359 ) ;
#120 = ORIENTED_EDGE ( 'NONE', *, *, #99, .F. ) ;
#121 = UNCERTAINTY_MEASURE_WITH_UNIT (LENGTH_MEASURE( 1.000000000000000082E-05 ), #278, 'distance_accuracy_value', 'NONE');
#122 = ADVANCED_BREP_SHAPE_REPRESENTATION ( '59649', ( #38, #42, #119 ), #112 ) ;
#123 = FILL_AREA_STYLE_COLOUR ( '', #332 ) ;
#124 =( NAMED_UNIT ( * ) SI_UNIT ( $, .STERADIAN. ) SOLID_ANGLE_UNIT ( ) );
#125 =( NAMED_UNIT ( * ) SI_UNIT ( $, .STERADIAN. ) SOLID_ANGLE_UNIT ( ) );
#126 = DIRECTION ( 'NONE',  ( -0.000000000000000000, -1.000000000000000000, -0.000000000000000000 ) ) ;
#127 = AXIS2_PLACEMENT_3D ( 'NONE', #52, #157, #154 ) ;
#128 = FILL_AREA_STYLE_COLOUR ( '', #248 ) ;
#129 = CARTESIAN_POINT ( 'NONE',  ( -1.714505518806293652E-15, 89.00000000000000000, 0.000000000000000000 ) ) ;
#130 = CARTESIAN_POINT ( 'NONE',  ( 7.589415207398531038E-15, 30.00000000000000000, 0.000000000000000000 ) ) ;
#131 = DIRECTION ( 'NONE',  ( -0.000000000000000000, -1.000000000000000000, -0.000000000000000000 ) ) ;
#132 = AXIS2_PLACEMENT_3D ( 'NONE', #186, #32, #265 ) ;
#133 =( GEOMETRIC_REPRESENTATION_CONTEXT ( 3 ) GLOBAL_UNCERTAINTY_ASSIGNED_CONTEXT ( ( #348 ) ) GLOBAL_UNIT_ASSIGNED_CONTEXT ( ( #25, #366, #106 ) ) REPRESENTATION_CONTEXT ( 'NONE', 'WORKASPACE' ) );
#134 = FILL_AREA_STYLE ('',( #9 ) ) ;
#135 = PLANE ( 'NONE',  #232 ) ;
#136 = SURFACE_STYLE_USAGE ( .BOTH. , #167 ) ;
#137 = CARTESIAN_POINT ( 'NONE',  ( 10.00000000000000000, 89.00000000000000000, 0.000000000000000000 ) ) ;
#138 = CARTESIAN_POINT ( 'NONE',  ( 7.589415207398531038E-15, 30.00000000000000000, 0.000000000000000000 ) ) ;
#139 = FILL_AREA_STYLE_COLOUR ( '', #333 ) ;
#140 = ORIENTED_EDGE ( 'NONE', *, *, #49, .F. ) ;
#141 = SURFACE_STYLE_USAGE ( .BOTH. , #368 ) ;
#142 = APPLICATION_PROTOCOL_DEFINITION ( 'draft international standard', 'automotive_design', 1998, #263 ) ;
#143 = AXIS2_PLACEMENT_3D ( 'NONE', #62, #70, #24 ) ;
#144 = CLOSED_SHELL ( 'NONE', ( #151, #79, #250, #31 ) ) ;
#145 = MECHANICAL_DESIGN_GEOMETRIC_PRESENTATION_REPRESENTATION (  '', ( #235 ), #364 ) ;
#146 = AXIS2_PLACEMENT_3D ( 'NONE', #13, #191, #227 ) ;
#147 = UNCERTAINTY_MEASURE_WITH_UNIT (LENGTH_MEASURE( 1.000000000000000082E-05 ), #229, 'distance_accuracy_value', 'NONE');
#148 = SURFACE_STYLE_USAGE ( .BOTH. , #153 ) ;
#149 = VERTEX_POINT ( 'NONE', #74 ) ;
#150 =( NAMED_UNIT ( * ) SI_UNIT ( $, .STERADIAN. ) SOLID_ANGLE_UNIT ( ) );
#151 = ADVANCED_FACE ( 'NONE', ( #47 ), #361, .T. ) ;
#152 = ORIENTED_EDGE ( 'NONE', *, *, #297, .F. ) ;
#153 = SURFACE_SIDE_STYLE ('',( #308 ) ) ;
#154 = DIRECTION ( 'NONE',  ( 0.000000000000000000, 0.000000000000000000, -1.000000000000000000 ) ) ;
#155 = FILL_AREA_STYLE ('',( #123 ) ) ;
#156 = CARTESIAN_POINT ( 'NONE',  ( 0.000000000000000000, 0.000000000000000000, 0.000000000000000000 ) ) ;
#157 = DIRECTION ( 'NONE',  ( -0.000000000000000000, -1.000000000000000000, -0.000000000000000000 ) ) ;
#158 = COLOUR_RGB ( '',1.000000000000000000, 0.000000000000000000, 0.000000000000000000 ) ;
#159 = AXIS2_PLACEMENT_3D ( 'NONE', #225, #97, #44 ) ;
#160 = AXIS2_PLACEMENT_3D ( 'NONE', #271, #8, #20 ) ;
#161 = DIRECTION ( 'NONE',  ( 1.000000000000000000, 0.000000000000000000, -1.224646799147353207E-16 ) ) ;
#162 = CARTESIAN_POINT ( 'NONE',  ( -1.714505518806293849E-15, 89.00000000000000000, 0.000000000000000000 ) ) ;
#163 = SURFACE_STYLE_FILL_AREA ( #134 ) ;
#164 =( NAMED_UNIT ( * ) PLANE_ANGLE_UNIT ( ) SI_UNIT ( $, .RADIAN. ) );
#165 = DIRECTION ( 'NONE',  ( 0.000000000000000000, 0.000000000000000000, -1.000000000000000000 ) ) ;
#166 = CARTESIAN_POINT ( 'NONE',  ( 1.224646799147353256E-15, 1.000000000000000000, 10.00000000000000178 ) ) ;
#167 = SURFACE_SIDE_STYLE ('',( #254 ) ) ;
#168 =( NAMED_UNIT ( * ) PLANE_ANGLE_UNIT ( ) SI_UNIT ( $, .RADIAN. ) );
#169 = EDGE_CURVE ( 'NONE', #268, #237, #180, .T. ) ;
#170 = DIRECTION ( 'NONE',  ( -0.000000000000000000, -1.000000000000000000, -0.000000000000000000 ) ) ;
#171 = SURFACE_STYLE_USAGE ( .BOTH. , #311 ) ;
#172 = MECHANICAL_DESIGN_GEOMETRIC_PRESENTATION_REPRESENTATION (  '', ( #356 ), #230 ) ;
#173 = EDGE_CURVE ( 'NONE', #237, #268, #64, .T. ) ;
#174 = ORIENTED_EDGE ( 'NONE', *, *, #90, .T. ) ;
#175 = COLOUR_RGB ( '',1.000000000000000000, 0.000000000000000000, 0.000000000000000000 ) ;
#176 = VERTEX_POINT ( 'NONE', #200 ) ;
#177 = PRESENTATION_STYLE_ASSIGNMENT (( #206 ) ) ;
#178 = VERTEX_POINT ( 'NONE', #287 ) ;
#179 = COLOUR_RGB ( '',0.7921568627450980005, 0.8196078431372548767, 0.9333333333333333481 ) ;
#180 = CIRCLE ( 'NONE', #109, 10.00000000000000000 ) ;
#181 = EDGE_CURVE ( 'NONE', #176, #345, #242, .T. ) ;
#182 = AXIS2_PLACEMENT_3D ( 'NONE', #41, #161, #16 ) ;
#183 = APPLICATION_CONTEXT ( 'automotive_design' ) ;
#184 = ORIENTED_EDGE ( 'NONE', *, *, #262, .T. ) ;
#185 =( NAMED_UNIT ( * ) SI_UNIT ( $, .STERADIAN. ) SOLID_ANGLE_UNIT ( ) );
#186 = CARTESIAN_POINT ( 'NONE',  ( 0.000000000000000000, 0.000000000000000000, 0.000000000000000000 ) ) ;
#187 = DIRECTION ( 'NONE',  ( 0.000000000000000000, 0.000000000000000000, -1.000000000000000000 ) ) ;
#188 = APPLICATION_PROTOCOL_DEFINITION ( 'draft international standard', 'automotive_design', 1998, #183 ) ;
#189 = DIRECTION ( 'NONE',  ( 0.000000000000000000, 0.000000000000000000, -1.000000000000000000 ) ) ;
#190 = AXIS2_PLACEMENT_3D ( 'NONE', #365, #126, #165 ) ;
#191 = DIRECTION ( 'NONE',  ( -0.000000000000000000, -1.000000000000000000, -0.000000000000000000 ) ) ;
#192 = DIRECTION ( 'NONE',  ( -1.000000000000000000, 0.000000000000000000, 0.000000000000000000 ) ) ;
#193 = FILL_AREA_STYLE ('',( #139 ) ) ;
#194 = CARTESIAN_POINT ( 'NONE',  ( 0.000000000000000000, 1.000000000000000000, 0.000000000000000000 ) ) ;
#195 = FILL_AREA_STYLE ('',( #72 ) ) ;
#196 =( NAMED_UNIT ( * ) SI_UNIT ( $, .STERADIAN. ) SOLID_ANGLE_UNIT ( ) );
#197 = FACE_OUTER_BOUND ( 'NONE', #239, .T. ) ;
#198 = PRESENTATION_STYLE_ASSIGNMENT (( #98 ) ) ;
#199 = FILL_AREA_STYLE ('',( #23 ) ) ;
#200 = CARTESIAN_POINT ( 'NONE',  ( -9.999999999999985789, 30.00000000000000000, 0.000000000000000000 ) ) ;
#201 = EDGE_LOOP ( 'NONE', ( #2, #34, #354, #92 ) ) ;
#202 = AXIS2_PLACEMENT_3D ( 'NONE', #228, #337, #339 ) ;
#203 = VERTEX_POINT ( 'NONE', #166 ) ;
#204 = PRESENTATION_LAYER_ASSIGNMENT (  '', '', ( #19 ) ) ;
#205 = COLOUR_RGB ( '',1.000000000000000000, 0.000000000000000000, 0.000000000000000000 ) ;
#206 = SURFACE_STYLE_USAGE ( .BOTH. , #86 ) ;
#207 = ORIENTED_EDGE ( 'NONE', *, *, #322, .T. ) ;
#208 = ORIENTED_EDGE ( 'NONE', *, *, #169, .T. ) ;
#209 =( LENGTH_UNIT ( ) NAMED_UNIT ( * ) SI_UNIT ( .MILLI., .METRE. ) );
#210 = ORIENTED_EDGE ( 'NONE', *, *, #49, .T. ) ;
#211 = FILL_AREA_STYLE ('',( #128 ) ) ;
#212 = PRESENTATION_LAYER_ASSIGNMENT (  '', '', ( #264 ) ) ;
#213 = ORIENTED_EDGE ( 'NONE', *, *, #99, .T. ) ;
#214 =( LENGTH_UNIT ( ) NAMED_UNIT ( * ) SI_UNIT ( .MILLI., .METRE. ) );
#215 = CARTESIAN_POINT ( 'NONE',  ( 0.000000000000000000, 0.000000000000000000, -10.00000000000000178 ) ) ;
#216 = CARTESIAN_POINT ( 'NONE',  ( 0.000000000000000000, 0.000000000000000000, 0.000000000000000000 ) ) ;
#217 = DIRECTION ( 'NONE',  ( -1.576935716305902603E-16, 1.000000000000000000, -0.000000000000000000 ) ) ;
#218 = EDGE_CURVE ( 'NONE', #345, #176, #3, .T. ) ;
#219 =( LENGTH_UNIT ( ) NAMED_UNIT ( * ) SI_UNIT ( .MILLI., .METRE. ) );
#220 = FACE_OUTER_BOUND ( 'NONE', #201, .T. ) ;
#221 = CYLINDRICAL_SURFACE ( 'NONE', #127, 10.00000000000000178 ) ;
#222 = CIRCLE ( 'NONE', #370, 1.000000000000000888 ) ;
#223 = VECTOR ( 'NONE', #101, 1000.000000000000000 ) ;
#224 = PLANE ( 'NONE',  #272 ) ;
#225 = CARTESIAN_POINT ( 'NONE',  ( -1.714505518806293849E-15, 89.00000000000000000, 0.000000000000000000 ) ) ;
#226 = PRESENTATION_STYLE_ASSIGNMENT (( #171 ) ) ;
#227 = DIRECTION ( 'NONE',  ( 0.000000000000000000, 0.000000000000000000, -1.000000000000000000 ) ) ;
#228 = CARTESIAN_POINT ( 'NONE',  ( 0.000000000000000000, 1.000000000000000000, 0.000000000000000000 ) ) ;
#229 =( LENGTH_UNIT ( ) NAMED_UNIT ( * ) SI_UNIT ( .MILLI., .METRE. ) );
#230 =( GEOMETRIC_REPRESENTATION_CONTEXT ( 3 ) GLOBAL_UNCERTAINTY_ASSIGNED_CONTEXT ( ( #244 ) ) GLOBAL_UNIT_ASSIGNED_CONTEXT ( ( #6, #270, #125 ) ) REPRESENTATION_CONTEXT ( 'NONE', 'WORKASPACE' ) );
#231 = AXIS2_PLACEMENT_3D ( 'NONE', #14, #67, #96 ) ;
#232 = AXIS2_PLACEMENT_3D ( 'NONE', #156, #71, #187 ) ;
#233 = PRODUCT ( '59649', '59649', '', ( #75 ) ) ;
#234 = EDGE_LOOP ( 'NONE', ( #301, #4, #247, #240 ) ) ;
#235 = STYLED_ITEM ( 'NONE', ( #103 ), #38 ) ;
#236 =( GEOMETRIC_REPRESENTATION_CONTEXT ( 3 ) GLOBAL_UNCERTAINTY_ASSIGNED_CONTEXT ( ( #56 ) ) GLOBAL_UNIT_ASSIGNED_CONTEXT ( ( #295, #37, #150 ) ) REPRESENTATION_CONTEXT ( 'NONE', 'WORKASPACE' ) );
#237 = VERTEX_POINT ( 'NONE', #258 ) ;
#238 = UNCERTAINTY_MEASURE_WITH_UNIT (LENGTH_MEASURE( 1.000000000000000082E-05 ), #209, 'distance_accuracy_value', 'NONE');
#239 = EDGE_LOOP ( 'NONE', ( #140, #113, #343, #120 ) ) ;
#240 = ORIENTED_EDGE ( 'NONE', *, *, #90, .F. ) ;
#241 = TOROIDAL_SURFACE ( 'NONE', #317, 9.000000000000001776, 1.000000000000000444 ) ;
#242 = CIRCLE ( 'NONE', #68, 9.999999999999992895 ) ;
#243 = LINE ( 'NONE', #215, #29 ) ;
#244 = UNCERTAINTY_MEASURE_WITH_UNIT (LENGTH_MEASURE( 1.000000000000000082E-05 ), #6, 'distance_accuracy_value', 'NONE');
#245 = EDGE_LOOP ( 'NONE', ( #114, #210, #7, #36 ) ) ;
#246 = SURFACE_STYLE_USAGE ( .BOTH. , #353 ) ;
#247 = ORIENTED_EDGE ( 'NONE', *, *, #363, .F. ) ;
#248 = COLOUR_RGB ( '',1.000000000000000000, 0.000000000000000000, 0.000000000000000000 ) ;
#249 = DIRECTION ( 'NONE',  ( -1.000000000000000000, 0.000000000000000000, 0.000000000000000000 ) ) ;
#250 = ADVANCED_FACE ( 'NONE', ( #197 ), #252, .T. ) ;
#251 = DIRECTION ( 'NONE',  ( -1.000000000000000000, 0.000000000000000000, 0.000000000000000000 ) ) ;
#252 = CYLINDRICAL_SURFACE ( 'NONE', #159, 9.999999999999998224 ) ;
#253 = CARTESIAN_POINT ( 'NONE',  ( 10.00000000000000000, 30.00000000000000000, 1.224646799147353256E-15 ) ) ;
#254 = SURFACE_STYLE_FILL_AREA ( #281 ) ;
#255 = TOROIDAL_SURFACE ( 'NONE', #202, 9.000000000000001776, 1.000000000000000444 ) ;
#256 = CARTESIAN_POINT ( 'NONE',  ( 10.00000000000000000, 89.00000000000000000, 1.224646799147353256E-15 ) ) ;
#257 = SURFACE_SIDE_STYLE ('',( #285 ) ) ;
#258 = CARTESIAN_POINT ( 'NONE',  ( 0.000000000000000000, 30.00000000000000000, -10.00000000000000000 ) ) ;
#259 = FILL_AREA_STYLE ('',( #338 ) ) ;
#260 = PLANE ( 'NONE',  #87 ) ;
#261 =( GEOMETRIC_REPRESENTATION_CONTEXT ( 3 ) GLOBAL_UNCERTAINTY_ASSIGNED_CONTEXT ( ( #121 ) ) GLOBAL_UNIT_ASSIGNED_CONTEXT ( ( #278, #17, #45 ) ) REPRESENTATION_CONTEXT ( 'NONE', 'WORKASPACE' ) );
#262 = EDGE_CURVE ( 'NONE', #149, #65, #222, .T. ) ;
#263 = APPLICATION_CONTEXT ( 'automotive_design' ) ;
#264 = STYLED_ITEM ( 'NONE', ( #226 ), #42 ) ;
#265 = DIRECTION ( 'NONE',  ( 0.000000000000000000, 0.000000000000000000, -1.000000000000000000 ) ) ;
#266 = EDGE_LOOP ( 'NONE', ( #63, #55 ) ) ;
#267 = MECHANICAL_DESIGN_GEOMETRIC_PRESENTATION_REPRESENTATION (  '', ( #19 ), #350 ) ;
#268 = VERTEX_POINT ( 'NONE', #367 ) ;
#269 = PRESENTATION_LAYER_ASSIGNMENT (  '', '', ( #54 ) ) ;
#270 =( NAMED_UNIT ( * ) PLANE_ANGLE_UNIT ( ) SI_UNIT ( $, .RADIAN. ) );
#271 = CARTESIAN_POINT ( 'NONE',  ( 0.000000000000000000, 0.000000000000000000, 0.000000000000000000 ) ) ;
#272 = AXIS2_PLACEMENT_3D ( 'NONE', #137, #334, #66 ) ;
#273 = FACE_OUTER_BOUND ( 'NONE', #89, .T. ) ;
#274 = CIRCLE ( 'NONE', #146, 10.00000000000000178 ) ;
#275 = DIRECTION ( 'NONE',  ( 0.000000000000000000, 0.000000000000000000, 1.000000000000000000 ) ) ;
#276 =( LENGTH_UNIT ( ) NAMED_UNIT ( * ) SI_UNIT ( .MILLI., .METRE. ) );
#277 =( NAMED_UNIT ( * ) PLANE_ANGLE_UNIT ( ) SI_UNIT ( $, .RADIAN. ) );
#278 =( LENGTH_UNIT ( ) NAMED_UNIT ( * ) SI_UNIT ( .MILLI., .METRE. ) );
#279 = ADVANCED_FACE ( 'NONE', ( #220 ), #255, .T. ) ;
#280 = LINE ( 'NONE', #104, #57 ) ;
#281 = FILL_AREA_STYLE ('',( #107 ) ) ;
#282 = MECHANICAL_DESIGN_GEOMETRIC_PRESENTATION_REPRESENTATION (  '', ( #54 ), #318 ) ;
#283 = SURFACE_STYLE_USAGE ( .BOTH. , #12 ) ;
#284 = CARTESIAN_POINT ( 'NONE',  ( 0.000000000000000000, 30.00000000000000000, 0.000000000000000000 ) ) ;
#285 = SURFACE_STYLE_FILL_AREA ( #259 ) ;
#286 = DIRECTION ( 'NONE',  ( 0.000000000000000000, 0.000000000000000000, -1.000000000000000000 ) ) ;
#287 = CARTESIAN_POINT ( 'NONE',  ( 1.163414459189985682E-15, 0.000000000000000000, 9.000000000000001776 ) ) ;
#288 = DIRECTION ( 'NONE',  ( -1.576935716305902603E-16, 1.000000000000000000, -0.000000000000000000 ) ) ;
#289 = AXIS2_PLACEMENT_3D ( 'NONE', #138, #303, #249 ) ;
#290 = PRESENTATION_LAYER_ASSIGNMENT (  '', '', ( #325 ) ) ;
#291 = PRODUCT_RELATED_PRODUCT_CATEGORY ( 'part', '', ( #233 ) ) ;
#292 = ADVANCED_FACE ( 'NONE', ( #315 ), #135, .T. ) ;
#293 = MECHANICAL_DESIGN_GEOMETRIC_PRESENTATION_REPRESENTATION (  '', ( #312 ), #236 ) ;
#294 = VERTEX_POINT ( 'NONE', #256 ) ;
#295 =( LENGTH_UNIT ( ) NAMED_UNIT ( * ) SI_UNIT ( .MILLI., .METRE. ) );
#296 = ORIENTED_EDGE ( 'NONE', *, *, #173, .F. ) ;
#297 = EDGE_CURVE ( 'NONE', #268, #203, #94, .T. ) ;
#298 = CLOSED_SHELL ( 'NONE', ( #15, #279, #292, #35, #83, #95 ) ) ;
#299 = CIRCLE ( 'NONE', #231, 10.00000000000000178 ) ;
#300 = UNCERTAINTY_MEASURE_WITH_UNIT (LENGTH_MEASURE( 1.000000000000000082E-05 ), #219, 'distance_accuracy_value', 'NONE');
#301 = ORIENTED_EDGE ( 'NONE', *, *, #173, .T. ) ;
#302 = FACE_OUTER_BOUND ( 'NONE', #117, .T. ) ;
#303 = DIRECTION ( 'NONE',  ( -1.576935716305902603E-16, 1.000000000000000000, -0.000000000000000000 ) ) ;
#304 = STYLED_ITEM ( 'NONE', ( #198 ), #83 ) ;
#305 =( NAMED_UNIT ( * ) SI_UNIT ( $, .STERADIAN. ) SOLID_ANGLE_UNIT ( ) );
#306 = AXIS2_PLACEMENT_3D ( 'NONE', #194, #46, #69 ) ;
#307 = DIRECTION ( 'NONE',  ( -1.576935716305902603E-16, 1.000000000000000000, -0.000000000000000000 ) ) ;
#308 = SURFACE_STYLE_FILL_AREA ( #195 ) ;
#309 = DIRECTION ( 'NONE',  ( -1.576935716305902603E-16, 1.000000000000000000, 0.000000000000000000 ) ) ;
#310 = CARTESIAN_POINT ( 'NONE',  ( 0.000000000000000000, 30.00000000000000000, 0.000000000000000000 ) ) ;
#311 = SURFACE_SIDE_STYLE ('',( #78 ) ) ;
#312 = STYLED_ITEM ( 'NONE', ( #177 ), #95 ) ;
#313 =( GEOMETRIC_REPRESENTATION_CONTEXT ( 3 ) GLOBAL_UNCERTAINTY_ASSIGNED_CONTEXT ( ( #238 ) ) GLOBAL_UNIT_ASSIGNED_CONTEXT ( ( #209, #115, #124 ) ) REPRESENTATION_CONTEXT ( 'NONE', 'WORKASPACE' ) );
#314 = CARTESIAN_POINT ( 'NONE',  ( 0.000000000000000000, 1.000000000000000000, 0.000000000000000000 ) ) ;
#315 = FACE_OUTER_BOUND ( 'NONE', #85, .T. ) ;
#316 = SHAPE_DEFINITION_REPRESENTATION ( #28, #122 ) ;
#317 = AXIS2_PLACEMENT_3D ( 'NONE', #314, #170, #286 ) ;
#318 =( GEOMETRIC_REPRESENTATION_CONTEXT ( 3 ) GLOBAL_UNCERTAINTY_ASSIGNED_CONTEXT ( ( #116 ) ) GLOBAL_UNIT_ASSIGNED_CONTEXT ( ( #276, #164, #360 ) ) REPRESENTATION_CONTEXT ( 'NONE', 'WORKASPACE' ) );
#319 = EDGE_CURVE ( 'NONE', #203, #149, #110, .T. ) ;
#320 = PRODUCT_DEFINITION_CONTEXT ( 'detailed design', #263, 'design' ) ;
#321 = EDGE_LOOP ( 'NONE', ( #152, #208, #174, #59 ) ) ;
#322 = EDGE_CURVE ( 'NONE', #178, #65, #82, .T. ) ;
#323 = CYLINDRICAL_SURFACE ( 'NONE', #132, 10.00000000000000178 ) ;
#324 = EDGE_LOOP ( 'NONE', ( #80, #1, #184, #93 ) ) ;
#325 = STYLED_ITEM ( 'NONE', ( #5 ), #292 ) ;
#326 = SURFACE_STYLE_FILL_AREA ( #211 ) ;
#327 = PRODUCT_DEFINITION ( 'UNKNOWN', '', #88, #320 ) ;
#328 = PRESENTATION_STYLE_ASSIGNMENT (( #246 ) ) ;
#329 = DIRECTION ( 'NONE',  ( -1.576935716305902603E-16, 1.000000000000000000, -0.000000000000000000 ) ) ;
#330 = DIRECTION ( 'NONE',  ( -0.000000000000000000, -1.000000000000000000, -0.000000000000000000 ) ) ;
#331 = CARTESIAN_POINT ( 'NONE',  ( 1.224646799147353454E-15, 0.000000000000000000, 10.00000000000000178 ) ) ;
#332 = COLOUR_RGB ( '',1.000000000000000000, 0.000000000000000000, 0.000000000000000000 ) ;
#333 = COLOUR_RGB ( '',0.7921568627450980005, 0.8196078431372548767, 0.9333333333333333481 ) ;
#334 = DIRECTION ( 'NONE',  ( 1.576935716305902603E-16, -1.000000000000000000, 0.000000000000000000 ) ) ;
#335 = EDGE_CURVE ( 'NONE', #203, #178, #341, .T. ) ;
#336 = CARTESIAN_POINT ( 'NONE',  ( 0.000000000000000000, 0.000000000000000000, -9.000000000000001776 ) ) ;
#337 = DIRECTION ( 'NONE',  ( -0.000000000000000000, -1.000000000000000000, -0.000000000000000000 ) ) ;
#338 = FILL_AREA_STYLE_COLOUR ( '', #175 ) ;
#339 = DIRECTION ( 'NONE',  ( 0.000000000000000000, 0.000000000000000000, -1.000000000000000000 ) ) ;
#340 = CARTESIAN_POINT ( 'NONE',  ( 7.589415207398531038E-15, 30.00000000000000000, 0.000000000000000000 ) ) ;
#341 = CIRCLE ( 'NONE', #182, 1.000000000000000888 ) ;
#342 = FACE_OUTER_BOUND ( 'NONE', #266, .T. ) ;
#343 = ORIENTED_EDGE ( 'NONE', *, *, #27, .T. ) ;
#344 = EDGE_CURVE ( 'NONE', #65, #178, #40, .T. ) ;
#345 = VERTEX_POINT ( 'NONE', #253 ) ;
#346 = PRESENTATION_LAYER_ASSIGNMENT (  '', '', ( #356 ) ) ;
#347 = PRESENTATION_LAYER_ASSIGNMENT (  '', '', ( #235 ) ) ;
#348 = UNCERTAINTY_MEASURE_WITH_UNIT (LENGTH_MEASURE( 1.000000000000000082E-05 ), #25, 'distance_accuracy_value', 'NONE');
#349 = ORIENTED_EDGE ( 'NONE', *, *, #344, .T. ) ;
#350 =( GEOMETRIC_REPRESENTATION_CONTEXT ( 3 ) GLOBAL_UNCERTAINTY_ASSIGNED_CONTEXT ( ( #300 ) ) GLOBAL_UNIT_ASSIGNED_CONTEXT ( ( #219, #73, #196 ) ) REPRESENTATION_CONTEXT ( 'NONE', 'WORKASPACE' ) );
#351 = PRESENTATION_LAYER_ASSIGNMENT (  '', '', ( #304 ) ) ;
#352 = ORIENTED_EDGE ( 'NONE', *, *, #355, .T. ) ;
#353 = SURFACE_SIDE_STYLE ('',( #61 ) ) ;
#354 = ORIENTED_EDGE ( 'NONE', *, *, #344, .F. ) ;
#355 = EDGE_CURVE ( 'NONE', #81, #294, #100, .T. ) ;
#356 = STYLED_ITEM ( 'NONE', ( #328 ), #15 ) ;
#357 = ORIENTED_EDGE ( 'NONE', *, *, #169, .F. ) ;
#358 = MECHANICAL_DESIGN_GEOMETRIC_PRESENTATION_REPRESENTATION (  '', ( #264 ), #261 ) ;
#359 = DIRECTION ( 'NONE',  ( 1.000000000000000000, 0.000000000000000000, 0.000000000000000000 ) ) ;
#360 =( NAMED_UNIT ( * ) SI_UNIT ( $, .STERADIAN. ) SOLID_ANGLE_UNIT ( ) );
#361 = CYLINDRICAL_SURFACE ( 'NONE', #58, 9.999999999999998224 ) ;
#362 = CARTESIAN_POINT ( 'NONE',  ( 9.999999999999996447, 89.00000000000000000, 1.224646799147353059E-15 ) ) ;
#363 = EDGE_CURVE ( 'NONE', #149, #203, #274, .T. ) ;
#364 =( GEOMETRIC_REPRESENTATION_CONTEXT ( 3 ) GLOBAL_UNCERTAINTY_ASSIGNED_CONTEXT ( ( #147 ) ) GLOBAL_UNIT_ASSIGNED_CONTEXT ( ( #229, #168, #305 ) ) REPRESENTATION_CONTEXT ( 'NONE', 'WORKASPACE' ) );
#365 = CARTESIAN_POINT ( 'NONE',  ( 0.000000000000000000, 0.000000000000000000, 0.000000000000000000 ) ) ;
#366 =( NAMED_UNIT ( * ) PLANE_ANGLE_UNIT ( ) SI_UNIT ( $, .RADIAN. ) );
#367 = CARTESIAN_POINT ( 'NONE',  ( 1.224646799147353256E-15, 30.00000000000000000, 10.00000000000000000 ) ) ;
#368 = SURFACE_SIDE_STYLE ('',( #108 ) ) ;
#369 = FACE_OUTER_BOUND ( 'NONE', #321, .T. ) ;
#370 = AXIS2_PLACEMENT_3D ( 'NONE', #43, #77, #51 ) ;
ENDSEC;
END-ISO-10303-21;
