ISO-10303-21;
HEADER;
FILE_DESCRIPTION (( 'STEP AP214' ),
    '1' );
FILE_NAME ('Micro_DM-312-490.STEP',
    '2021-09-02T16:03:28',
    ( '' ),
    ( '' ),
    'SwSTEP 2.0',
    'SolidWorks 2020',
    '' );
FILE_SCHEMA (( 'AUTOMOTIVE_DESIGN' ));
ENDSEC;

DATA;
#1 = EDGE_LOOP ( 'NONE', ( #31, #87, #117, #237 ) ) ;
#2 = FACE_BOUND ( 'NONE', #15, .T. ) ;
#3 = AXIS2_PLACEMENT_3D ( 'NONE', #162, #234, #208 ) ;
#4 = PRODUCT_DEFINITION_SHAPE ( 'NONE', 'NONE',  #228 ) ;
#5 = VERTEX_POINT ( 'NONE', #61 ) ;
#6 = ORIENTED_EDGE ( 'NONE', *, *, #53, .T. ) ;
#7 = APPLICATION_PROTOCOL_DEFINITION ( 'draft international standard', 'automotive_design', 1998, #253 ) ;
#8 = ORIENTED_EDGE ( 'NONE', *, *, #105, .T. ) ;
#9 = EDGE_CURVE ( 'NONE', #258, #108, #130, .T. ) ;
#10 = ADVANCED_FACE ( 'NONE', ( #240 ), #112, .T. ) ;
#11 = DIRECTION ( 'NONE',  ( 1.000000000000000000, 0.0000000000000000000, 0.0000000000000000000 ) ) ;
#12 = ADVANCED_BREP_SHAPE_REPRESENTATION ( 'Micro_DM-312-490', ( #88, #37 ), #29 ) ;
#13 = AXIS2_PLACEMENT_3D ( 'NONE', #71, #46, #274 ) ;
#14 = ORIENTED_EDGE ( 'NONE', *, *, #44, .T. ) ;
#15 = EDGE_LOOP ( 'NONE', ( #63, #232 ) ) ;
#16 = CARTESIAN_POINT ( 'NONE',  ( 0.0000000000000000000, 0.0000000000000000000, 2.484999999999999432 ) ) ;
#17 = AXIS2_PLACEMENT_3D ( 'NONE', #16, #69, #143 ) ;
#18 = DIRECTION ( 'NONE',  ( -1.000000000000000000, 0.0000000000000000000, 0.0000000000000000000 ) ) ;
#19 = CARTESIAN_POINT ( 'NONE',  ( 0.0000000000000000000, 0.0000000000000000000, 2.500000000000000000 ) ) ;
#20 = DIRECTION ( 'NONE',  ( -0.0000000000000000000, -0.0000000000000000000, -1.000000000000000000 ) ) ;
#21 = CARTESIAN_POINT ( 'NONE',  ( 0.0000000000000000000, 0.0000000000000000000, 1.707404996040164512E-17 ) ) ;
#22 = UNCERTAINTY_MEASURE_WITH_UNIT (LENGTH_MEASURE( 1.000000000000000082E-05 ), #84, 'distance_accuracy_value', 'NONE');
#23 = CARTESIAN_POINT ( 'NONE',  ( 0.1562500000000000000, 1.913510623667739463E-17, 0.8129999999999997229 ) ) ;
#24 = CARTESIAN_POINT ( 'NONE',  ( 0.0000000000000000000, 0.0000000000000000000, 2.500000000000000000 ) ) ;
#25 = AXIS2_PLACEMENT_3D ( 'NONE', #24, #176, #51 ) ;
#26 = DIRECTION ( 'NONE',  ( 1.000000000000000000, 0.0000000000000000000, 0.0000000000000000000 ) ) ;
#27 = DIRECTION ( 'NONE',  ( -0.7071067811865410224, 0.0000000000000000000, -0.7071067811865539010 ) ) ;
#28 = ORIENTED_EDGE ( 'NONE', *, *, #153, .T. ) ;
#29 =( GEOMETRIC_REPRESENTATION_CONTEXT ( 3 ) GLOBAL_UNCERTAINTY_ASSIGNED_CONTEXT ( ( #315 ) ) GLOBAL_UNIT_ASSIGNED_CONTEXT ( ( #32, #307, #116 ) ) REPRESENTATION_CONTEXT ( 'NONE', 'WORKASPACE' ) );
#30 = DIRECTION ( 'NONE',  ( -0.0000000000000000000, -0.0000000000000000000, -1.000000000000000000 ) ) ;
#31 = ORIENTED_EDGE ( 'NONE', *, *, #276, .F. ) ;
#32 =( CONVERSION_BASED_UNIT ( 'INCH', #58 ) LENGTH_UNIT ( ) NAMED_UNIT ( #133 ) );
#33 = EDGE_LOOP ( 'NONE', ( #314, #28, #279, #265 ) ) ;
#34 = ORIENTED_EDGE ( 'NONE', *, *, #75, .F. ) ;
#35 = APPLICATION_PROTOCOL_DEFINITION ( 'draft international standard', 'automotive_design', 1998, #320 ) ;
#36 = DIRECTION ( 'NONE',  ( 0.0000000000000000000, 0.0000000000000000000, 1.000000000000000000 ) ) ;
#37 = AXIS2_PLACEMENT_3D ( 'NONE', #141, #89, #11 ) ;
#38 = ORIENTED_EDGE ( 'NONE', *, *, #66, .T. ) ;
#39 = EDGE_CURVE ( 'NONE', #260, #235, #316, .T. ) ;
#40 =( NAMED_UNIT ( * ) SI_UNIT ( $, .STERADIAN. ) SOLID_ANGLE_UNIT ( ) );
#41 = DIRECTION ( 'NONE',  ( -0.0000000000000000000, -0.0000000000000000000, -1.000000000000000000 ) ) ;
#42 = AXIS2_PLACEMENT_3D ( 'NONE', #173, #43, #146 ) ;
#43 = DIRECTION ( 'NONE',  ( -0.0000000000000000000, -0.0000000000000000000, -1.000000000000000000 ) ) ;
#44 = EDGE_CURVE ( 'NONE', #235, #214, #280, .T. ) ;
#45 = LINE ( 'NONE', #300, #251 ) ;
#46 = DIRECTION ( 'NONE',  ( -0.0000000000000000000, -0.0000000000000000000, -1.000000000000000000 ) ) ;
#47 = LINE ( 'NONE', #249, #247 ) ;
#48 = CARTESIAN_POINT ( 'NONE',  ( 0.0000000000000000000, 0.0000000000000000000, 2.500000000000000000 ) ) ;
#49 = CYLINDRICAL_SURFACE ( 'NONE', #25, 0.1562500000000000000 ) ;
#50 = PRESENTATION_LAYER_ASSIGNMENT (  '', '', ( #178 ) ) ;
#51 = DIRECTION ( 'NONE',  ( -1.000000000000000000, 0.0000000000000000000, 0.0000000000000000000 ) ) ;
#52 = ORIENTED_EDGE ( 'NONE', *, *, #220, .T. ) ;
#53 = EDGE_CURVE ( 'NONE', #287, #103, #160, .T. ) ;
#54 = ORIENTED_EDGE ( 'NONE', *, *, #219, .F. ) ;
#55 = CIRCLE ( 'NONE', #42, 0.007499999999999999722 ) ;
#56 = DIRECTION ( 'NONE',  ( -1.000000000000000000, 0.0000000000000000000, 0.0000000000000000000 ) ) ;
#57 = EDGE_LOOP ( 'NONE', ( #85, #204, #82, #34 ) ) ;
#58 = LENGTH_MEASURE_WITH_UNIT ( LENGTH_MEASURE( 0.02539999999999999897 ), #209 );
#59 = EDGE_LOOP ( 'NONE', ( #190, #8 ) ) ;
#60 = DIMENSIONAL_EXPONENTS ( 1.000000000000000000, 0.0000000000000000000, 0.0000000000000000000, 0.0000000000000000000, 0.0000000000000000000, 0.0000000000000000000, 0.0000000000000000000 ) ;
#61 = CARTESIAN_POINT ( 'NONE',  ( -0.007499999999999999722, 1.002373405102108630E-17, 1.707404996040164512E-17 ) ) ;
#62 = VECTOR ( 'NONE', #180, 39.37007874015748143 ) ;
#63 = ORIENTED_EDGE ( 'NONE', *, *, #183, .F. ) ;
#64 = CARTESIAN_POINT ( 'NONE',  ( 0.0000000000000000000, 0.0000000000000000000, 0.0000000000000000000 ) ) ;
#65 = DIRECTION ( 'NONE',  ( 1.000000000000000000, 0.0000000000000000000, 0.0000000000000000000 ) ) ;
#66 = EDGE_CURVE ( 'NONE', #191, #184, #292, .T. ) ;
#67 = AXIS2_PLACEMENT_3D ( 'NONE', #203, #98, #281 ) ;
#68 =( GEOMETRIC_REPRESENTATION_CONTEXT ( 3 ) GLOBAL_UNCERTAINTY_ASSIGNED_CONTEXT ( ( #22 ) ) GLOBAL_UNIT_ASSIGNED_CONTEXT ( ( #84, #164, #111 ) ) REPRESENTATION_CONTEXT ( 'NONE', 'WORKASPACE' ) );
#69 = DIRECTION ( 'NONE',  ( 0.0000000000000000000, 0.0000000000000000000, -1.000000000000000000 ) ) ;
#70 = DIRECTION ( 'NONE',  ( -1.000000000000000000, 0.0000000000000000000, 0.0000000000000000000 ) ) ;
#71 = CARTESIAN_POINT ( 'NONE',  ( 0.0000000000000000000, 0.0000000000000000000, 0.0000000000000000000 ) ) ;
#72 = CARTESIAN_POINT ( 'NONE',  ( -0.1412499999999994871, 0.0000000000000000000, 2.500000000000000000 ) ) ;
#73 = LINE ( 'NONE', #72, #196 ) ;
#74 = CYLINDRICAL_SURFACE ( 'NONE', #67, 0.1562000000000000333 ) ;
#75 = EDGE_CURVE ( 'NONE', #184, #191, #207, .T. ) ;
#76 = AXIS2_PLACEMENT_3D ( 'NONE', #64, #218, #244 ) ;
#77 = COLOUR_RGB ( '',0.7921568627450980005, 0.8196078431372548767, 0.9333333333333333481 ) ;
#78 = DIRECTION ( 'NONE',  ( -0.0000000000000000000, 0.0000000000000000000, -1.000000000000000000 ) ) ;
#79 = ORIENTED_EDGE ( 'NONE', *, *, #158, .F. ) ;
#80 = UNCERTAINTY_MEASURE_WITH_UNIT (LENGTH_MEASURE( 1.000000000000000082E-05 ), #119, 'distance_accuracy_value', 'NONE');
#81 =( LENGTH_UNIT ( ) NAMED_UNIT ( * ) SI_UNIT ( $, .METRE. ) );
#82 = ORIENTED_EDGE ( 'NONE', *, *, #278, .T. ) ;
#83 = AXIS2_PLACEMENT_3D ( 'NONE', #95, #197, #296 ) ;
#84 =( CONVERSION_BASED_UNIT ( 'INCH', #185 ) LENGTH_UNIT ( ) NAMED_UNIT ( #60 ) );
#85 = ORIENTED_EDGE ( 'NONE', *, *, #165, .F. ) ;
#86 = FILL_AREA_STYLE ('',( #113 ) ) ;
#87 = ORIENTED_EDGE ( 'NONE', *, *, #219, .T. ) ;
#88 = MANIFOLD_SOLID_BREP ( 'Cut-Revolve4', #269 ) ;
#89 = DIRECTION ( 'NONE',  ( 0.0000000000000000000, 0.0000000000000000000, 1.000000000000000000 ) ) ;
#90 = CARTESIAN_POINT ( 'NONE',  ( 0.007499999999999999722, 0.0000000000000000000, 1.707404996040164512E-17 ) ) ;
#91 =( GEOMETRIC_REPRESENTATION_CONTEXT ( 3 ) GLOBAL_UNCERTAINTY_ASSIGNED_CONTEXT ( ( #80 ) ) GLOBAL_UNIT_ASSIGNED_CONTEXT ( ( #119, #93, #40 ) ) REPRESENTATION_CONTEXT ( 'NONE', 'WORKASPACE' ) );
#92 = DIRECTION ( 'NONE',  ( -0.0000000000000000000, -0.0000000000000000000, -1.000000000000000000 ) ) ;
#93 =( NAMED_UNIT ( * ) PLANE_ANGLE_UNIT ( ) SI_UNIT ( $, .RADIAN. ) );
#94 = ADVANCED_FACE ( 'NONE', ( #318 ), #170, .F. ) ;
#95 = CARTESIAN_POINT ( 'NONE',  ( 0.0000000000000000000, 0.0000000000000000000, 0.1486999999999994160 ) ) ;
#96 = CONICAL_SURFACE ( 'NONE', #299, 0.1412499999999994871, 0.7853981633974391752 ) ;
#97 = PRESENTATION_STYLE_ASSIGNMENT (( #145 ) ) ;
#98 = DIRECTION ( 'NONE',  ( -0.0000000000000000000, -0.0000000000000000000, -1.000000000000000000 ) ) ;
#99 = EDGE_CURVE ( 'NONE', #159, #214, #195, .T. ) ;
#100 = CARTESIAN_POINT ( 'NONE',  ( 0.0000000000000000000, 0.0000000000000000000, 1.707404996040164512E-17 ) ) ;
#101 = AXIS2_PLACEMENT_3D ( 'NONE', #241, #41, #18 ) ;
#102 = CARTESIAN_POINT ( 'NONE',  ( 0.1412499999999994871, 1.729813603795630110E-17, 2.500000000000000000 ) ) ;
#103 = VERTEX_POINT ( 'NONE', #267 ) ;
#104 = EDGE_CURVE ( 'NONE', #103, #287, #327, .T. ) ;
#105 = EDGE_CURVE ( 'NONE', #5, #260, #55, .T. ) ;
#106 = CARTESIAN_POINT ( 'NONE',  ( 0.1562000000000000888, 1.912898300268166897E-17, 0.8129999999999999449 ) ) ;
#107 = FACE_OUTER_BOUND ( 'NONE', #154, .T. ) ;
#108 = VERTEX_POINT ( 'NONE', #266 ) ;
#109 = CONICAL_SURFACE ( 'NONE', #149, 0.1412499999999994871, 0.7853981633974391752 ) ;
#110 = EDGE_LOOP ( 'NONE', ( #138, #163 ) ) ;
#111 =( NAMED_UNIT ( * ) SI_UNIT ( $, .STERADIAN. ) SOLID_ANGLE_UNIT ( ) );
#112 = CYLINDRICAL_SURFACE ( 'NONE', #273, 0.1562500000000000000 ) ;
#113 = FILL_AREA_STYLE_COLOUR ( '', #77 ) ;
#114 = ORIENTED_EDGE ( 'NONE', *, *, #75, .T. ) ;
#115 = AXIS2_PLACEMENT_3D ( 'NONE', #127, #277, #155 ) ;
#116 =( NAMED_UNIT ( * ) SI_UNIT ( $, .STERADIAN. ) SOLID_ANGLE_UNIT ( ) );
#117 = ORIENTED_EDGE ( 'NONE', *, *, #53, .F. ) ;
#118 = CARTESIAN_POINT ( 'NONE',  ( 0.0000000000000000000, 0.0000000000000000000, 2.500000000000000000 ) ) ;
#119 =( CONVERSION_BASED_UNIT ( 'INCH', #297 ) LENGTH_UNIT ( ) NAMED_UNIT ( #257 ) );
#120 = AXIS2_PLACEMENT_3D ( 'NONE', #194, #169, #65 ) ;
#121 = LINE ( 'NONE', #217, #192 ) ;
#122 = ADVANCED_FACE ( 'NONE', ( #245 ), #242, .T. ) ;
#123 = CARTESIAN_POINT ( 'NONE',  ( 0.0000000000000000000, 0.0000000000000000000, 0.8129999999999997229 ) ) ;
#124 = DIRECTION ( 'NONE',  ( 0.0000000000000000000, 0.0000000000000000000, 1.000000000000000000 ) ) ;
#125 = SURFACE_STYLE_FILL_AREA ( #246 ) ;
#126 = VECTOR ( 'NONE', #174, 39.37007874015748143 ) ;
#127 = CARTESIAN_POINT ( 'NONE',  ( 0.0000000000000000000, 0.0000000000000000000, 0.8129999999999999449 ) ) ;
#128 = CARTESIAN_POINT ( 'NONE',  ( -0.1562500000000000000, 0.0000000000000000000, 0.8129999999999997229 ) ) ;
#129 = DIRECTION ( 'NONE',  ( 0.0000000000000000000, 0.0000000000000000000, -1.000000000000000000 ) ) ;
#130 = CIRCLE ( 'NONE', #147, 0.1412499999999994871 ) ;
#131 = VECTOR ( 'NONE', #157, 39.37007874015748854 ) ;
#132 = FACE_OUTER_BOUND ( 'NONE', #304, .T. ) ;
#133 = DIMENSIONAL_EXPONENTS ( 1.000000000000000000, 0.0000000000000000000, 0.0000000000000000000, 0.0000000000000000000, 0.0000000000000000000, 0.0000000000000000000, 0.0000000000000000000 ) ;
#134 = FACE_OUTER_BOUND ( 'NONE', #57, .T. ) ;
#135 = SURFACE_STYLE_FILL_AREA ( #86 ) ;
#136 = AXIS2_PLACEMENT_3D ( 'NONE', #294, #92, #70 ) ;
#137 = EDGE_LOOP ( 'NONE', ( #233, #291, #139, #230 ) ) ;
#138 = ORIENTED_EDGE ( 'NONE', *, *, #9, .T. ) ;
#139 = ORIENTED_EDGE ( 'NONE', *, *, #99, .T. ) ;
#140 = CIRCLE ( 'NONE', #161, 0.1412499999999994871 ) ;
#141 = CARTESIAN_POINT ( 'NONE',  ( 0.0000000000000000000, 0.0000000000000000000, 0.0000000000000000000 ) ) ;
#142 = DIRECTION ( 'NONE',  ( 1.000000000000000000, 0.0000000000000000000, 0.0000000000000000000 ) ) ;
#143 = DIRECTION ( 'NONE',  ( 1.000000000000000000, 0.0000000000000000000, 0.0000000000000000000 ) ) ;
#144 = COLOUR_RGB ( '',0.7921568627450980005, 0.8196078431372548767, 0.9333333333333333481 ) ;
#145 = SURFACE_STYLE_USAGE ( .BOTH. , #270 ) ;
#146 = DIRECTION ( 'NONE',  ( -1.000000000000000000, 0.0000000000000000000, 0.0000000000000000000 ) ) ;
#147 = AXIS2_PLACEMENT_3D ( 'NONE', #290, #36, #142 ) ;
#148 = DIRECTION ( 'NONE',  ( -1.000000000000000000, 0.0000000000000000000, 0.0000000000000000000 ) ) ;
#149 = AXIS2_PLACEMENT_3D ( 'NONE', #283, #285, #56 ) ;
#150 = MECHANICAL_DESIGN_GEOMETRIC_PRESENTATION_REPRESENTATION (  '', ( #178 ), #68 ) ;
#151 = FACE_OUTER_BOUND ( 'NONE', #33, .T. ) ;
#152 = DIRECTION ( 'NONE',  ( 0.0000000000000000000, 0.0000000000000000000, 1.000000000000000000 ) ) ;
#153 = EDGE_CURVE ( 'NONE', #5, #214, #121, .T. ) ;
#154 = EDGE_LOOP ( 'NONE', ( #38, #114 ) ) ;
#155 = DIRECTION ( 'NONE',  ( -1.000000000000000000, 0.0000000000000000000, 0.0000000000000000000 ) ) ;
#156 = PRODUCT_DEFINITION_FORMATION_WITH_SPECIFIED_SOURCE ( 'ANY', '', #325, .NOT_KNOWN. ) ;
#157 = DIRECTION ( 'NONE',  ( 0.7071067811865410224, 8.659560562354852739E-17, -0.7071067811865539010 ) ) ;
#158 = EDGE_CURVE ( 'NONE', #214, #235, #243, .T. ) ;
#159 = VERTEX_POINT ( 'NONE', #271 ) ;
#160 = CIRCLE ( 'NONE', #17, 0.1562500000000000000 ) ;
#161 = AXIS2_PLACEMENT_3D ( 'NONE', #48, #252, #26 ) ;
#162 = CARTESIAN_POINT ( 'NONE',  ( 0.0000000000000000000, 0.0000000000000000000, 1.707404996040164512E-17 ) ) ;
#163 = ORIENTED_EDGE ( 'NONE', *, *, #276, .T. ) ;
#164 =( NAMED_UNIT ( * ) PLANE_ANGLE_UNIT ( ) SI_UNIT ( $, .RADIAN. ) );
#165 = EDGE_CURVE ( 'NONE', #103, #184, #45, .T. ) ;
#166 = ORIENTED_EDGE ( 'NONE', *, *, #183, .T. ) ;
#167 = ORIENTED_EDGE ( 'NONE', *, *, #153, .F. ) ;
#168 = DIRECTION ( 'NONE',  ( 0.7071067811865489050, 0.0000000000000000000, 0.7071067811865461294 ) ) ;
#169 = DIRECTION ( 'NONE',  ( 0.0000000000000000000, 0.0000000000000000000, -1.000000000000000000 ) ) ;
#170 = PLANE ( 'NONE',  #76 ) ;
#171 = VECTOR ( 'NONE', #168, 39.37007874015748143 ) ;
#172 = AXIS2_PLACEMENT_3D ( 'NONE', #206, #78, #148 ) ;
#173 = CARTESIAN_POINT ( 'NONE',  ( 0.0000000000000000000, 0.0000000000000000000, 1.707404996040164512E-17 ) ) ;
#174 = DIRECTION ( 'NONE',  ( -0.0000000000000000000, -0.0000000000000000000, -1.000000000000000000 ) ) ;
#175 = DIRECTION ( 'NONE',  ( -1.000000000000000000, 0.0000000000000000000, 0.0000000000000000000 ) ) ;
#176 = DIRECTION ( 'NONE',  ( -0.0000000000000000000, -0.0000000000000000000, -1.000000000000000000 ) ) ;
#177 = AXIS2_PLACEMENT_3D ( 'NONE', #21, #275, #224 ) ;
#178 = STYLED_ITEM ( 'NONE', ( #288 ), #12 ) ;
#179 = CARTESIAN_POINT ( 'NONE',  ( 0.1562000000000000055, 0.0000000000000000000, 0.1486999999999994160 ) ) ;
#180 = DIRECTION ( 'NONE',  ( -0.0000000000000000000, -0.0000000000000000000, -1.000000000000000000 ) ) ;
#181 = PRESENTATION_LAYER_ASSIGNMENT (  '', '', ( #259 ) ) ;
#182 = FACE_OUTER_BOUND ( 'NONE', #137, .T. ) ;
#183 = EDGE_CURVE ( 'NONE', #159, #261, #321, .T. ) ;
#184 = VERTEX_POINT ( 'NONE', #23 ) ;
#185 = LENGTH_MEASURE_WITH_UNIT ( LENGTH_MEASURE( 0.02539999999999999897 ), #81 );
#186 = ORIENTED_EDGE ( 'NONE', *, *, #66, .F. ) ;
#187 = AXIS2_PLACEMENT_3D ( 'NONE', #19, #124, #221 ) ;
#188 = ADVANCED_FACE ( 'NONE', ( #151 ), #286, .T. ) ;
#189 = ORIENTED_EDGE ( 'NONE', *, *, #104, .F. ) ;
#190 = ORIENTED_EDGE ( 'NONE', *, *, #323, .T. ) ;
#191 = VERTEX_POINT ( 'NONE', #128 ) ;
#192 = VECTOR ( 'NONE', #319, 39.37007874015748143 ) ;
#193 = FILL_AREA_STYLE_COLOUR ( '', #144 ) ;
#194 = CARTESIAN_POINT ( 'NONE',  ( 0.0000000000000000000, 0.0000000000000000000, 2.484999999999999432 ) ) ;
#195 = LINE ( 'NONE', #322, #126 ) ;
#196 = VECTOR ( 'NONE', #27, 39.37007874015748854 ) ;
#197 = DIRECTION ( 'NONE',  ( -0.0000000000000000000, -0.0000000000000000000, -1.000000000000000000 ) ) ;
#198 = ADVANCED_FACE ( 'NONE', ( #227 ), #96, .T. ) ;
#199 = CYLINDRICAL_SURFACE ( 'NONE', #13, 0.1562000000000000333 ) ;
#200 = MECHANICAL_DESIGN_GEOMETRIC_PRESENTATION_REPRESENTATION (  '', ( #259 ), #91 ) ;
#201 = CARTESIAN_POINT ( 'NONE',  ( 0.0000000000000000000, 0.0000000000000000000, 2.500000000000000000 ) ) ;
#202 = ORIENTED_EDGE ( 'NONE', *, *, #323, .F. ) ;
#203 = CARTESIAN_POINT ( 'NONE',  ( 0.0000000000000000000, 0.0000000000000000000, 0.0000000000000000000 ) ) ;
#204 = ORIENTED_EDGE ( 'NONE', *, *, #104, .T. ) ;
#205 = CARTESIAN_POINT ( 'NONE',  ( -0.1562500000000000000, 0.0000000000000000000, 2.500000000000000000 ) ) ;
#206 = CARTESIAN_POINT ( 'NONE',  ( 0.1562000000000000888, 0.0000000000000000000, 0.8129999999999999449 ) ) ;
#207 = CIRCLE ( 'NONE', #263, 0.1562500000000000000 ) ;
#208 = DIRECTION ( 'NONE',  ( -1.000000000000000000, 0.0000000000000000000, 0.0000000000000000000 ) ) ;
#209 =( LENGTH_UNIT ( ) NAMED_UNIT ( * ) SI_UNIT ( $, .METRE. ) );
#210 = DIRECTION ( 'NONE',  ( -1.000000000000000000, 0.0000000000000000000, 0.0000000000000000000 ) ) ;
#211 = SURFACE_SIDE_STYLE ('',( #135 ) ) ;
#212 = ORIENTED_EDGE ( 'NONE', *, *, #39, .T. ) ;
#213 = SHAPE_DEFINITION_REPRESENTATION ( #4, #12 ) ;
#214 = VERTEX_POINT ( 'NONE', #329 ) ;
#215 = DIRECTION ( 'NONE',  ( -0.0000000000000000000, -0.0000000000000000000, -1.000000000000000000 ) ) ;
#216 = ADVANCED_FACE ( 'NONE', ( #134 ), #49, .T. ) ;
#217 = CARTESIAN_POINT ( 'NONE',  ( -0.007499999999999999722, 9.184850993605147975E-19, 1.707404996040164512E-17 ) ) ;
#218 = DIRECTION ( 'NONE',  ( 0.0000000000000000000, 0.0000000000000000000, 1.000000000000000000 ) ) ;
#219 = EDGE_CURVE ( 'NONE', #108, #103, #248, .T. ) ;
#220 = EDGE_CURVE ( 'NONE', #258, #287, #73, .T. ) ;
#221 = DIRECTION ( 'NONE',  ( 1.000000000000000000, 0.0000000000000000000, -0.0000000000000000000 ) ) ;
#222 =( LENGTH_UNIT ( ) NAMED_UNIT ( * ) SI_UNIT ( $, .METRE. ) );
#223 = PLANE ( 'NONE',  #172 ) ;
#224 = DIRECTION ( 'NONE',  ( 1.000000000000000000, 0.0000000000000000000, 0.0000000000000000000 ) ) ;
#225 = AXIS2_PLACEMENT_3D ( 'NONE', #302, #324, #255 ) ;
#226 = DIRECTION ( 'NONE',  ( -1.000000000000000000, 0.0000000000000000000, 0.0000000000000000000 ) ) ;
#227 = FACE_OUTER_BOUND ( 'NONE', #1, .T. ) ;
#228 = PRODUCT_DEFINITION ( 'UNKNOWN', '', #156, #306 ) ;
#229 = CARTESIAN_POINT ( 'NONE',  ( -0.1562500000000000000, 0.0000000000000000000, 2.484999999999999432 ) ) ;
#230 = ORIENTED_EDGE ( 'NONE', *, *, #44, .F. ) ;
#231 = SURFACE_STYLE_USAGE ( .BOTH. , #211 ) ;
#232 = ORIENTED_EDGE ( 'NONE', *, *, #272, .F. ) ;
#233 = ORIENTED_EDGE ( 'NONE', *, *, #309, .F. ) ;
#234 = DIRECTION ( 'NONE',  ( -0.0000000000000000000, -0.0000000000000000000, -1.000000000000000000 ) ) ;
#235 = VERTEX_POINT ( 'NONE', #179 ) ;
#236 = PRODUCT_CONTEXT ( 'NONE', #320, 'mechanical' ) ;
#237 = ORIENTED_EDGE ( 'NONE', *, *, #220, .F. ) ;
#238 = CIRCLE ( 'NONE', #3, 0.007499999999999999722 ) ;
#239 = FACE_OUTER_BOUND ( 'NONE', #282, .T. ) ;
#240 = FACE_OUTER_BOUND ( 'NONE', #312, .T. ) ;
#241 = CARTESIAN_POINT ( 'NONE',  ( 0.0000000000000000000, 0.0000000000000000000, 0.8129999999999997229 ) ) ;
#242 = PLANE ( 'NONE',  #187 ) ;
#243 = CIRCLE ( 'NONE', #83, 0.1562000000000000055 ) ;
#244 = DIRECTION ( 'NONE',  ( 1.000000000000000000, 0.0000000000000000000, -0.0000000000000000000 ) ) ;
#245 = FACE_OUTER_BOUND ( 'NONE', #110, .T. ) ;
#246 = FILL_AREA_STYLE ('',( #193 ) ) ;
#247 = VECTOR ( 'NONE', #30, 39.37007874015748143 ) ;
#248 = LINE ( 'NONE', #102, #131 ) ;
#249 = CARTESIAN_POINT ( 'NONE',  ( 0.1562000000000000333, 1.912898300268165973E-17, 0.0000000000000000000 ) ) ;
#250 = DIRECTION ( 'NONE',  ( 1.000000000000000000, 0.0000000000000000000, 0.0000000000000000000 ) ) ;
#251 = VECTOR ( 'NONE', #303, 39.37007874015748143 ) ;
#252 = DIRECTION ( 'NONE',  ( 0.0000000000000000000, 0.0000000000000000000, 1.000000000000000000 ) ) ;
#253 = APPLICATION_CONTEXT ( 'automotive_design' ) ;
#254 = ADVANCED_FACE ( 'NONE', ( #305 ), #317, .T. ) ;
#255 = DIRECTION ( 'NONE',  ( -1.000000000000000000, 0.0000000000000000000, 0.0000000000000000000 ) ) ;
#256 = ORIENTED_EDGE ( 'NONE', *, *, #9, .F. ) ;
#257 = DIMENSIONAL_EXPONENTS ( 1.000000000000000000, 0.0000000000000000000, 0.0000000000000000000, 0.0000000000000000000, 0.0000000000000000000, 0.0000000000000000000, 0.0000000000000000000 ) ;
#258 = VERTEX_POINT ( 'NONE', #326 ) ;
#259 = STYLED_ITEM ( 'NONE', ( #97 ), #88 ) ;
#260 = VERTEX_POINT ( 'NONE', #328 ) ;
#261 = VERTEX_POINT ( 'NONE', #106 ) ;
#262 = ORIENTED_EDGE ( 'NONE', *, *, #99, .F. ) ;
#263 = AXIS2_PLACEMENT_3D ( 'NONE', #123, #20, #175 ) ;
#264 = PRODUCT_RELATED_PRODUCT_CATEGORY ( 'part', '', ( #325 ) ) ;
#265 = ORIENTED_EDGE ( 'NONE', *, *, #39, .F. ) ;
#266 = CARTESIAN_POINT ( 'NONE',  ( 0.1412499999999994871, 1.821662113731684786E-17, 2.500000000000000000 ) ) ;
#267 = CARTESIAN_POINT ( 'NONE',  ( 0.1562500000000000000, 1.913510623667739463E-17, 2.484999999999999432 ) ) ;
#268 = ADVANCED_FACE ( 'NONE', ( #132 ), #74, .T. ) ;
#269 = CLOSED_SHELL ( 'NONE', ( #268, #188, #198, #10, #216, #122, #313, #293, #254, #301, #94 ) ) ;
#270 = SURFACE_SIDE_STYLE ('',( #125 ) ) ;
#271 = CARTESIAN_POINT ( 'NONE',  ( -0.1562000000000000888, 0.0000000000000000000, 0.8129999999999999449 ) ) ;
#272 = EDGE_CURVE ( 'NONE', #261, #159, #311, .T. ) ;
#273 = AXIS2_PLACEMENT_3D ( 'NONE', #118, #215, #210 ) ;
#274 = DIRECTION ( 'NONE',  ( -1.000000000000000000, 0.0000000000000000000, 0.0000000000000000000 ) ) ;
#275 = DIRECTION ( 'NONE',  ( 0.0000000000000000000, 0.0000000000000000000, 1.000000000000000000 ) ) ;
#276 = EDGE_CURVE ( 'NONE', #108, #258, #140, .T. ) ;
#277 = DIRECTION ( 'NONE',  ( -0.0000000000000000000, -0.0000000000000000000, -1.000000000000000000 ) ) ;
#278 = EDGE_CURVE ( 'NONE', #287, #191, #298, .T. ) ;
#279 = ORIENTED_EDGE ( 'NONE', *, *, #158, .T. ) ;
#280 = CIRCLE ( 'NONE', #136, 0.1562000000000000055 ) ;
#281 = DIRECTION ( 'NONE',  ( -1.000000000000000000, 0.0000000000000000000, 0.0000000000000000000 ) ) ;
#282 = EDGE_LOOP ( 'NONE', ( #54, #256, #52, #189 ) ) ;
#283 = CARTESIAN_POINT ( 'NONE',  ( 0.0000000000000000000, 0.0000000000000000000, 2.500000000000000000 ) ) ;
#284 = EDGE_LOOP ( 'NONE', ( #167, #202, #212, #14 ) ) ;
#285 = DIRECTION ( 'NONE',  ( 0.0000000000000000000, 0.0000000000000000000, -1.000000000000000000 ) ) ;
#286 = CONICAL_SURFACE ( 'NONE', #295, 0.007499999999999999722, 0.7853981633974502774 ) ;
#287 = VERTEX_POINT ( 'NONE', #229 ) ;
#288 = PRESENTATION_STYLE_ASSIGNMENT (( #231 ) ) ;
#289 = ORIENTED_EDGE ( 'NONE', *, *, #309, .T. ) ;
#290 = CARTESIAN_POINT ( 'NONE',  ( 0.0000000000000000000, 0.0000000000000000000, 2.500000000000000000 ) ) ;
#291 = ORIENTED_EDGE ( 'NONE', *, *, #272, .T. ) ;
#292 = CIRCLE ( 'NONE', #101, 0.1562500000000000000 ) ;
#293 = ADVANCED_FACE ( 'NONE', ( #2, #107 ), #223, .T. ) ;
#294 = CARTESIAN_POINT ( 'NONE',  ( 0.0000000000000000000, 0.0000000000000000000, 0.1486999999999994160 ) ) ;
#295 = AXIS2_PLACEMENT_3D ( 'NONE', #100, #152, #250 ) ;
#296 = DIRECTION ( 'NONE',  ( -1.000000000000000000, 0.0000000000000000000, 0.0000000000000000000 ) ) ;
#297 = LENGTH_MEASURE_WITH_UNIT ( LENGTH_MEASURE( 0.02539999999999999897 ), #222 );
#298 = LINE ( 'NONE', #205, #62 ) ;
#299 = AXIS2_PLACEMENT_3D ( 'NONE', #201, #129, #226 ) ;
#300 = CARTESIAN_POINT ( 'NONE',  ( 0.1562500000000000000, 1.913510623667739463E-17, 2.500000000000000000 ) ) ;
#301 = ADVANCED_FACE ( 'NONE', ( #182 ), #199, .T. ) ;
#302 = CARTESIAN_POINT ( 'NONE',  ( 0.0000000000000000000, 0.0000000000000000000, 0.8129999999999999449 ) ) ;
#303 = DIRECTION ( 'NONE',  ( -0.0000000000000000000, -0.0000000000000000000, -1.000000000000000000 ) ) ;
#304 = EDGE_LOOP ( 'NONE', ( #166, #289, #79, #262 ) ) ;
#305 = FACE_OUTER_BOUND ( 'NONE', #284, .T. ) ;
#306 = PRODUCT_DEFINITION_CONTEXT ( 'detailed design', #253, 'design' ) ;
#307 =( NAMED_UNIT ( * ) PLANE_ANGLE_UNIT ( ) SI_UNIT ( $, .RADIAN. ) );
#308 = ORIENTED_EDGE ( 'NONE', *, *, #165, .T. ) ;
#309 = EDGE_CURVE ( 'NONE', #261, #235, #47, .T. ) ;
#310 = ORIENTED_EDGE ( 'NONE', *, *, #278, .F. ) ;
#311 = CIRCLE ( 'NONE', #115, 0.1562000000000000888 ) ;
#312 = EDGE_LOOP ( 'NONE', ( #6, #308, #186, #310 ) ) ;
#313 = ADVANCED_FACE ( 'NONE', ( #239 ), #109, .T. ) ;
#314 = ORIENTED_EDGE ( 'NONE', *, *, #105, .F. ) ;
#315 = UNCERTAINTY_MEASURE_WITH_UNIT (LENGTH_MEASURE( 1.000000000000000082E-05 ), #32, 'distance_accuracy_value', 'NONE');
#316 = LINE ( 'NONE', #90, #171 ) ;
#317 = CONICAL_SURFACE ( 'NONE', #177, 0.007499999999999999722, 0.7853981633974502774 ) ;
#318 = FACE_OUTER_BOUND ( 'NONE', #59, .T. ) ;
#319 = DIRECTION ( 'NONE',  ( -0.7071067811865489050, 8.659560562354950115E-17, 0.7071067811865461294 ) ) ;
#320 = APPLICATION_CONTEXT ( 'automotive_design' ) ;
#321 = CIRCLE ( 'NONE', #225, 0.1562000000000000888 ) ;
#322 = CARTESIAN_POINT ( 'NONE',  ( -0.1562000000000000333, 0.0000000000000000000, 0.0000000000000000000 ) ) ;
#323 = EDGE_CURVE ( 'NONE', #260, #5, #238, .T. ) ;
#324 = DIRECTION ( 'NONE',  ( -0.0000000000000000000, -0.0000000000000000000, -1.000000000000000000 ) ) ;
#325 = PRODUCT ( 'Micro_DM-312-490', 'Micro_DM-312-490', '', ( #236 ) ) ;
#326 = CARTESIAN_POINT ( 'NONE',  ( -0.1412499999999994871, 0.0000000000000000000, 2.500000000000000000 ) ) ;
#327 = CIRCLE ( 'NONE', #120, 0.1562500000000000000 ) ;
#328 = CARTESIAN_POINT ( 'NONE',  ( 0.007499999999999999722, 0.0000000000000000000, 1.707404996040164512E-17 ) ) ;
#329 = CARTESIAN_POINT ( 'NONE',  ( -0.1562000000000000055, 1.912898300268165665E-17, 0.1486999999999994160 ) ) ;
ENDSEC;
END-ISO-10303-21;
