ISO-10303-21;
HEADER;
FILE_DESCRIPTION (( 'STEP AP214' ),
    '1' );
FILE_NAME ('30182.STEP',
    '2023-06-22T18:07:35',
    ( '' ),
    ( '' ),
    'SwSTEP 2.0',
    'SolidWorks 2023',
    '' );
FILE_SCHEMA (( 'AUTOMOTIVE_DESIGN' ));
ENDSEC;

DATA;
#1 = ORIENTED_EDGE ( 'NONE', *, *, #214, .T. ) ;
#2 = CIRCLE ( 'NONE', #247, 0.1562500000000000833 ) ;
#3 =( LENGTH_UNIT ( ) NAMED_UNIT ( * ) SI_UNIT ( $, .METRE. ) );
#4 = ADVANCED_FACE ( 'NONE', ( #343 ), #139, .T. ) ;
#5 = CARTESIAN_POINT ( 'NONE',  ( 0.1562500000000000833, 2.000000000000000000, 0.000000000000000000 ) ) ;
#6 = LINE ( 'NONE', #250, #202 ) ;
#7 = DIRECTION ( 'NONE',  ( -0.000000000000000000, -1.000000000000000000, -0.000000000000000000 ) ) ;
#8 = DIRECTION ( 'NONE',  ( -1.000000000000000000, 0.000000000000000000, 0.000000000000000000 ) ) ;
#9 = AXIS2_PLACEMENT_3D ( 'NONE', #192, #198, #32 ) ;
#10 = LINE ( 'NONE', #281, #205 ) ;
#11 = DIRECTION ( 'NONE',  ( -1.000000000000000000, 0.000000000000000000, 0.000000000000000000 ) ) ;
#12 = PRESENTATION_LAYER_ASSIGNMENT (  '', '', ( #157 ) ) ;
#13 = DIRECTION ( 'NONE',  ( 3.918869757271530214E-17, 1.000000000000000000, -0.000000000000000000 ) ) ;
#14 = AXIS2_PLACEMENT_3D ( 'NONE', #334, #237, #185 ) ;
#15 = ADVANCED_BREP_SHAPE_REPRESENTATION ( '30182', ( #212, #98, #228 ), #280 ) ;
#16 = APPLICATION_PROTOCOL_DEFINITION ( 'draft international standard', 'automotive_design', 1998, #225 ) ;
#17 = EDGE_LOOP ( 'NONE', ( #180, #83, #273, #149 ) ) ;
#18 = ORIENTED_EDGE ( 'NONE', *, *, #264, .T. ) ;
#19 = EDGE_LOOP ( 'NONE', ( #79, #184, #213, #33 ) ) ;
#20 =( GEOMETRIC_REPRESENTATION_CONTEXT ( 3 ) GLOBAL_UNCERTAINTY_ASSIGNED_CONTEXT ( ( #315 ) ) GLOBAL_UNIT_ASSIGNED_CONTEXT ( ( #221, #121, #71 ) ) REPRESENTATION_CONTEXT ( 'NONE', 'WORKASPACE' ) );
#21 = AXIS2_PLACEMENT_3D ( 'NONE', #164, #279, #258 ) ;
#22 = EDGE_LOOP ( 'NONE', ( #276, #333 ) ) ;
#23 = SURFACE_SIDE_STYLE ('',( #178 ) ) ;
#24 = SURFACE_STYLE_FILL_AREA ( #272 ) ;
#25 = ORIENTED_EDGE ( 'NONE', *, *, #351, .T. ) ;
#26 = FILL_AREA_STYLE_COLOUR ( '', #64 ) ;
#27 = CYLINDRICAL_SURFACE ( 'NONE', #256, 0.1406000000000000028 ) ;
#28 = ADVANCED_FACE ( 'NONE', ( #141 ), #122, .T. ) ;
#29 = CIRCLE ( 'NONE', #219, 0.1406000000000000028 ) ;
#30 = DIRECTION ( 'NONE',  ( 3.918869757271530214E-17, 1.000000000000000000, -0.000000000000000000 ) ) ;
#31 = LENGTH_MEASURE_WITH_UNIT ( LENGTH_MEASURE( 0.02539999999999999897 ), #61 );
#32 = DIRECTION ( 'NONE',  ( -1.000000000000000000, 0.000000000000000000, 0.000000000000000000 ) ) ;
#33 = ORIENTED_EDGE ( 'NONE', *, *, #140, .F. ) ;
#34 = PRODUCT_DEFINITION_SHAPE ( 'NONE', 'NONE',  #59 ) ;
#35 = DIRECTION ( 'NONE',  ( -0.000000000000000000, -1.000000000000000000, -0.000000000000000000 ) ) ;
#36 = CARTESIAN_POINT ( 'NONE',  ( 0.000000000000000000, 0.000000000000000000, 0.000000000000000000 ) ) ;
#37 = SURFACE_SIDE_STYLE ('',( #316 ) ) ;
#38 = DIRECTION ( 'NONE',  ( -0.000000000000000000, -1.000000000000000000, -0.000000000000000000 ) ) ;
#39 = FILL_AREA_STYLE ('',( #42 ) ) ;
#40 = CARTESIAN_POINT ( 'NONE',  ( -0.1406000000000000028, 0.4374999999999998890, 0.000000000000000000 ) ) ;
#41 = FILL_AREA_STYLE ('',( #291 ) ) ;
#42 = FILL_AREA_STYLE_COLOUR ( '', #188 ) ;
#43 = STYLED_ITEM ( 'NONE', ( #95 ), #98 ) ;
#44 = SURFACE_STYLE_FILL_AREA ( #41 ) ;
#45 = ADVANCED_FACE ( 'NONE', ( #344 ), #347, .T. ) ;
#46 = STYLED_ITEM ( 'NONE', ( #245 ), #212 ) ;
#47 = EDGE_LOOP ( 'NONE', ( #318, #154, #51, #244 ) ) ;
#48 =( CONVERSION_BASED_UNIT ( 'INCH', #298 ) LENGTH_UNIT ( ) NAMED_UNIT ( #329 ) );
#49 = ORIENTED_EDGE ( 'NONE', *, *, #293, .F. ) ;
#50 = FILL_AREA_STYLE_COLOUR ( '', #119 ) ;
#51 = ORIENTED_EDGE ( 'NONE', *, *, #302, .F. ) ;
#52 = CARTESIAN_POINT ( 'NONE',  ( 1.079635074264356805E-34, 0.4375000000000000000, 0.000000000000000000 ) ) ;
#53 = PRODUCT_DEFINITION_FORMATION_WITH_SPECIFIED_SOURCE ( 'ANY', '', #261, .NOT_KNOWN. ) ;
#54 = EDGE_LOOP ( 'NONE', ( #162, #306 ) ) ;
#55 = PLANE ( 'NONE',  #158 ) ;
#56 =( LENGTH_UNIT ( ) NAMED_UNIT ( * ) SI_UNIT ( $, .METRE. ) );
#57 = VERTEX_POINT ( 'NONE', #230 ) ;
#58 = PLANE ( 'NONE',  #234 ) ;
#59 = PRODUCT_DEFINITION ( 'UNKNOWN', '', #53, #173 ) ;
#60 = EDGE_CURVE ( 'NONE', #227, #300, #246, .T. ) ;
#61 =( LENGTH_UNIT ( ) NAMED_UNIT ( * ) SI_UNIT ( $, .METRE. ) );
#62 = EDGE_LOOP ( 'NONE', ( #224, #309 ) ) ;
#63 = FACE_OUTER_BOUND ( 'NONE', #210, .T. ) ;
#64 = COLOUR_RGB ( '',1.000000000000000000, 0.000000000000000000, 0.000000000000000000 ) ;
#65 = CARTESIAN_POINT ( 'NONE',  ( 6.123233995736766036E-17, 2.000000000000000000, 0.000000000000000000 ) ) ;
#66 =( CONVERSION_BASED_UNIT ( 'INCH', #133 ) LENGTH_UNIT ( ) NAMED_UNIT ( #77 ) );
#67 = VERTEX_POINT ( 'NONE', #194 ) ;
#68 = FACE_OUTER_BOUND ( 'NONE', #47, .T. ) ;
#69 = CARTESIAN_POINT ( 'NONE',  ( 0.000000000000000000, 0.000000000000000000, 0.000000000000000000 ) ) ;
#70 = STYLED_ITEM ( 'NONE', ( #331 ), #186 ) ;
#71 =( NAMED_UNIT ( * ) SI_UNIT ( $, .STERADIAN. ) SOLID_ANGLE_UNIT ( ) );
#72 = CARTESIAN_POINT ( 'NONE',  ( -0.1562500000000000833, 0.4804980216144649763, 0.000000000000000000 ) ) ;
#73 = DIMENSIONAL_EXPONENTS ( 1.000000000000000000, 0.000000000000000000, 0.000000000000000000, 0.000000000000000000, 0.000000000000000000, 0.000000000000000000, 0.000000000000000000 ) ;
#74 = PRESENTATION_LAYER_ASSIGNMENT (  '', '', ( #46 ) ) ;
#75 = VERTEX_POINT ( 'NONE', #72 ) ;
#76 =( LENGTH_UNIT ( ) NAMED_UNIT ( * ) SI_UNIT ( $, .METRE. ) );
#77 = DIMENSIONAL_EXPONENTS ( 1.000000000000000000, 0.000000000000000000, 0.000000000000000000, 0.000000000000000000, 0.000000000000000000, 0.000000000000000000, 0.000000000000000000 ) ;
#78 = CIRCLE ( 'NONE', #328, 0.1406000000000000028 ) ;
#79 = ORIENTED_EDGE ( 'NONE', *, *, #322, .T. ) ;
#80 = CIRCLE ( 'NONE', #124, 0.1406000000000000028 ) ;
#81 = ORIENTED_EDGE ( 'NONE', *, *, #243, .F. ) ;
#82 = CYLINDRICAL_SURFACE ( 'NONE', #99, 0.1406000000000000028 ) ;
#83 = ORIENTED_EDGE ( 'NONE', *, *, #353, .T. ) ;
#84 =( LENGTH_UNIT ( ) NAMED_UNIT ( * ) SI_UNIT ( $, .METRE. ) );
#85 = CARTESIAN_POINT ( 'NONE',  ( 0.000000000000000000, 0.000000000000000000, -0.1406000000000000028 ) ) ;
#86 = FILL_AREA_STYLE_COLOUR ( '', #132 ) ;
#87 = CLOSED_SHELL ( 'NONE', ( #45, #263, #203, #229, #4, #163 ) ) ;
#88 = CARTESIAN_POINT ( 'NONE',  ( 0.000000000000000000, 0.000000000000000000, 0.000000000000000000 ) ) ;
#89 = SURFACE_STYLE_USAGE ( .BOTH. , #37 ) ;
#90 = CARTESIAN_POINT ( 'NONE',  ( 0.000000000000000000, 0.4375000000000000000, 0.000000000000000000 ) ) ;
#91 = DIRECTION ( 'NONE',  ( -0.000000000000000000, -1.000000000000000000, -0.000000000000000000 ) ) ;
#92 = PRESENTATION_LAYER_ASSIGNMENT (  '', '', ( #70 ) ) ;
#93 = EDGE_CURVE ( 'NONE', #227, #67, #169, .T. ) ;
#94 = CARTESIAN_POINT ( 'NONE',  ( 6.123233995736766036E-17, 2.000000000000000000, 0.000000000000000000 ) ) ;
#95 = PRESENTATION_STYLE_ASSIGNMENT (( #348 ) ) ;
#96 = DIMENSIONAL_EXPONENTS ( 1.000000000000000000, 0.000000000000000000, 0.000000000000000000, 0.000000000000000000, 0.000000000000000000, 0.000000000000000000, 0.000000000000000000 ) ;
#97 = AXIS2_PLACEMENT_3D ( 'NONE', #65, #286, #159 ) ;
#98 = MANIFOLD_SOLID_BREP ( 'Revolve - Tool Body (Reduced Cut Diameter)', #87 ) ;
#99 = AXIS2_PLACEMENT_3D ( 'NONE', #222, #193, #134 ) ;
#100 =( NAMED_UNIT ( * ) SI_UNIT ( $, .STERADIAN. ) SOLID_ANGLE_UNIT ( ) );
#101 = ORIENTED_EDGE ( 'NONE', *, *, #125, .T. ) ;
#102 = EDGE_LOOP ( 'NONE', ( #254, #208, #283, #49 ) ) ;
#103 =( NAMED_UNIT ( * ) SI_UNIT ( $, .STERADIAN. ) SOLID_ANGLE_UNIT ( ) );
#104 = AXIS2_PLACEMENT_3D ( 'NONE', #36, #168, #320 ) ;
#105 =( NAMED_UNIT ( * ) SI_UNIT ( $, .STERADIAN. ) SOLID_ANGLE_UNIT ( ) );
#106 = VERTEX_POINT ( 'NONE', #152 ) ;
#107 =( CONVERSION_BASED_UNIT ( 'INCH', #147 ) LENGTH_UNIT ( ) NAMED_UNIT ( #73 ) );
#108 = DIRECTION ( 'NONE',  ( 1.000000000000000000, -3.918869757271530214E-17, 0.000000000000000000 ) ) ;
#109 = CARTESIAN_POINT ( 'NONE',  ( 1.685036465274341012E-18, 0.4804980216144649763, 0.000000000000000000 ) ) ;
#110 =( NAMED_UNIT ( * ) PLANE_ANGLE_UNIT ( ) SI_UNIT ( $, .RADIAN. ) );
#111 = COLOUR_RGB ( '',0.7921568627450980005, 0.8196078431372548767, 0.9333333333333333481 ) ;
#112 = AXIS2_PLACEMENT_3D ( 'NONE', #69, #35, #282 ) ;
#113 = CARTESIAN_POINT ( 'NONE',  ( 0.000000000000000000, 0.4374999999999998890, 0.000000000000000000 ) ) ;
#114 = CARTESIAN_POINT ( 'NONE',  ( 0.1406000000000000028, 0.4374999999999998890, 1.817682011634459564E-17 ) ) ;
#115 = CARTESIAN_POINT ( 'NONE',  ( 6.123233995736766036E-17, 2.000000000000000000, 0.000000000000000000 ) ) ;
#116 = SURFACE_SIDE_STYLE ('',( #196 ) ) ;
#117 = ADVANCED_FACE ( 'NONE', ( #303 ), #82, .T. ) ;
#118 = CARTESIAN_POINT ( 'NONE',  ( 0.000000000000000000, 0.4374999999999998890, 0.000000000000000000 ) ) ;
#119 = COLOUR_RGB ( '',1.000000000000000000, 0.000000000000000000, 0.000000000000000000 ) ;
#120 =( GEOMETRIC_REPRESENTATION_CONTEXT ( 3 ) GLOBAL_UNCERTAINTY_ASSIGNED_CONTEXT ( ( #172 ) ) GLOBAL_UNIT_ASSIGNED_CONTEXT ( ( #107, #211, #100 ) ) REPRESENTATION_CONTEXT ( 'NONE', 'WORKASPACE' ) );
#121 =( NAMED_UNIT ( * ) PLANE_ANGLE_UNIT ( ) SI_UNIT ( $, .RADIAN. ) );
#122 = PLANE ( 'NONE',  #104 ) ;
#123 = AXIS2_PLACEMENT_3D ( 'NONE', #94, #294, #231 ) ;
#124 = AXIS2_PLACEMENT_3D ( 'NONE', #113, #226, #11 ) ;
#125 = EDGE_CURVE ( 'NONE', #310, #57, #10, .T. ) ;
#126 =( GEOMETRIC_REPRESENTATION_CONTEXT ( 3 ) GLOBAL_UNCERTAINTY_ASSIGNED_CONTEXT ( ( #350 ) ) GLOBAL_UNIT_ASSIGNED_CONTEXT ( ( #278, #110, #337 ) ) REPRESENTATION_CONTEXT ( 'NONE', 'WORKASPACE' ) );
#127 = VERTEX_POINT ( 'NONE', #114 ) ;
#128 = SURFACE_STYLE_USAGE ( .BOTH. , #301 ) ;
#129 = VERTEX_POINT ( 'NONE', #85 ) ;
#130 = LENGTH_MEASURE_WITH_UNIT ( LENGTH_MEASURE( 0.02539999999999999897 ), #84 );
#131 = FILL_AREA_STYLE ('',( #277 ) ) ;
#132 = COLOUR_RGB ( '',1.000000000000000000, 0.000000000000000000, 0.000000000000000000 ) ;
#133 = LENGTH_MEASURE_WITH_UNIT ( LENGTH_MEASURE( 0.02539999999999999897 ), #220 );
#134 = DIRECTION ( 'NONE',  ( 0.000000000000000000, 0.000000000000000000, -1.000000000000000000 ) ) ;
#135 = DIRECTION ( 'NONE',  ( 3.918869757271530214E-17, 1.000000000000000000, -0.000000000000000000 ) ) ;
#136 =( NAMED_UNIT ( * ) PLANE_ANGLE_UNIT ( ) SI_UNIT ( $, .RADIAN. ) );
#137 = CIRCLE ( 'NONE', #97, 0.1562500000000000000 ) ;
#138 = DIRECTION ( 'NONE',  ( -0.000000000000000000, -1.000000000000000000, -0.000000000000000000 ) ) ;
#139 = CYLINDRICAL_SURFACE ( 'NONE', #123, 0.1562500000000000278 ) ;
#140 = EDGE_CURVE ( 'NONE', #358, #75, #189, .T. ) ;
#141 = FACE_OUTER_BOUND ( 'NONE', #62, .T. ) ;
#142 = UNCERTAINTY_MEASURE_WITH_UNIT (LENGTH_MEASURE( 1.000000000000000082E-05 ), #304, 'distance_accuracy_value', 'NONE');
#143 = AXIS2_PLACEMENT_3D ( 'NONE', #326, #259, #288 ) ;
#144 = SURFACE_SIDE_STYLE ('',( #44 ) ) ;
#145 = VECTOR ( 'NONE', #252, 39.37007874015748143 ) ;
#146 = EDGE_CURVE ( 'NONE', #75, #106, #183, .T. ) ;
#147 = LENGTH_MEASURE_WITH_UNIT ( LENGTH_MEASURE( 0.02539999999999999897 ), #3 );
#148 = PRESENTATION_STYLE_ASSIGNMENT (( #128 ) ) ;
#149 = ORIENTED_EDGE ( 'NONE', *, *, #351, .F. ) ;
#150 = SURFACE_STYLE_FILL_AREA ( #206 ) ;
#151 = CIRCLE ( 'NONE', #9, 0.1406000000000000028 ) ;
#152 = CARTESIAN_POINT ( 'NONE',  ( -0.1562499999999999445, 2.000000000000000000, 0.000000000000000000 ) ) ;
#153 = EDGE_LOOP ( 'NONE', ( #1, #101, #265, #238 ) ) ;
#154 = ORIENTED_EDGE ( 'NONE', *, *, #93, .T. ) ;
#155 = DIRECTION ( 'NONE',  ( 0.000000000000000000, 1.000000000000000000, 0.000000000000000000 ) ) ;
#156 = DIRECTION ( 'NONE',  ( -1.000000000000000000, 0.000000000000000000, 0.000000000000000000 ) ) ;
#157 = STYLED_ITEM ( 'NONE', ( #148 ), #117 ) ;
#158 = AXIS2_PLACEMENT_3D ( 'NONE', #52, #179, #336 ) ;
#159 = DIRECTION ( 'NONE',  ( -1.000000000000000000, 0.000000000000000000, 0.000000000000000000 ) ) ;
#160 = ORIENTED_EDGE ( 'NONE', *, *, #125, .F. ) ;
#161 = DIRECTION ( 'NONE',  ( -0.3420201433256683243, 0.9396926207859085389, 0.000000000000000000 ) ) ;
#162 = ORIENTED_EDGE ( 'NONE', *, *, #322, .F. ) ;
#163 = ADVANCED_FACE ( 'NONE', ( #63 ), #319, .F. ) ;
#164 = CARTESIAN_POINT ( 'NONE',  ( 0.000000000000000000, 0.4374999999999998890, 0.000000000000000000 ) ) ;
#165 =( GEOMETRIC_REPRESENTATION_CONTEXT ( 3 ) GLOBAL_UNCERTAINTY_ASSIGNED_CONTEXT ( ( #142 ) ) GLOBAL_UNIT_ASSIGNED_CONTEXT ( ( #304, #241, #103 ) ) REPRESENTATION_CONTEXT ( 'NONE', 'WORKASPACE' ) );
#166 = CARTESIAN_POINT ( 'NONE',  ( 0.000000000000000000, 0.000000000000000000, 0.000000000000000000 ) ) ;
#167 = CARTESIAN_POINT ( 'NONE',  ( 6.123233995736766036E-17, 2.000000000000000000, 0.000000000000000000 ) ) ;
#168 = DIRECTION ( 'NONE',  ( 0.000000000000000000, -1.000000000000000000, -0.000000000000000000 ) ) ;
#169 = LINE ( 'NONE', #295, #313 ) ;
#170 = DIMENSIONAL_EXPONENTS ( 1.000000000000000000, 0.000000000000000000, 0.000000000000000000, 0.000000000000000000, 0.000000000000000000, 0.000000000000000000, 0.000000000000000000 ) ;
#171 = VECTOR ( 'NONE', #339, 39.37007874015748143 ) ;
#172 = UNCERTAINTY_MEASURE_WITH_UNIT (LENGTH_MEASURE( 1.000000000000000082E-05 ), #107, 'distance_accuracy_value', 'NONE');
#173 = PRODUCT_DEFINITION_CONTEXT ( 'detailed design', #225, 'design' ) ;
#174 = ADVANCED_FACE ( 'NONE', ( #68 ), #27, .T. ) ;
#175 = PRESENTATION_LAYER_ASSIGNMENT (  '', '', ( #43 ) ) ;
#176 = PRESENTATION_LAYER_ASSIGNMENT (  '', '', ( #236 ) ) ;
#177 = DIMENSIONAL_EXPONENTS ( 1.000000000000000000, 0.000000000000000000, 0.000000000000000000, 0.000000000000000000, 0.000000000000000000, 0.000000000000000000, 0.000000000000000000 ) ;
#178 = SURFACE_STYLE_FILL_AREA ( #131 ) ;
#179 = DIRECTION ( 'NONE',  ( 3.918869757271530214E-17, 1.000000000000000000, -0.000000000000000000 ) ) ;
#180 = ORIENTED_EDGE ( 'NONE', *, *, #242, .F. ) ;
#181 = SURFACE_STYLE_USAGE ( .BOTH. , #209 ) ;
#182 = AXIS2_PLACEMENT_3D ( 'NONE', #115, #135, #156 ) ;
#183 = LINE ( 'NONE', #341, #171 ) ;
#184 = ORIENTED_EDGE ( 'NONE', *, *, #242, .T. ) ;
#185 = DIRECTION ( 'NONE',  ( -1.000000000000000000, 0.000000000000000000, 0.000000000000000000 ) ) ;
#186 = ADVANCED_FACE ( 'NONE', ( #268 ), #58, .T. ) ;
#187 = CARTESIAN_POINT ( 'NONE',  ( -0.1406000000000000028, 0.4374999999999998890, 0.000000000000000000 ) ) ;
#188 = COLOUR_RGB ( '',1.000000000000000000, 0.000000000000000000, 0.000000000000000000 ) ;
#189 = LINE ( 'NONE', #187, #260 ) ;
#190 = MECHANICAL_DESIGN_GEOMETRIC_PRESENTATION_REPRESENTATION (  '', ( #236 ), #126 ) ;
#191 = APPLICATION_CONTEXT ( 'automotive_design' ) ;
#192 = CARTESIAN_POINT ( 'NONE',  ( 0.000000000000000000, 0.4374999999999998890, 0.000000000000000000 ) ) ;
#193 = DIRECTION ( 'NONE',  ( -0.000000000000000000, -1.000000000000000000, -0.000000000000000000 ) ) ;
#194 = CARTESIAN_POINT ( 'NONE',  ( 1.721853399601178741E-17, 0.000000000000000000, 0.1406000000000000028 ) ) ;
#195 = DIRECTION ( 'NONE',  ( 0.000000000000000000, 0.000000000000000000, -1.000000000000000000 ) ) ;
#196 = SURFACE_STYLE_FILL_AREA ( #39 ) ;
#197 = PRESENTATION_LAYER_ASSIGNMENT (  '', '', ( #233 ) ) ;
#198 = DIRECTION ( 'NONE',  ( 3.918869757271530214E-17, 1.000000000000000000, -0.000000000000000000 ) ) ;
#199 =( LENGTH_UNIT ( ) NAMED_UNIT ( * ) SI_UNIT ( $, .METRE. ) );
#200 = DIRECTION ( 'NONE',  ( -1.000000000000000000, 0.000000000000000000, 0.000000000000000000 ) ) ;
#201 = UNCERTAINTY_MEASURE_WITH_UNIT (LENGTH_MEASURE( 1.000000000000000082E-05 ), #66, 'distance_accuracy_value', 'NONE');
#202 = VECTOR ( 'NONE', #91, 39.37007874015748143 ) ;
#203 = ADVANCED_FACE ( 'NONE', ( #239 ), #55, .F. ) ;
#204 = MECHANICAL_DESIGN_GEOMETRIC_PRESENTATION_REPRESENTATION (  '', ( #157 ), #270 ) ;
#205 = VECTOR ( 'NONE', #218, 39.37007874015748143 ) ;
#206 = FILL_AREA_STYLE ('',( #26 ) ) ;
#207 = CARTESIAN_POINT ( 'NONE',  ( 0.000000000000000000, 0.4375000000000000000, 0.000000000000000000 ) ) ;
#208 = ORIENTED_EDGE ( 'NONE', *, *, #60, .T. ) ;
#209 = SURFACE_SIDE_STYLE ('',( #150 ) ) ;
#210 = EDGE_LOOP ( 'NONE', ( #18, #240 ) ) ;
#211 =( NAMED_UNIT ( * ) PLANE_ANGLE_UNIT ( ) SI_UNIT ( $, .RADIAN. ) );
#212 = MANIFOLD_SOLID_BREP ( 'Revolve - Cutting Edge', #330 ) ;
#213 = ORIENTED_EDGE ( 'NONE', *, *, #214, .F. ) ;
#214 = EDGE_CURVE ( 'NONE', #75, #310, #266, .T. ) ;
#215 = DIRECTION ( 'NONE',  ( 3.918869757271530214E-17, 1.000000000000000000, -0.000000000000000000 ) ) ;
#216 =( CONVERSION_BASED_UNIT ( 'INCH', #305 ) LENGTH_UNIT ( ) NAMED_UNIT ( #349 ) );
#217 =( NAMED_UNIT ( * ) SI_UNIT ( $, .STERADIAN. ) SOLID_ANGLE_UNIT ( ) );
#218 = DIRECTION ( 'NONE',  ( 3.918869757271530214E-17, 1.000000000000000000, -0.000000000000000000 ) ) ;
#219 = AXIS2_PLACEMENT_3D ( 'NONE', #90, #38, #195 ) ;
#220 =( LENGTH_UNIT ( ) NAMED_UNIT ( * ) SI_UNIT ( $, .METRE. ) );
#221 =( CONVERSION_BASED_UNIT ( 'INCH', #325 ) LENGTH_UNIT ( ) NAMED_UNIT ( #170 ) );
#222 = CARTESIAN_POINT ( 'NONE',  ( 0.000000000000000000, 0.000000000000000000, 0.000000000000000000 ) ) ;
#223 = FACE_OUTER_BOUND ( 'NONE', #19, .T. ) ;
#224 = ORIENTED_EDGE ( 'NONE', *, *, #302, .T. ) ;
#225 = APPLICATION_CONTEXT ( 'automotive_design' ) ;
#226 = DIRECTION ( 'NONE',  ( 3.918869757271530214E-17, 1.000000000000000000, -0.000000000000000000 ) ) ;
#227 = VERTEX_POINT ( 'NONE', #269 ) ;
#228 = AXIS2_PLACEMENT_3D ( 'NONE', #88, #346, #267 ) ;
#229 = ADVANCED_FACE ( 'NONE', ( #356 ), #340, .T. ) ;
#230 = CARTESIAN_POINT ( 'NONE',  ( 0.1562500000000000833, 2.000000000000000000, 1.913510623667739771E-17 ) ) ;
#231 = DIRECTION ( 'NONE',  ( -1.000000000000000000, 0.000000000000000000, 0.000000000000000000 ) ) ;
#232 = EDGE_CURVE ( 'NONE', #300, #227, #29, .T. ) ;
#233 = STYLED_ITEM ( 'NONE', ( #262 ), #28 ) ;
#234 = AXIS2_PLACEMENT_3D ( 'NONE', #207, #155, #308 ) ;
#235 = MECHANICAL_DESIGN_GEOMETRIC_PRESENTATION_REPRESENTATION (  '', ( #43 ), #296 ) ;
#236 = STYLED_ITEM ( 'NONE', ( #284 ), #174 ) ;
#237 = DIRECTION ( 'NONE',  ( 3.918869757271530214E-17, 1.000000000000000000, -0.000000000000000000 ) ) ;
#238 = ORIENTED_EDGE ( 'NONE', *, *, #146, .F. ) ;
#239 = FACE_OUTER_BOUND ( 'NONE', #54, .T. ) ;
#240 = ORIENTED_EDGE ( 'NONE', *, *, #243, .T. ) ;
#241 =( NAMED_UNIT ( * ) PLANE_ANGLE_UNIT ( ) SI_UNIT ( $, .RADIAN. ) );
#242 = EDGE_CURVE ( 'NONE', #127, #310, #321, .T. ) ;
#243 = EDGE_CURVE ( 'NONE', #57, #106, #289, .T. ) ;
#244 = ORIENTED_EDGE ( 'NONE', *, *, #274, .F. ) ;
#245 = PRESENTATION_STYLE_ASSIGNMENT (( #332 ) ) ;
#246 = CIRCLE ( 'NONE', #143, 0.1406000000000000028 ) ;
#247 = AXIS2_PLACEMENT_3D ( 'NONE', #109, #30, #257 ) ;
#248 = PRODUCT_RELATED_PRODUCT_CATEGORY ( 'part', '', ( #261 ) ) ;
#249 =( NAMED_UNIT ( * ) PLANE_ANGLE_UNIT ( ) SI_UNIT ( $, .RADIAN. ) );
#250 = CARTESIAN_POINT ( 'NONE',  ( 0.000000000000000000, 0.000000000000000000, -0.1406000000000000028 ) ) ;
#251 = CARTESIAN_POINT ( 'NONE',  ( 0.000000000000000000, 0.000000000000000000, 0.000000000000000000 ) ) ;
#252 = DIRECTION ( 'NONE',  ( 0.3420201433256684354, 0.9396926207859085389, 4.188538737676987451E-17 ) ) ;
#253 = DIRECTION ( 'NONE',  ( -0.000000000000000000, -1.000000000000000000, -0.000000000000000000 ) ) ;
#254 = ORIENTED_EDGE ( 'NONE', *, *, #93, .F. ) ;
#255 =( NAMED_UNIT ( * ) SI_UNIT ( $, .STERADIAN. ) SOLID_ANGLE_UNIT ( ) );
#256 = AXIS2_PLACEMENT_3D ( 'NONE', #251, #7, #359 ) ;
#257 = DIRECTION ( 'NONE',  ( -1.000000000000000000, 0.000000000000000000, 0.000000000000000000 ) ) ;
#258 = DIRECTION ( 'NONE',  ( -1.000000000000000000, 0.000000000000000000, 0.000000000000000000 ) ) ;
#259 = DIRECTION ( 'NONE',  ( -0.000000000000000000, -1.000000000000000000, -0.000000000000000000 ) ) ;
#260 = VECTOR ( 'NONE', #161, 39.37007874015748143 ) ;
#261 = PRODUCT ( '30182', '30182', '', ( #352 ) ) ;
#262 = PRESENTATION_STYLE_ASSIGNMENT (( #323 ) ) ;
#263 = ADVANCED_FACE ( 'NONE', ( #223 ), #324, .T. ) ;
#264 = EDGE_CURVE ( 'NONE', #106, #57, #137, .T. ) ;
#265 = ORIENTED_EDGE ( 'NONE', *, *, #264, .F. ) ;
#266 = CIRCLE ( 'NONE', #14, 0.1562500000000000833 ) ;
#267 = DIRECTION ( 'NONE',  ( 1.000000000000000000, 0.000000000000000000, 0.000000000000000000 ) ) ;
#268 = FACE_OUTER_BOUND ( 'NONE', #22, .T. ) ;
#269 = CARTESIAN_POINT ( 'NONE',  ( 1.721853399601179049E-17, 0.4375000000000000000, 0.1406000000000000305 ) ) ;
#270 =( GEOMETRIC_REPRESENTATION_CONTEXT ( 3 ) GLOBAL_UNCERTAINTY_ASSIGNED_CONTEXT ( ( #354 ) ) GLOBAL_UNIT_ASSIGNED_CONTEXT ( ( #48, #136, #255 ) ) REPRESENTATION_CONTEXT ( 'NONE', 'WORKASPACE' ) );
#271 = AXIS2_PLACEMENT_3D ( 'NONE', #118, #215, #8 ) ;
#272 = FILL_AREA_STYLE ('',( #50 ) ) ;
#273 = ORIENTED_EDGE ( 'NONE', *, *, #140, .T. ) ;
#274 = EDGE_CURVE ( 'NONE', #300, #129, #6, .T. ) ;
#275 =( NAMED_UNIT ( * ) PLANE_ANGLE_UNIT ( ) SI_UNIT ( $, .RADIAN. ) );
#276 = ORIENTED_EDGE ( 'NONE', *, *, #232, .F. ) ;
#277 = FILL_AREA_STYLE_COLOUR ( '', #297 ) ;
#278 =( CONVERSION_BASED_UNIT ( 'INCH', #31 ) LENGTH_UNIT ( ) NAMED_UNIT ( #177 ) );
#279 = DIRECTION ( 'NONE',  ( 3.918869757271530214E-17, 1.000000000000000000, -0.000000000000000000 ) ) ;
#280 =( GEOMETRIC_REPRESENTATION_CONTEXT ( 3 ) GLOBAL_UNCERTAINTY_ASSIGNED_CONTEXT ( ( #201 ) ) GLOBAL_UNIT_ASSIGNED_CONTEXT ( ( #66, #249, #217 ) ) REPRESENTATION_CONTEXT ( 'NONE', 'WORKASPACE' ) );
#281 = CARTESIAN_POINT ( 'NONE',  ( 0.1562500000000001110, 2.000000000000000000, 1.913510623667739771E-17 ) ) ;
#282 = DIRECTION ( 'NONE',  ( 0.000000000000000000, 0.000000000000000000, -1.000000000000000000 ) ) ;
#283 = ORIENTED_EDGE ( 'NONE', *, *, #274, .T. ) ;
#284 = PRESENTATION_STYLE_ASSIGNMENT (( #89 ) ) ;
#285 = DIRECTION ( 'NONE',  ( -3.918869757271530214E-17, -1.000000000000000000, 0.000000000000000000 ) ) ;
#286 = DIRECTION ( 'NONE',  ( 3.918869757271530214E-17, 1.000000000000000000, -0.000000000000000000 ) ) ;
#287 = MECHANICAL_DESIGN_GEOMETRIC_PRESENTATION_REPRESENTATION (  '', ( #233 ), #20 ) ;
#288 = DIRECTION ( 'NONE',  ( 0.000000000000000000, 0.000000000000000000, -1.000000000000000000 ) ) ;
#289 = CIRCLE ( 'NONE', #182, 0.1562500000000000000 ) ;
#290 = DIRECTION ( 'NONE',  ( 0.000000000000000000, 0.000000000000000000, -1.000000000000000000 ) ) ;
#291 = FILL_AREA_STYLE_COLOUR ( '', #111 ) ;
#292 = UNCERTAINTY_MEASURE_WITH_UNIT (LENGTH_MEASURE( 1.000000000000000082E-05 ), #216, 'distance_accuracy_value', 'NONE');
#293 = EDGE_CURVE ( 'NONE', #67, #129, #307, .T. ) ;
#294 = DIRECTION ( 'NONE',  ( 3.918869757271530214E-17, 1.000000000000000000, -0.000000000000000000 ) ) ;
#295 = CARTESIAN_POINT ( 'NONE',  ( 1.721853399601178741E-17, 0.000000000000000000, 0.1406000000000000028 ) ) ;
#296 =( GEOMETRIC_REPRESENTATION_CONTEXT ( 3 ) GLOBAL_UNCERTAINTY_ASSIGNED_CONTEXT ( ( #292 ) ) GLOBAL_UNIT_ASSIGNED_CONTEXT ( ( #216, #275, #105 ) ) REPRESENTATION_CONTEXT ( 'NONE', 'WORKASPACE' ) );
#297 = COLOUR_RGB ( '',0.7921568627450980005, 0.8196078431372548767, 0.9333333333333333481 ) ;
#298 = LENGTH_MEASURE_WITH_UNIT ( LENGTH_MEASURE( 0.02539999999999999897 ), #56 );
#299 = AXIS2_PLACEMENT_3D ( 'NONE', #167, #13, #200 ) ;
#300 = VERTEX_POINT ( 'NONE', #338 ) ;
#301 = SURFACE_SIDE_STYLE ('',( #24 ) ) ;
#302 = EDGE_CURVE ( 'NONE', #129, #67, #78, .T. ) ;
#303 = FACE_OUTER_BOUND ( 'NONE', #102, .T. ) ;
#304 =( CONVERSION_BASED_UNIT ( 'INCH', #130 ) LENGTH_UNIT ( ) NAMED_UNIT ( #96 ) );
#305 = LENGTH_MEASURE_WITH_UNIT ( LENGTH_MEASURE( 0.02539999999999999897 ), #76 );
#306 = ORIENTED_EDGE ( 'NONE', *, *, #353, .F. ) ;
#307 = CIRCLE ( 'NONE', #112, 0.1406000000000000028 ) ;
#308 = DIRECTION ( 'NONE',  ( 0.000000000000000000, -0.000000000000000000, 1.000000000000000000 ) ) ;
#309 = ORIENTED_EDGE ( 'NONE', *, *, #293, .T. ) ;
#310 = VERTEX_POINT ( 'NONE', #317 ) ;
#311 = FILL_AREA_STYLE ('',( #86 ) ) ;
#312 = APPLICATION_PROTOCOL_DEFINITION ( 'draft international standard', 'automotive_design', 1998, #191 ) ;
#313 = VECTOR ( 'NONE', #253, 39.37007874015748143 ) ;
#314 = MECHANICAL_DESIGN_GEOMETRIC_PRESENTATION_REPRESENTATION (  '', ( #70 ), #120 ) ;
#315 = UNCERTAINTY_MEASURE_WITH_UNIT (LENGTH_MEASURE( 1.000000000000000082E-05 ), #221, 'distance_accuracy_value', 'NONE');
#316 = SURFACE_STYLE_FILL_AREA ( #311 ) ;
#317 = CARTESIAN_POINT ( 'NONE',  ( 0.1562500000000000833, 0.4804980216144649763, 1.913510623667740080E-17 ) ) ;
#318 = ORIENTED_EDGE ( 'NONE', *, *, #232, .T. ) ;
#319 = PLANE ( 'NONE',  #345 ) ;
#320 = DIRECTION ( 'NONE',  ( 0.000000000000000000, 0.000000000000000000, -1.000000000000000000 ) ) ;
#321 = LINE ( 'NONE', #342, #145 ) ;
#322 = EDGE_CURVE ( 'NONE', #358, #127, #151, .T. ) ;
#323 = SURFACE_STYLE_USAGE ( .BOTH. , #116 ) ;
#324 = CONICAL_SURFACE ( 'NONE', #271, 0.1406000000000000028, 0.3490658503988654515 ) ;
#325 = LENGTH_MEASURE_WITH_UNIT ( LENGTH_MEASURE( 0.02539999999999999897 ), #199 );
#326 = CARTESIAN_POINT ( 'NONE',  ( 0.000000000000000000, 0.4375000000000000000, 0.000000000000000000 ) ) ;
#327 = SHAPE_DEFINITION_REPRESENTATION ( #34, #15 ) ;
#328 = AXIS2_PLACEMENT_3D ( 'NONE', #166, #138, #290 ) ;
#329 = DIMENSIONAL_EXPONENTS ( 1.000000000000000000, 0.000000000000000000, 0.000000000000000000, 0.000000000000000000, 0.000000000000000000, 0.000000000000000000, 0.000000000000000000 ) ;
#330 = CLOSED_SHELL ( 'NONE', ( #174, #186, #117, #28 ) ) ;
#331 = PRESENTATION_STYLE_ASSIGNMENT (( #181 ) ) ;
#332 = SURFACE_STYLE_USAGE ( .BOTH. , #23 ) ;
#333 = ORIENTED_EDGE ( 'NONE', *, *, #60, .F. ) ;
#334 = CARTESIAN_POINT ( 'NONE',  ( 1.685036465274341012E-18, 0.4804980216144649763, 0.000000000000000000 ) ) ;
#335 = EDGE_LOOP ( 'NONE', ( #160, #25, #357, #81 ) ) ;
#336 = DIRECTION ( 'NONE',  ( -1.000000000000000000, 3.918869757271530214E-17, 0.000000000000000000 ) ) ;
#337 =( NAMED_UNIT ( * ) SI_UNIT ( $, .STERADIAN. ) SOLID_ANGLE_UNIT ( ) );
#338 = CARTESIAN_POINT ( 'NONE',  ( 0.000000000000000000, 0.4375000000000000000, -0.1406000000000000028 ) ) ;
#339 = DIRECTION ( 'NONE',  ( 3.918869757271530214E-17, 1.000000000000000000, -0.000000000000000000 ) ) ;
#340 = CONICAL_SURFACE ( 'NONE', #21, 0.1406000000000000028, 0.3490658503988654515 ) ;
#341 = CARTESIAN_POINT ( 'NONE',  ( -0.1562499999999999722, 2.000000000000000000, 0.000000000000000000 ) ) ;
#342 = CARTESIAN_POINT ( 'NONE',  ( 0.1406000000000000028, 0.4374999999999998890, 1.721853399601178741E-17 ) ) ;
#343 = FACE_OUTER_BOUND ( 'NONE', #335, .T. ) ;
#344 = FACE_OUTER_BOUND ( 'NONE', #153, .T. ) ;
#345 = AXIS2_PLACEMENT_3D ( 'NONE', #5, #285, #108 ) ;
#346 = DIRECTION ( 'NONE',  ( 0.000000000000000000, 0.000000000000000000, 1.000000000000000000 ) ) ;
#347 = CYLINDRICAL_SURFACE ( 'NONE', #299, 0.1562500000000000278 ) ;
#348 = SURFACE_STYLE_USAGE ( .BOTH. , #144 ) ;
#349 = DIMENSIONAL_EXPONENTS ( 1.000000000000000000, 0.000000000000000000, 0.000000000000000000, 0.000000000000000000, 0.000000000000000000, 0.000000000000000000, 0.000000000000000000 ) ;
#350 = UNCERTAINTY_MEASURE_WITH_UNIT (LENGTH_MEASURE( 1.000000000000000082E-05 ), #278, 'distance_accuracy_value', 'NONE');
#351 = EDGE_CURVE ( 'NONE', #310, #75, #2, .T. ) ;
#352 = PRODUCT_CONTEXT ( 'NONE', #191, 'mechanical' ) ;
#353 = EDGE_CURVE ( 'NONE', #127, #358, #80, .T. ) ;
#354 = UNCERTAINTY_MEASURE_WITH_UNIT (LENGTH_MEASURE( 1.000000000000000082E-05 ), #48, 'distance_accuracy_value', 'NONE');
#355 = MECHANICAL_DESIGN_GEOMETRIC_PRESENTATION_REPRESENTATION (  '', ( #46 ), #165 ) ;
#356 = FACE_OUTER_BOUND ( 'NONE', #17, .T. ) ;
#357 = ORIENTED_EDGE ( 'NONE', *, *, #146, .T. ) ;
#358 = VERTEX_POINT ( 'NONE', #40 ) ;
#359 = DIRECTION ( 'NONE',  ( 0.000000000000000000, 0.000000000000000000, -1.000000000000000000 ) ) ;
ENDSEC;
END-ISO-10303-21;
