ISO-10303-21;
HEADER;
FILE_DESCRIPTION (( 'STEP AP214' ),
    '1' );
FILE_NAME ('Micro_RTC-125-2.STEP',
    '2021-09-03T18:03:50',
    ( '' ),
    ( '' ),
    'SwSTEP 2.0',
    'SolidWorks 2020',
    '' );
FILE_SCHEMA (( 'AUTOMOTIVE_DESIGN' ));
ENDSEC;

DATA;
#1 = ORIENTED_EDGE ( 'NONE', *, *, #221, .F. ) ;
#2 = AXIS2_PLACEMENT_3D ( 'NONE', #227, #87, #53 ) ;
#3 = ADVANCED_FACE ( 'NONE', ( #177 ), #23, .T. ) ;
#4 = DIRECTION ( 'NONE',  ( 1.000000000000000000, 0.0000000000000000000, 0.0000000000000000000 ) ) ;
#5 = ORIENTED_EDGE ( 'NONE', *, *, #221, .T. ) ;
#6 = ORIENTED_EDGE ( 'NONE', *, *, #154, .F. ) ;
#7 = VECTOR ( 'NONE', #73, 39.37007874015748854 ) ;
#8 = DIRECTION ( 'NONE',  ( -0.0000000000000000000, -0.0000000000000000000, -1.000000000000000000 ) ) ;
#9 = FACE_OUTER_BOUND ( 'NONE', #40, .T. ) ;
#10 = CARTESIAN_POINT ( 'NONE',  ( 0.0000000000000000000, 0.0000000000000000000, 0.2183249722427783590 ) ) ;
#11 = SURFACE_STYLE_FILL_AREA ( #162 ) ;
#12 = VECTOR ( 'NONE', #8, 39.37007874015748143 ) ;
#13 = DIRECTION ( 'NONE',  ( -1.000000000000000000, 0.0000000000000000000, 0.0000000000000000000 ) ) ;
#14 = CYLINDRICAL_SURFACE ( 'NONE', #90, 0.06249999999999997918 ) ;
#15 = PRODUCT_DEFINITION_FORMATION_WITH_SPECIFIED_SOURCE ( 'ANY', '', #101, .NOT_KNOWN. ) ;
#16 = VECTOR ( 'NONE', #198, 39.37007874015748854 ) ;
#17 = PRODUCT_DEFINITION_SHAPE ( 'NONE', 'NONE',  #208 ) ;
#18 =( CONVERSION_BASED_UNIT ( 'INCH', #188 ) LENGTH_UNIT ( ) NAMED_UNIT ( #228 ) );
#19 =( GEOMETRIC_REPRESENTATION_CONTEXT ( 3 ) GLOBAL_UNCERTAINTY_ASSIGNED_CONTEXT ( ( #125 ) ) GLOBAL_UNIT_ASSIGNED_CONTEXT ( ( #18, #79, #207 ) ) REPRESENTATION_CONTEXT ( 'NONE', 'WORKASPACE' ) );
#20 = EDGE_LOOP ( 'NONE', ( #83, #5, #44, #237 ) ) ;
#21 = CARTESIAN_POINT ( 'NONE',  ( 0.0000000000000000000, 0.0000000000000000000, 2.000000000000000000 ) ) ;
#22 = DIRECTION ( 'NONE',  ( 0.0000000000000000000, 0.0000000000000000000, -1.000000000000000000 ) ) ;
#23 = CONICAL_SURFACE ( 'NONE', #104, 0.003999999999999999216, 0.2617993877991504625 ) ;
#24 = LINE ( 'NONE', #106, #223 ) ;
#25 = CARTESIAN_POINT ( 'NONE',  ( 0.0000000000000000000, 0.0000000000000000000, 2.000000000000000000 ) ) ;
#26 = UNCERTAINTY_MEASURE_WITH_UNIT (LENGTH_MEASURE( 1.000000000000000082E-05 ), #146, 'distance_accuracy_value', 'NONE');
#27 = ORIENTED_EDGE ( 'NONE', *, *, #56, .F. ) ;
#28 = DIRECTION ( 'NONE',  ( 0.0000000000000000000, 0.0000000000000000000, 1.000000000000000000 ) ) ;
#29 =( LENGTH_UNIT ( ) NAMED_UNIT ( * ) SI_UNIT ( $, .METRE. ) );
#30 = EDGE_CURVE ( 'NONE', #138, #157, #105, .T. ) ;
#31 = CARTESIAN_POINT ( 'NONE',  ( 0.06249999999999997918, 7.654042494670956004E-18, 1.781675027757221530 ) ) ;
#32 = CIRCLE ( 'NONE', #172, 0.06249999999999997918 ) ;
#33 = SURFACE_STYLE_USAGE ( .BOTH. , #240 ) ;
#34 = DIRECTION ( 'NONE',  ( 1.000000000000000000, 0.0000000000000000000, 0.0000000000000000000 ) ) ;
#35 = APPLICATION_CONTEXT ( 'automotive_design' ) ;
#36 = AXIS2_PLACEMENT_3D ( 'NONE', #183, #224, #202 ) ;
#37 = LENGTH_MEASURE_WITH_UNIT ( LENGTH_MEASURE( 0.02539999999999999897 ), #136 );
#38 = EDGE_CURVE ( 'NONE', #249, #213, #141, .T. ) ;
#39 = FACE_OUTER_BOUND ( 'NONE', #173, .T. ) ;
#40 = EDGE_LOOP ( 'NONE', ( #119, #236 ) ) ;
#41 = ORIENTED_EDGE ( 'NONE', *, *, #56, .T. ) ;
#42 = PRODUCT_RELATED_PRODUCT_CATEGORY ( 'part', '', ( #101 ) ) ;
#43 = VECTOR ( 'NONE', #137, 39.37007874015748854 ) ;
#44 = ORIENTED_EDGE ( 'NONE', *, *, #69, .T. ) ;
#45 = DIRECTION ( 'NONE',  ( 0.0000000000000000000, 0.0000000000000000000, -1.000000000000000000 ) ) ;
#46 = AXIS2_PLACEMENT_3D ( 'NONE', #25, #63, #102 ) ;
#47 = ORIENTED_EDGE ( 'NONE', *, *, #179, .T. ) ;
#48 = ADVANCED_FACE ( 'NONE', ( #239 ), #59, .T. ) ;
#49 = FACE_OUTER_BOUND ( 'NONE', #20, .T. ) ;
#50 = APPLICATION_CONTEXT ( 'automotive_design' ) ;
#51 = LENGTH_MEASURE_WITH_UNIT ( LENGTH_MEASURE( 0.02539999999999999897 ), #29 );
#52 = AXIS2_PLACEMENT_3D ( 'NONE', #216, #45, #197 ) ;
#53 = DIRECTION ( 'NONE',  ( -1.000000000000000000, 0.0000000000000000000, 0.0000000000000000000 ) ) ;
#54 = CARTESIAN_POINT ( 'NONE',  ( 0.0000000000000000000, 0.0000000000000000000, 0.0000000000000000000 ) ) ;
#55 = CARTESIAN_POINT ( 'NONE',  ( -0.003999999999999999216, 4.071950607164948101E-18, 0.0000000000000000000 ) ) ;
#56 = EDGE_CURVE ( 'NONE', #213, #175, #24, .T. ) ;
#57 = CARTESIAN_POINT ( 'NONE',  ( -0.003999999999999999216, -4.071950607164948101E-18, 2.000000000000000000 ) ) ;
#58 = CIRCLE ( 'NONE', #153, 0.06249999999999997918 ) ;
#59 = CONICAL_SURFACE ( 'NONE', #46, 0.003999999999999999216, 0.2617993877991504625 ) ;
#60 = FILL_AREA_STYLE ('',( #94 ) ) ;
#61 = EDGE_CURVE ( 'NONE', #213, #249, #189, .T. ) ;
#62 = DIRECTION ( 'NONE',  ( 0.0000000000000000000, 0.0000000000000000000, -1.000000000000000000 ) ) ;
#63 = DIRECTION ( 'NONE',  ( 0.0000000000000000000, 0.0000000000000000000, -1.000000000000000000 ) ) ;
#64 = ORIENTED_EDGE ( 'NONE', *, *, #179, .F. ) ;
#65 = SHAPE_DEFINITION_REPRESENTATION ( #17, #182 ) ;
#66 = ORIENTED_EDGE ( 'NONE', *, *, #114, .F. ) ;
#67 = ORIENTED_EDGE ( 'NONE', *, *, #243, .T. ) ;
#68 = STYLED_ITEM ( 'NONE', ( #89 ), #156 ) ;
#69 = EDGE_CURVE ( 'NONE', #122, #120, #218, .T. ) ;
#70 = DIRECTION ( 'NONE',  ( 0.2588190451025217387, 0.0000000000000000000, -0.9659258262890679791 ) ) ;
#71 = FACE_OUTER_BOUND ( 'NONE', #140, .T. ) ;
#72 = AXIS2_PLACEMENT_3D ( 'NONE', #10, #165, #151 ) ;
#73 = DIRECTION ( 'NONE',  ( -0.2588190451025217387, 3.169619151431776651E-17, 0.9659258262890679791 ) ) ;
#74 = CIRCLE ( 'NONE', #187, 0.003999999999999999216 ) ;
#75 = CARTESIAN_POINT ( 'NONE',  ( 0.0000000000000000000, 0.0000000000000000000, 0.0000000000000000000 ) ) ;
#76 = DIRECTION ( 'NONE',  ( -1.000000000000000000, 0.0000000000000000000, 0.0000000000000000000 ) ) ;
#77 = DIRECTION ( 'NONE',  ( 0.0000000000000000000, 0.0000000000000000000, 1.000000000000000000 ) ) ;
#78 = AXIS2_PLACEMENT_3D ( 'NONE', #21, #85, #159 ) ;
#79 =( NAMED_UNIT ( * ) PLANE_ANGLE_UNIT ( ) SI_UNIT ( $, .RADIAN. ) );
#80 = ORIENTED_EDGE ( 'NONE', *, *, #114, .T. ) ;
#81 = CIRCLE ( 'NONE', #245, 0.003999999999999999216 ) ;
#82 = CARTESIAN_POINT ( 'NONE',  ( 0.0000000000000000000, 0.0000000000000000000, 2.000000000000000000 ) ) ;
#83 = ORIENTED_EDGE ( 'NONE', *, *, #161, .F. ) ;
#84 = ORIENTED_EDGE ( 'NONE', *, *, #61, .T. ) ;
#85 = DIRECTION ( 'NONE',  ( 0.0000000000000000000, 0.0000000000000000000, -1.000000000000000000 ) ) ;
#86 = ORIENTED_EDGE ( 'NONE', *, *, #69, .F. ) ;
#87 = DIRECTION ( 'NONE',  ( -0.0000000000000000000, -0.0000000000000000000, -1.000000000000000000 ) ) ;
#88 = CARTESIAN_POINT ( 'NONE',  ( -0.06249999999999997918, 0.0000000000000000000, 0.2183249722427783590 ) ) ;
#89 = PRESENTATION_STYLE_ASSIGNMENT (( #33 ) ) ;
#90 = AXIS2_PLACEMENT_3D ( 'NONE', #129, #92, #163 ) ;
#91 = LINE ( 'NONE', #113, #7 ) ;
#92 = DIRECTION ( 'NONE',  ( -0.0000000000000000000, -0.0000000000000000000, -1.000000000000000000 ) ) ;
#93 = DIMENSIONAL_EXPONENTS ( 1.000000000000000000, 0.0000000000000000000, 0.0000000000000000000, 0.0000000000000000000, 0.0000000000000000000, 0.0000000000000000000, 0.0000000000000000000 ) ;
#94 = FILL_AREA_STYLE_COLOUR ( '', #194 ) ;
#95 = ADVANCED_FACE ( 'NONE', ( #49 ), #127, .T. ) ;
#96 = AXIS2_PLACEMENT_3D ( 'NONE', #54, #131, #186 ) ;
#97 = CARTESIAN_POINT ( 'NONE',  ( 0.0000000000000000000, 0.0000000000000000000, 2.000000000000000000 ) ) ;
#98 = FACE_OUTER_BOUND ( 'NONE', #139, .T. ) ;
#99 = EDGE_CURVE ( 'NONE', #157, #120, #180, .T. ) ;
#100 = AXIS2_PLACEMENT_3D ( 'NONE', #97, #229, #133 ) ;
#101 = PRODUCT ( 'Micro_RTC-125-2', 'Micro_RTC-125-2', '', ( #238 ) ) ;
#102 = DIRECTION ( 'NONE',  ( 1.000000000000000000, 0.0000000000000000000, 0.0000000000000000000 ) ) ;
#103 = DIRECTION ( 'NONE',  ( 0.0000000000000000000, 0.0000000000000000000, 1.000000000000000000 ) ) ;
#104 = AXIS2_PLACEMENT_3D ( 'NONE', #82, #22, #124 ) ;
#105 = LINE ( 'NONE', #160, #16 ) ;
#106 = CARTESIAN_POINT ( 'NONE',  ( 0.003999999999999999216, 0.0000000000000000000, 2.000000000000000000 ) ) ;
#107 = AXIS2_PLACEMENT_3D ( 'NONE', #248, #103, #4 ) ;
#108 = CARTESIAN_POINT ( 'NONE',  ( -0.06249999999999997918, 0.0000000000000000000, 2.000000000000000000 ) ) ;
#109 = CARTESIAN_POINT ( 'NONE',  ( 0.06249999999999997918, 7.654042494670956004E-18, 2.000000000000000000 ) ) ;
#110 = MECHANICAL_DESIGN_GEOMETRIC_PRESENTATION_REPRESENTATION (  '', ( #68 ), #206 ) ;
#111 = UNCERTAINTY_MEASURE_WITH_UNIT (LENGTH_MEASURE( 1.000000000000000082E-05 ), #117, 'distance_accuracy_value', 'NONE');
#112 = VECTOR ( 'NONE', #148, 39.37007874015748143 ) ;
#113 = CARTESIAN_POINT ( 'NONE',  ( -0.003999999999999999216, 4.898587196589411612E-19, 0.0000000000000000000 ) ) ;
#114 = EDGE_CURVE ( 'NONE', #120, #157, #176, .T. ) ;
#115 = DIMENSIONAL_EXPONENTS ( 1.000000000000000000, 0.0000000000000000000, 0.0000000000000000000, 0.0000000000000000000, 0.0000000000000000000, 0.0000000000000000000, 0.0000000000000000000 ) ;
#116 = CARTESIAN_POINT ( 'NONE',  ( -0.003999999999999999216, -4.898587196589411612E-19, 2.000000000000000000 ) ) ;
#117 =( CONVERSION_BASED_UNIT ( 'INCH', #37 ) LENGTH_UNIT ( ) NAMED_UNIT ( #115 ) );
#118 = SURFACE_SIDE_STYLE ('',( #210 ) ) ;
#119 = ORIENTED_EDGE ( 'NONE', *, *, #184, .T. ) ;
#120 = VERTEX_POINT ( 'NONE', #88 ) ;
#121 = ORIENTED_EDGE ( 'NONE', *, *, #99, .T. ) ;
#122 = VERTEX_POINT ( 'NONE', #145 ) ;
#123 = APPLICATION_PROTOCOL_DEFINITION ( 'draft international standard', 'automotive_design', 1998, #35 ) ;
#124 = DIRECTION ( 'NONE',  ( 1.000000000000000000, 0.0000000000000000000, 0.0000000000000000000 ) ) ;
#125 = UNCERTAINTY_MEASURE_WITH_UNIT (LENGTH_MEASURE( 1.000000000000000082E-05 ), #18, 'distance_accuracy_value', 'NONE');
#126 = PRESENTATION_LAYER_ASSIGNMENT (  '', '', ( #150 ) ) ;
#127 = CYLINDRICAL_SURFACE ( 'NONE', #36, 0.06249999999999997918 ) ;
#128 =( NAMED_UNIT ( * ) SI_UNIT ( $, .STERADIAN. ) SOLID_ANGLE_UNIT ( ) );
#129 = CARTESIAN_POINT ( 'NONE',  ( 0.0000000000000000000, 0.0000000000000000000, 2.000000000000000000 ) ) ;
#130 = DIRECTION ( 'NONE',  ( 1.000000000000000000, 0.0000000000000000000, 0.0000000000000000000 ) ) ;
#131 = DIRECTION ( 'NONE',  ( 0.0000000000000000000, 0.0000000000000000000, 1.000000000000000000 ) ) ;
#132 = DIRECTION ( 'NONE',  ( 0.0000000000000000000, 0.0000000000000000000, -1.000000000000000000 ) ) ;
#133 = DIRECTION ( 'NONE',  ( 1.000000000000000000, 0.0000000000000000000, -0.0000000000000000000 ) ) ;
#134 = CONICAL_SURFACE ( 'NONE', #233, 0.003999999999999999216, 0.2617993877991504625 ) ;
#135 = SURFACE_STYLE_USAGE ( .BOTH. , #118 ) ;
#136 =( LENGTH_UNIT ( ) NAMED_UNIT ( * ) SI_UNIT ( $, .METRE. ) );
#137 = DIRECTION ( 'NONE',  ( -0.2588190451025217387, -3.169619151431776651E-17, -0.9659258262890679791 ) ) ;
#138 = VERTEX_POINT ( 'NONE', #241 ) ;
#139 = EDGE_LOOP ( 'NONE', ( #193, #214 ) ) ;
#140 = EDGE_LOOP ( 'NONE', ( #234, #47, #80, #220 ) ) ;
#141 = CIRCLE ( 'NONE', #52, 0.003999999999999999216 ) ;
#142 = VERTEX_POINT ( 'NONE', #55 ) ;
#143 = EDGE_LOOP ( 'NONE', ( #155, #158, #66, #86 ) ) ;
#144 = ADVANCED_FACE ( 'NONE', ( #205 ), #14, .T. ) ;
#145 = CARTESIAN_POINT ( 'NONE',  ( -0.06249999999999997918, 0.0000000000000000000, 1.781675027757221530 ) ) ;
#146 =( CONVERSION_BASED_UNIT ( 'INCH', #51 ) LENGTH_UNIT ( ) NAMED_UNIT ( #93 ) );
#147 = CLOSED_SHELL ( 'NONE', ( #48, #171, #144, #95, #230, #191, #3, #204 ) ) ;
#148 = DIRECTION ( 'NONE',  ( -0.0000000000000000000, -0.0000000000000000000, -1.000000000000000000 ) ) ;
#149 = PLANE ( 'NONE',  #96 ) ;
#150 = STYLED_ITEM ( 'NONE', ( #167 ), #182 ) ;
#151 = DIRECTION ( 'NONE',  ( -1.000000000000000000, 0.0000000000000000000, 0.0000000000000000000 ) ) ;
#152 = CARTESIAN_POINT ( 'NONE',  ( 0.003999999999999999216, 0.0000000000000000000, 2.000000000000000000 ) ) ;
#153 = AXIS2_PLACEMENT_3D ( 'NONE', #246, #62, #76 ) ;
#154 = EDGE_CURVE ( 'NONE', #122, #175, #32, .T. ) ;
#155 = ORIENTED_EDGE ( 'NONE', *, *, #154, .T. ) ;
#156 = MANIFOLD_SOLID_BREP ( 'Mirror1', #147 ) ;
#157 = VERTEX_POINT ( 'NONE', #226 ) ;
#158 = ORIENTED_EDGE ( 'NONE', *, *, #161, .T. ) ;
#159 = DIRECTION ( 'NONE',  ( -1.000000000000000000, 0.0000000000000000000, 0.0000000000000000000 ) ) ;
#160 = CARTESIAN_POINT ( 'NONE',  ( 0.003999999999999999216, 0.0000000000000000000, 0.0000000000000000000 ) ) ;
#161 = EDGE_CURVE ( 'NONE', #175, #157, #164, .T. ) ;
#162 = FILL_AREA_STYLE ('',( #222 ) ) ;
#163 = DIRECTION ( 'NONE',  ( -1.000000000000000000, 0.0000000000000000000, 0.0000000000000000000 ) ) ;
#164 = LINE ( 'NONE', #109, #112 ) ;
#165 = DIRECTION ( 'NONE',  ( -0.0000000000000000000, -0.0000000000000000000, -1.000000000000000000 ) ) ;
#166 =( NAMED_UNIT ( * ) PLANE_ANGLE_UNIT ( ) SI_UNIT ( $, .RADIAN. ) );
#167 = PRESENTATION_STYLE_ASSIGNMENT (( #135 ) ) ;
#168 =( NAMED_UNIT ( * ) SI_UNIT ( $, .STERADIAN. ) SOLID_ANGLE_UNIT ( ) );
#169 =( GEOMETRIC_REPRESENTATION_CONTEXT ( 3 ) GLOBAL_UNCERTAINTY_ASSIGNED_CONTEXT ( ( #111 ) ) GLOBAL_UNIT_ASSIGNED_CONTEXT ( ( #117, #190, #168 ) ) REPRESENTATION_CONTEXT ( 'NONE', 'WORKASPACE' ) );
#170 = DIRECTION ( 'NONE',  ( -0.0000000000000000000, -0.0000000000000000000, -1.000000000000000000 ) ) ;
#171 = ADVANCED_FACE ( 'NONE', ( #71 ), #215, .T. ) ;
#172 = AXIS2_PLACEMENT_3D ( 'NONE', #200, #132, #203 ) ;
#173 = EDGE_LOOP ( 'NONE', ( #64, #195, #235, #121 ) ) ;
#174 = ORIENTED_EDGE ( 'NONE', *, *, #38, .T. ) ;
#175 = VERTEX_POINT ( 'NONE', #31 ) ;
#176 = CIRCLE ( 'NONE', #72, 0.06249999999999997918 ) ;
#177 = FACE_OUTER_BOUND ( 'NONE', #178, .T. ) ;
#178 = EDGE_LOOP ( 'NONE', ( #192, #174, #41, #6 ) ) ;
#179 = EDGE_CURVE ( 'NONE', #142, #120, #91, .T. ) ;
#180 = CIRCLE ( 'NONE', #2, 0.06249999999999997918 ) ;
#181 = DIRECTION ( 'NONE',  ( -0.0000000000000000000, -0.0000000000000000000, -1.000000000000000000 ) ) ;
#182 = ADVANCED_BREP_SHAPE_REPRESENTATION ( 'Micro_RTC-125-2', ( #156, #107 ), #19 ) ;
#183 = CARTESIAN_POINT ( 'NONE',  ( 0.0000000000000000000, 0.0000000000000000000, 2.000000000000000000 ) ) ;
#184 = EDGE_CURVE ( 'NONE', #138, #142, #74, .T. ) ;
#185 = CARTESIAN_POINT ( 'NONE',  ( 0.0000000000000000000, 0.0000000000000000000, 0.0000000000000000000 ) ) ;
#186 = DIRECTION ( 'NONE',  ( 1.000000000000000000, 0.0000000000000000000, -0.0000000000000000000 ) ) ;
#187 = AXIS2_PLACEMENT_3D ( 'NONE', #185, #181, #13 ) ;
#188 = LENGTH_MEASURE_WITH_UNIT ( LENGTH_MEASURE( 0.02539999999999999897 ), #209 );
#189 = CIRCLE ( 'NONE', #78, 0.003999999999999999216 ) ;
#190 =( NAMED_UNIT ( * ) PLANE_ANGLE_UNIT ( ) SI_UNIT ( $, .RADIAN. ) );
#191 = ADVANCED_FACE ( 'NONE', ( #9 ), #149, .F. ) ;
#192 = ORIENTED_EDGE ( 'NONE', *, *, #243, .F. ) ;
#193 = ORIENTED_EDGE ( 'NONE', *, *, #61, .F. ) ;
#194 = COLOUR_RGB ( '',0.7921568627450980005, 0.8196078431372548767, 0.9333333333333333481 ) ;
#195 = ORIENTED_EDGE ( 'NONE', *, *, #184, .F. ) ;
#196 = COLOUR_RGB ( '',0.7921568627450980005, 0.8196078431372548767, 0.9333333333333333481 ) ;
#197 = DIRECTION ( 'NONE',  ( -1.000000000000000000, 0.0000000000000000000, 0.0000000000000000000 ) ) ;
#198 = DIRECTION ( 'NONE',  ( 0.2588190451025217387, 0.0000000000000000000, 0.9659258262890679791 ) ) ;
#199 = EDGE_LOOP ( 'NONE', ( #84, #67, #1, #27 ) ) ;
#200 = CARTESIAN_POINT ( 'NONE',  ( 0.0000000000000000000, 0.0000000000000000000, 1.781675027757221530 ) ) ;
#201 = AXIS2_PLACEMENT_3D ( 'NONE', #225, #28, #130 ) ;
#202 = DIRECTION ( 'NONE',  ( -1.000000000000000000, 0.0000000000000000000, 0.0000000000000000000 ) ) ;
#203 = DIRECTION ( 'NONE',  ( -1.000000000000000000, 0.0000000000000000000, 0.0000000000000000000 ) ) ;
#204 = ADVANCED_FACE ( 'NONE', ( #98 ), #247, .T. ) ;
#205 = FACE_OUTER_BOUND ( 'NONE', #143, .T. ) ;
#206 =( GEOMETRIC_REPRESENTATION_CONTEXT ( 3 ) GLOBAL_UNCERTAINTY_ASSIGNED_CONTEXT ( ( #26 ) ) GLOBAL_UNIT_ASSIGNED_CONTEXT ( ( #146, #166, #128 ) ) REPRESENTATION_CONTEXT ( 'NONE', 'WORKASPACE' ) );
#207 =( NAMED_UNIT ( * ) SI_UNIT ( $, .STERADIAN. ) SOLID_ANGLE_UNIT ( ) );
#208 = PRODUCT_DEFINITION ( 'UNKNOWN', '', #15, #219 ) ;
#209 =( LENGTH_UNIT ( ) NAMED_UNIT ( * ) SI_UNIT ( $, .METRE. ) );
#210 = SURFACE_STYLE_FILL_AREA ( #60 ) ;
#211 = MECHANICAL_DESIGN_GEOMETRIC_PRESENTATION_REPRESENTATION (  '', ( #150 ), #169 ) ;
#212 = PRESENTATION_LAYER_ASSIGNMENT (  '', '', ( #68 ) ) ;
#213 = VERTEX_POINT ( 'NONE', #152 ) ;
#214 = ORIENTED_EDGE ( 'NONE', *, *, #38, .F. ) ;
#215 = CONICAL_SURFACE ( 'NONE', #201, 0.003999999999999999216, 0.2617993877991504625 ) ;
#216 = CARTESIAN_POINT ( 'NONE',  ( 0.0000000000000000000, 0.0000000000000000000, 2.000000000000000000 ) ) ;
#217 = EDGE_CURVE ( 'NONE', #142, #138, #81, .T. ) ;
#218 = LINE ( 'NONE', #108, #12 ) ;
#219 = PRODUCT_DEFINITION_CONTEXT ( 'detailed design', #35, 'design' ) ;
#220 = ORIENTED_EDGE ( 'NONE', *, *, #30, .F. ) ;
#221 = EDGE_CURVE ( 'NONE', #175, #122, #58, .T. ) ;
#222 = FILL_AREA_STYLE_COLOUR ( '', #196 ) ;
#223 = VECTOR ( 'NONE', #70, 39.37007874015748854 ) ;
#224 = DIRECTION ( 'NONE',  ( -0.0000000000000000000, -0.0000000000000000000, -1.000000000000000000 ) ) ;
#225 = CARTESIAN_POINT ( 'NONE',  ( 0.0000000000000000000, 0.0000000000000000000, 0.0000000000000000000 ) ) ;
#226 = CARTESIAN_POINT ( 'NONE',  ( 0.06249999999999997918, 7.654042494670956004E-18, 0.2183249722427783590 ) ) ;
#227 = CARTESIAN_POINT ( 'NONE',  ( 0.0000000000000000000, 0.0000000000000000000, 0.2183249722427783590 ) ) ;
#228 = DIMENSIONAL_EXPONENTS ( 1.000000000000000000, 0.0000000000000000000, 0.0000000000000000000, 0.0000000000000000000, 0.0000000000000000000, 0.0000000000000000000, 0.0000000000000000000 ) ;
#229 = DIRECTION ( 'NONE',  ( 0.0000000000000000000, 0.0000000000000000000, 1.000000000000000000 ) ) ;
#230 = ADVANCED_FACE ( 'NONE', ( #39 ), #134, .T. ) ;
#231 = DIRECTION ( 'NONE',  ( -1.000000000000000000, 0.0000000000000000000, 0.0000000000000000000 ) ) ;
#232 = LINE ( 'NONE', #116, #43 ) ;
#233 = AXIS2_PLACEMENT_3D ( 'NONE', #75, #77, #34 ) ;
#234 = ORIENTED_EDGE ( 'NONE', *, *, #217, .F. ) ;
#235 = ORIENTED_EDGE ( 'NONE', *, *, #30, .T. ) ;
#236 = ORIENTED_EDGE ( 'NONE', *, *, #217, .T. ) ;
#237 = ORIENTED_EDGE ( 'NONE', *, *, #99, .F. ) ;
#238 = PRODUCT_CONTEXT ( 'NONE', #50, 'mechanical' ) ;
#239 = FACE_OUTER_BOUND ( 'NONE', #199, .T. ) ;
#240 = SURFACE_SIDE_STYLE ('',( #11 ) ) ;
#241 = CARTESIAN_POINT ( 'NONE',  ( 0.003999999999999999216, 0.0000000000000000000, 0.0000000000000000000 ) ) ;
#242 = APPLICATION_PROTOCOL_DEFINITION ( 'draft international standard', 'automotive_design', 1998, #50 ) ;
#243 = EDGE_CURVE ( 'NONE', #249, #122, #232, .T. ) ;
#244 = CARTESIAN_POINT ( 'NONE',  ( 0.0000000000000000000, 0.0000000000000000000, 0.0000000000000000000 ) ) ;
#245 = AXIS2_PLACEMENT_3D ( 'NONE', #244, #170, #231 ) ;
#246 = CARTESIAN_POINT ( 'NONE',  ( 0.0000000000000000000, 0.0000000000000000000, 1.781675027757221530 ) ) ;
#247 = PLANE ( 'NONE',  #100 ) ;
#248 = CARTESIAN_POINT ( 'NONE',  ( 0.0000000000000000000, 0.0000000000000000000, 0.0000000000000000000 ) ) ;
#249 = VERTEX_POINT ( 'NONE', #57 ) ;
ENDSEC;
END-ISO-10303-21;
