ISO-10303-21;
HEADER;
FILE_DESCRIPTION (( 'STEP AP214' ),
    '1' );
FILE_NAME ('83418.STEP',
    '2023-06-30T23:14:33',
    ( '' ),
    ( '' ),
    'SwSTEP 2.0',
    'SolidWorks 2023',
    '' );
FILE_SCHEMA (( 'AUTOMOTIVE_DESIGN' ));
ENDSEC;

DATA;
#1 = VECTOR ( 'NONE', #170, 39.37007874015748143 ) ;
#2 =( GEOMETRIC_REPRESENTATION_CONTEXT ( 3 ) GLOBAL_UNCERTAINTY_ASSIGNED_CONTEXT ( ( #81 ) ) GLOBAL_UNIT_ASSIGNED_CONTEXT ( ( #172, #314, #57 ) ) REPRESENTATION_CONTEXT ( 'NONE', 'WORKASPACE' ) );
#3 =( LENGTH_UNIT ( ) NAMED_UNIT ( * ) SI_UNIT ( $, .METRE. ) );
#4 = PRODUCT_DEFINITION ( 'UNKNOWN', '', #318, #19 ) ;
#5 = ORIENTED_EDGE ( 'NONE', *, *, #49, .T. ) ;
#6 = ORIENTED_EDGE ( 'NONE', *, *, #80, .T. ) ;
#7 = ORIENTED_EDGE ( 'NONE', *, *, #73, .T. ) ;
#8 =( NAMED_UNIT ( * ) SI_UNIT ( $, .STERADIAN. ) SOLID_ANGLE_UNIT ( ) );
#9 = ADVANCED_FACE ( 'NONE', ( #216 ), #125, .T. ) ;
#10 = DIRECTION ( 'NONE',  ( 0.000000000000000000, 0.000000000000000000, -1.000000000000000000 ) ) ;
#11 = DIRECTION ( 'NONE',  ( 0.000000000000000000, 0.000000000000000000, 1.000000000000000000 ) ) ;
#12 = DIRECTION ( 'NONE',  ( -1.000000000000000000, 0.000000000000000000, 0.000000000000000000 ) ) ;
#13 = STYLED_ITEM ( 'NONE', ( #261 ), #130 ) ;
#14 = PRESENTATION_LAYER_ASSIGNMENT (  '', '', ( #45 ) ) ;
#15 = UNCERTAINTY_MEASURE_WITH_UNIT (LENGTH_MEASURE( 1.000000000000000082E-05 ), #198, 'distance_accuracy_value', 'NONE');
#16 = CARTESIAN_POINT ( 'NONE',  ( 0.000000000000000000, 0.000000000000000000, 0.000000000000000000 ) ) ;
#17 = FILL_AREA_STYLE ('',( #299 ) ) ;
#18 = CARTESIAN_POINT ( 'NONE',  ( 0.000000000000000000, 1.250000000000000000, 0.000000000000000000 ) ) ;
#19 = PRODUCT_DEFINITION_CONTEXT ( 'detailed design', #353, 'design' ) ;
#20 = CARTESIAN_POINT ( 'NONE',  ( -1.530808498934191509E-17, 0.1250000000000000000, 0.000000000000000000 ) ) ;
#21 = CARTESIAN_POINT ( 'NONE',  ( 0.1249999999999998473, 3.000000000000000444, 1.530808498934189660E-17 ) ) ;
#22 =( NAMED_UNIT ( * ) PLANE_ANGLE_UNIT ( ) SI_UNIT ( $, .RADIAN. ) );
#23 =( CONVERSION_BASED_UNIT ( 'INCH', #224 ) LENGTH_UNIT ( ) NAMED_UNIT ( #70 ) );
#24 = CARTESIAN_POINT ( 'NONE',  ( 1.523442673454382089E-16, 1.250000000000000000, 0.000000000000000000 ) ) ;
#25 = CYLINDRICAL_SURFACE ( 'NONE', #111, 0.1249999999999999306 ) ;
#26 = EDGE_CURVE ( 'NONE', #265, #185, #43, .T. ) ;
#27 =( NAMED_UNIT ( * ) SI_UNIT ( $, .STERADIAN. ) SOLID_ANGLE_UNIT ( ) );
#28 = DIRECTION ( 'NONE',  ( -1.220437756016033644E-16, 1.000000000000000000, -0.000000000000000000 ) ) ;
#29 = CIRCLE ( 'NONE', #354, 0.1250000000000000000 ) ;
#30 = ORIENTED_EDGE ( 'NONE', *, *, #80, .F. ) ;
#31 = FACE_OUTER_BOUND ( 'NONE', #69, .T. ) ;
#32 = CARTESIAN_POINT ( 'NONE',  ( 0.000000000000000000, 1.250000000000000000, 0.000000000000000000 ) ) ;
#33 = FACE_OUTER_BOUND ( 'NONE', #255, .T. ) ;
#34 = ORIENTED_EDGE ( 'NONE', *, *, #73, .F. ) ;
#35 = CARTESIAN_POINT ( 'NONE',  ( 0.1250000000000000000, 0.1250000000000000278, 0.000000000000000000 ) ) ;
#36 = VERTEX_POINT ( 'NONE', #95 ) ;
#37 = AXIS2_PLACEMENT_3D ( 'NONE', #16, #359, #252 ) ;
#38 = CIRCLE ( 'NONE', #201, 0.1249999999999999167 ) ;
#39 = VERTEX_POINT ( 'NONE', #180 ) ;
#40 = VERTEX_POINT ( 'NONE', #148 ) ;
#41 =( GEOMETRIC_REPRESENTATION_CONTEXT ( 3 ) GLOBAL_UNCERTAINTY_ASSIGNED_CONTEXT ( ( #15 ) ) GLOBAL_UNIT_ASSIGNED_CONTEXT ( ( #198, #273, #368 ) ) REPRESENTATION_CONTEXT ( 'NONE', 'WORKASPACE' ) );
#42 = ADVANCED_FACE ( 'NONE', ( #65 ), #182, .T. ) ;
#43 = LINE ( 'NONE', #158, #212 ) ;
#44 = FILL_AREA_STYLE ('',( #288 ) ) ;
#45 = STYLED_ITEM ( 'NONE', ( #165 ), #227 ) ;
#46 = AXIS2_PLACEMENT_3D ( 'NONE', #62, #11, #246 ) ;
#47 =( LENGTH_UNIT ( ) NAMED_UNIT ( * ) SI_UNIT ( $, .METRE. ) );
#48 = DIMENSIONAL_EXPONENTS ( 1.000000000000000000, 0.000000000000000000, 0.000000000000000000, 0.000000000000000000, 0.000000000000000000, 0.000000000000000000, 0.000000000000000000 ) ;
#49 = EDGE_CURVE ( 'NONE', #40, #207, #29, .T. ) ;
#50 = CARTESIAN_POINT ( 'NONE',  ( -6.123233995736772199E-17, 3.000000000000000444, 0.000000000000000000 ) ) ;
#51 = FACE_OUTER_BOUND ( 'NONE', #352, .T. ) ;
#52 = LENGTH_MEASURE_WITH_UNIT ( LENGTH_MEASURE( 0.02539999999999999897 ), #47 );
#53 = DIRECTION ( 'NONE',  ( 1.000000000000000000, 0.000000000000000000, 0.000000000000000000 ) ) ;
#54 = SURFACE_SIDE_STYLE ('',( #140 ) ) ;
#55 = ADVANCED_FACE ( 'NONE', ( #84 ), #277, .T. ) ;
#56 = FILL_AREA_STYLE_COLOUR ( '', #104 ) ;
#57 =( NAMED_UNIT ( * ) SI_UNIT ( $, .STERADIAN. ) SOLID_ANGLE_UNIT ( ) );
#58 = CIRCLE ( 'NONE', #267, 0.1249999999999998473 ) ;
#59 = EDGE_LOOP ( 'NONE', ( #34, #123, #369, #236, #336 ) ) ;
#60 =( GEOMETRIC_REPRESENTATION_CONTEXT ( 3 ) GLOBAL_UNCERTAINTY_ASSIGNED_CONTEXT ( ( #328 ) ) GLOBAL_UNIT_ASSIGNED_CONTEXT ( ( #71, #186, #157 ) ) REPRESENTATION_CONTEXT ( 'NONE', 'WORKASPACE' ) );
#61 = CARTESIAN_POINT ( 'NONE',  ( -1.530808498934191509E-17, 0.1250000000000000000, 0.000000000000000000 ) ) ;
#62 = CARTESIAN_POINT ( 'NONE',  ( 0.000000000000000000, 0.000000000000000000, 0.000000000000000000 ) ) ;
#63 = ORIENTED_EDGE ( 'NONE', *, *, #145, .F. ) ;
#64 = DIRECTION ( 'NONE',  ( 1.220437756016033644E-16, -1.000000000000000000, 0.000000000000000000 ) ) ;
#65 = FACE_OUTER_BOUND ( 'NONE', #121, .T. ) ;
#66 = LINE ( 'NONE', #230, #126 ) ;
#67 = ORIENTED_EDGE ( 'NONE', *, *, #127, .F. ) ;
#68 = PRESENTATION_LAYER_ASSIGNMENT (  '', '', ( #144 ) ) ;
#69 = EDGE_LOOP ( 'NONE', ( #324, #6, #238, #213 ) ) ;
#70 = DIMENSIONAL_EXPONENTS ( 1.000000000000000000, 0.000000000000000000, 0.000000000000000000, 0.000000000000000000, 0.000000000000000000, 0.000000000000000000, 0.000000000000000000 ) ;
#71 =( CONVERSION_BASED_UNIT ( 'INCH', #325 ) LENGTH_UNIT ( ) NAMED_UNIT ( #297 ) );
#72 = AXIS2_PLACEMENT_3D ( 'NONE', #91, #64, #322 ) ;
#73 = EDGE_CURVE ( 'NONE', #99, #39, #108, .T. ) ;
#74 = VERTEX_POINT ( 'NONE', #218 ) ;
#75 = DIRECTION ( 'NONE',  ( -1.000000000000000000, 0.000000000000000000, 0.000000000000000000 ) ) ;
#76 = CLOSED_SHELL ( 'NONE', ( #130, #227, #210, #55, #310 ) ) ;
#77 = CARTESIAN_POINT ( 'NONE',  ( 1.523442673454382089E-16, 1.250000000000000000, 0.000000000000000000 ) ) ;
#78 = AXIS2_PLACEMENT_3D ( 'NONE', #61, #237, #120 ) ;
#79 = LENGTH_MEASURE_WITH_UNIT ( LENGTH_MEASURE( 0.02539999999999999897 ), #221 );
#80 = EDGE_CURVE ( 'NONE', #74, #152, #155, .T. ) ;
#81 = UNCERTAINTY_MEASURE_WITH_UNIT (LENGTH_MEASURE( 1.000000000000000082E-05 ), #172, 'distance_accuracy_value', 'NONE');
#82 = DIMENSIONAL_EXPONENTS ( 1.000000000000000000, 0.000000000000000000, 0.000000000000000000, 0.000000000000000000, 0.000000000000000000, 0.000000000000000000, 0.000000000000000000 ) ;
#83 = ORIENTED_EDGE ( 'NONE', *, *, #326, .F. ) ;
#84 = FACE_OUTER_BOUND ( 'NONE', #59, .T. ) ;
#85 = ORIENTED_EDGE ( 'NONE', *, *, #240, .F. ) ;
#86 = DIRECTION ( 'NONE',  ( -0.000000000000000000, -1.000000000000000000, -0.000000000000000000 ) ) ;
#87 = CARTESIAN_POINT ( 'NONE',  ( -1.530808498934191509E-17, 0.1250000000000000000, 0.000000000000000000 ) ) ;
#88 = EDGE_CURVE ( 'NONE', #74, #40, #192, .T. ) ;
#89 = PRESENTATION_STYLE_ASSIGNMENT (( #302 ) ) ;
#90 = PRESENTATION_LAYER_ASSIGNMENT (  '', '', ( #187 ) ) ;
#91 = CARTESIAN_POINT ( 'NONE',  ( 0.1249999999999998473, 3.000000000000000444, 0.000000000000000000 ) ) ;
#92 = CARTESIAN_POINT ( 'NONE',  ( 0.000000000000000000, 0.1250000000000000278, 0.000000000000000000 ) ) ;
#93 = DIRECTION ( 'NONE',  ( -1.220437756016033644E-16, 1.000000000000000000, 0.000000000000000000 ) ) ;
#94 = EDGE_CURVE ( 'NONE', #265, #36, #241, .T. ) ;
#95 = CARTESIAN_POINT ( 'NONE',  ( 0.1249999999999998473, 1.250000000000000000, 1.530808498934189660E-17 ) ) ;
#96 = CIRCLE ( 'NONE', #298, 0.1250000000000000000 ) ;
#97 = FACE_OUTER_BOUND ( 'NONE', #350, .T. ) ;
#98 = PRODUCT_DEFINITION_SHAPE ( 'NONE', 'NONE',  #4 ) ;
#99 = VERTEX_POINT ( 'NONE', #254 ) ;
#100 =( NAMED_UNIT ( * ) PLANE_ANGLE_UNIT ( ) SI_UNIT ( $, .RADIAN. ) );
#101 = ORIENTED_EDGE ( 'NONE', *, *, #138, .F. ) ;
#102 = ORIENTED_EDGE ( 'NONE', *, *, #88, .T. ) ;
#103 = CARTESIAN_POINT ( 'NONE',  ( 0.000000000000000000, 0.1250000000000000278, 0.000000000000000000 ) ) ;
#104 = COLOUR_RGB ( '',1.000000000000000000, 0.000000000000000000, 0.000000000000000000 ) ;
#105 = SHAPE_DEFINITION_REPRESENTATION ( #98, #169 ) ;
#106 = ORIENTED_EDGE ( 'NONE', *, *, #138, .T. ) ;
#107 = SURFACE_STYLE_USAGE ( .BOTH. , #159 ) ;
#108 = LINE ( 'NONE', #311, #1 ) ;
#109 = MECHANICAL_DESIGN_GEOMETRIC_PRESENTATION_REPRESENTATION (  '', ( #13 ), #200 ) ;
#110 =( CONVERSION_BASED_UNIT ( 'INCH', #52 ) LENGTH_UNIT ( ) NAMED_UNIT ( #257 ) );
#111 = AXIS2_PLACEMENT_3D ( 'NONE', #119, #177, #285 ) ;
#112 = SPHERICAL_SURFACE ( 'NONE', #151, 0.1250000000000000000 ) ;
#113 =( CONVERSION_BASED_UNIT ( 'INCH', #79 ) LENGTH_UNIT ( ) NAMED_UNIT ( #312 ) );
#114 = SURFACE_SIDE_STYLE ('',( #256 ) ) ;
#115 = AXIS2_PLACEMENT_3D ( 'NONE', #18, #337, #260 ) ;
#116 = CARTESIAN_POINT ( 'NONE',  ( -7.654042494670957545E-18, 0.000000000000000000, 0.000000000000000000 ) ) ;
#117 = CARTESIAN_POINT ( 'NONE',  ( -6.123233995736772199E-17, 3.000000000000000444, 0.000000000000000000 ) ) ;
#118 = EDGE_CURVE ( 'NONE', #36, #265, #184, .T. ) ;
#119 = CARTESIAN_POINT ( 'NONE',  ( 0.000000000000000000, 0.000000000000000000, 0.000000000000000000 ) ) ;
#120 = DIRECTION ( 'NONE',  ( 1.000000000000000000, 0.000000000000000000, 0.000000000000000000 ) ) ;
#121 = EDGE_LOOP ( 'NONE', ( #263, #345, #101, #153 ) ) ;
#122 = AXIS2_PLACEMENT_3D ( 'NONE', #50, #28, #143 ) ;
#123 = ORIENTED_EDGE ( 'NONE', *, *, #127, .T. ) ;
#124 = DIRECTION ( 'NONE',  ( -1.220437756016033644E-16, 1.000000000000000000, -0.000000000000000000 ) ) ;
#125 = CYLINDRICAL_SURFACE ( 'NONE', #167, 0.1249999999999997918 ) ;
#126 = VECTOR ( 'NONE', #175, 39.37007874015748143 ) ;
#127 = EDGE_CURVE ( 'NONE', #99, #286, #58, .T. ) ;
#128 = MECHANICAL_DESIGN_GEOMETRIC_PRESENTATION_REPRESENTATION (  '', ( #205 ), #41 ) ;
#129 =( NAMED_UNIT ( * ) SI_UNIT ( $, .STERADIAN. ) SOLID_ANGLE_UNIT ( ) );
#130 = ADVANCED_FACE ( 'NONE', ( #31 ), #373, .T. ) ;
#131 = DIRECTION ( 'NONE',  ( 0.000000000000000000, 0.000000000000000000, -1.000000000000000000 ) ) ;
#132 =( LENGTH_UNIT ( ) NAMED_UNIT ( * ) SI_UNIT ( $, .METRE. ) );
#133 = DIRECTION ( 'NONE',  ( -1.000000000000000000, 0.000000000000000000, 0.000000000000000000 ) ) ;
#134 = DIRECTION ( 'NONE',  ( -0.000000000000000000, -1.000000000000000000, -0.000000000000000000 ) ) ;
#135 = MECHANICAL_DESIGN_GEOMETRIC_PRESENTATION_REPRESENTATION (  '', ( #45 ), #161 ) ;
#136 = SURFACE_SIDE_STYLE ('',( #196 ) ) ;
#137 = CARTESIAN_POINT ( 'NONE',  ( 0.000000000000000000, 0.1250000000000000278, 0.000000000000000000 ) ) ;
#138 = EDGE_CURVE ( 'NONE', #185, #211, #38, .T. ) ;
#139 = DIRECTION ( 'NONE',  ( -1.220437756016033644E-16, 1.000000000000000000, -0.000000000000000000 ) ) ;
#140 = SURFACE_STYLE_FILL_AREA ( #366 ) ;
#141 = UNCERTAINTY_MEASURE_WITH_UNIT (LENGTH_MEASURE( 1.000000000000000082E-05 ), #113, 'distance_accuracy_value', 'NONE');
#142 = CARTESIAN_POINT ( 'NONE',  ( 0.000000000000000000, 0.000000000000000000, -0.1249999999999999306 ) ) ;
#143 = DIRECTION ( 'NONE',  ( -1.000000000000000000, 0.000000000000000000, 0.000000000000000000 ) ) ;
#144 = STYLED_ITEM ( 'NONE', ( #228 ), #210 ) ;
#145 = EDGE_CURVE ( 'NONE', #286, #40, #281, .T. ) ;
#146 =( NAMED_UNIT ( * ) PLANE_ANGLE_UNIT ( ) SI_UNIT ( $, .RADIAN. ) );
#147 = SURFACE_STYLE_FILL_AREA ( #290 ) ;
#148 = CARTESIAN_POINT ( 'NONE',  ( 0.000000000000000000, 0.1250000000000000278, -0.1250000000000000000 ) ) ;
#149 = FILL_AREA_STYLE_COLOUR ( '', #284 ) ;
#150 = ORIENTED_EDGE ( 'NONE', *, *, #330, .T. ) ;
#151 = AXIS2_PLACEMENT_3D ( 'NONE', #20, #174, #53 ) ;
#152 = VERTEX_POINT ( 'NONE', #116 ) ;
#153 = ORIENTED_EDGE ( 'NONE', *, *, #26, .F. ) ;
#154 = APPLICATION_PROTOCOL_DEFINITION ( 'draft international standard', 'automotive_design', 1998, #353 ) ;
#155 = CIRCLE ( 'NONE', #193, 0.1250000000000000000 ) ;
#156 = ADVANCED_FACE ( 'NONE', ( #97 ), #208, .F. ) ;
#157 =( NAMED_UNIT ( * ) SI_UNIT ( $, .STERADIAN. ) SOLID_ANGLE_UNIT ( ) );
#158 = CARTESIAN_POINT ( 'NONE',  ( -0.1249999999999998612, 3.000000000000000444, 0.000000000000000000 ) ) ;
#159 = SURFACE_SIDE_STYLE ('',( #301 ) ) ;
#160 = ADVANCED_FACE ( 'NONE', ( #33 ), #231, .F. ) ;
#161 =( GEOMETRIC_REPRESENTATION_CONTEXT ( 3 ) GLOBAL_UNCERTAINTY_ASSIGNED_CONTEXT ( ( #342 ) ) GLOBAL_UNIT_ASSIGNED_CONTEXT ( ( #23, #146, #319 ) ) REPRESENTATION_CONTEXT ( 'NONE', 'WORKASPACE' ) );
#162 =( LENGTH_UNIT ( ) NAMED_UNIT ( * ) SI_UNIT ( $, .METRE. ) );
#163 = PRESENTATION_STYLE_ASSIGNMENT (( #171 ) ) ;
#164 = DIRECTION ( 'NONE',  ( 0.000000000000000000, 0.000000000000000000, -1.000000000000000000 ) ) ;
#165 = PRESENTATION_STYLE_ASSIGNMENT (( #308 ) ) ;
#166 = EDGE_CURVE ( 'NONE', #36, #211, #66, .T. ) ;
#167 = AXIS2_PLACEMENT_3D ( 'NONE', #247, #321, #323 ) ;
#168 = AXIS2_PLACEMENT_3D ( 'NONE', #87, #164, #133 ) ;
#169 = ADVANCED_BREP_SHAPE_REPRESENTATION ( '83418', ( #293, #296, #46 ), #250 ) ;
#170 = DIRECTION ( 'NONE',  ( -0.000000000000000000, -1.000000000000000000, -0.000000000000000000 ) ) ;
#171 = SURFACE_STYLE_USAGE ( .BOTH. , #136 ) ;
#172 =( CONVERSION_BASED_UNIT ( 'INCH', #315 ) LENGTH_UNIT ( ) NAMED_UNIT ( #268 ) );
#173 = SURFACE_SIDE_STYLE ('',( #147 ) ) ;
#174 = DIRECTION ( 'NONE',  ( 0.000000000000000000, 0.000000000000000000, 1.000000000000000000 ) ) ;
#175 = DIRECTION ( 'NONE',  ( -1.220437756016033644E-16, 1.000000000000000000, -0.000000000000000000 ) ) ;
#176 = MECHANICAL_DESIGN_GEOMETRIC_PRESENTATION_REPRESENTATION (  '', ( #355 ), #303 ) ;
#177 = DIRECTION ( 'NONE',  ( -0.000000000000000000, -1.000000000000000000, -0.000000000000000000 ) ) ;
#178 = MECHANICAL_DESIGN_GEOMETRIC_PRESENTATION_REPRESENTATION (  '', ( #242 ), #60 ) ;
#179 = SURFACE_STYLE_USAGE ( .BOTH. , #114 ) ;
#180 = CARTESIAN_POINT ( 'NONE',  ( 1.530808498934191509E-17, 0.1250000000000000278, 0.1249999999999999861 ) ) ;
#181 = DIRECTION ( 'NONE',  ( -1.000000000000000000, -1.220437756016033644E-16, 0.000000000000000000 ) ) ;
#182 = CYLINDRICAL_SURFACE ( 'NONE', #248, 0.1249999999999997918 ) ;
#183 = PRODUCT ( '83418', '83418', '', ( #188 ) ) ;
#184 = CIRCLE ( 'NONE', #222, 0.1249999999999996947 ) ;
#185 = VERTEX_POINT ( 'NONE', #346 ) ;
#186 =( NAMED_UNIT ( * ) PLANE_ANGLE_UNIT ( ) SI_UNIT ( $, .RADIAN. ) );
#187 = STYLED_ITEM ( 'NONE', ( #215 ), #293 ) ;
#188 = PRODUCT_CONTEXT ( 'NONE', #329, 'mechanical' ) ;
#189 =( CONVERSION_BASED_UNIT ( 'INCH', #269 ) LENGTH_UNIT ( ) NAMED_UNIT ( #48 ) );
#190 = EDGE_CURVE ( 'NONE', #39, #74, #229, .T. ) ;
#191 = ORIENTED_EDGE ( 'NONE', *, *, #94, .F. ) ;
#192 = CIRCLE ( 'NONE', #343, 0.1250000000000000000 ) ;
#193 = AXIS2_PLACEMENT_3D ( 'NONE', #272, #360, #332 ) ;
#194 =( GEOMETRIC_REPRESENTATION_CONTEXT ( 3 ) GLOBAL_UNCERTAINTY_ASSIGNED_CONTEXT ( ( #306 ) ) GLOBAL_UNIT_ASSIGNED_CONTEXT ( ( #189, #219, #8 ) ) REPRESENTATION_CONTEXT ( 'NONE', 'WORKASPACE' ) );
#195 = CARTESIAN_POINT ( 'NONE',  ( 0.000000000000000000, 1.250000000000000000, 0.000000000000000000 ) ) ;
#196 = SURFACE_STYLE_FILL_AREA ( #370 ) ;
#197 = ORIENTED_EDGE ( 'NONE', *, *, #26, .T. ) ;
#198 =( CONVERSION_BASED_UNIT ( 'INCH', #305 ) LENGTH_UNIT ( ) NAMED_UNIT ( #82 ) );
#199 = SURFACE_STYLE_FILL_AREA ( #341 ) ;
#200 =( GEOMETRIC_REPRESENTATION_CONTEXT ( 3 ) GLOBAL_UNCERTAINTY_ASSIGNED_CONTEXT ( ( #361 ) ) GLOBAL_UNIT_ASSIGNED_CONTEXT ( ( #317, #100, #27 ) ) REPRESENTATION_CONTEXT ( 'NONE', 'WORKASPACE' ) );
#201 = AXIS2_PLACEMENT_3D ( 'NONE', #117, #139, #351 ) ;
#202 = APPLICATION_PROTOCOL_DEFINITION ( 'draft international standard', 'automotive_design', 1998, #329 ) ;
#203 = FILL_AREA_STYLE ('',( #149 ) ) ;
#204 = FACE_OUTER_BOUND ( 'NONE', #295, .T. ) ;
#205 = STYLED_ITEM ( 'NONE', ( #163 ), #310 ) ;
#206 = FACE_OUTER_BOUND ( 'NONE', #266, .T. ) ;
#207 = VERTEX_POINT ( 'NONE', #35 ) ;
#208 = PLANE ( 'NONE',  #72 ) ;
#209 = ORIENTED_EDGE ( 'NONE', *, *, #166, .F. ) ;
#210 = ADVANCED_FACE ( 'NONE', ( #204 ), #274, .T. ) ;
#211 = VERTEX_POINT ( 'NONE', #21 ) ;
#212 = VECTOR ( 'NONE', #233, 39.37007874015748143 ) ;
#213 = ORIENTED_EDGE ( 'NONE', *, *, #326, .T. ) ;
#214 = COLOUR_RGB ( '',0.7921568627450980005, 0.8196078431372548767, 0.9333333333333333481 ) ;
#215 = PRESENTATION_STYLE_ASSIGNMENT (( #107 ) ) ;
#216 = FACE_OUTER_BOUND ( 'NONE', #320, .T. ) ;
#217 = PRESENTATION_STYLE_ASSIGNMENT (( #356 ) ) ;
#218 = CARTESIAN_POINT ( 'NONE',  ( -0.1250000000000000000, 0.1250000000000000278, 1.530808498934191201E-17 ) ) ;
#219 =( NAMED_UNIT ( * ) PLANE_ANGLE_UNIT ( ) SI_UNIT ( $, .RADIAN. ) );
#220 = DIRECTION ( 'NONE',  ( 0.000000000000000000, 0.000000000000000000, -1.000000000000000000 ) ) ;
#221 =( LENGTH_UNIT ( ) NAMED_UNIT ( * ) SI_UNIT ( $, .METRE. ) );
#222 = AXIS2_PLACEMENT_3D ( 'NONE', #331, #365, #75 ) ;
#223 = FILL_AREA_STYLE_COLOUR ( '', #364 ) ;
#224 = LENGTH_MEASURE_WITH_UNIT ( LENGTH_MEASURE( 0.02539999999999999897 ), #275 );
#225 = UNCERTAINTY_MEASURE_WITH_UNIT (LENGTH_MEASURE( 1.000000000000000082E-05 ), #110, 'distance_accuracy_value', 'NONE');
#226 = FILL_AREA_STYLE_COLOUR ( '', #357 ) ;
#227 = ADVANCED_FACE ( 'NONE', ( #51 ), #25, .T. ) ;
#228 = PRESENTATION_STYLE_ASSIGNMENT (( #179 ) ) ;
#229 = CIRCLE ( 'NONE', #249, 0.1250000000000000000 ) ;
#230 = CARTESIAN_POINT ( 'NONE',  ( 0.1249999999999997224, 3.000000000000000444, 1.530808498934189044E-17 ) ) ;
#231 = PLANE ( 'NONE',  #259 ) ;
#232 = DIRECTION ( 'NONE',  ( -0.000000000000000000, -1.000000000000000000, -0.000000000000000000 ) ) ;
#233 = DIRECTION ( 'NONE',  ( -1.220437756016033644E-16, 1.000000000000000000, -0.000000000000000000 ) ) ;
#234 = DIRECTION ( 'NONE',  ( -0.000000000000000000, -1.000000000000000000, -0.000000000000000000 ) ) ;
#235 = PRESENTATION_LAYER_ASSIGNMENT (  '', '', ( #355 ) ) ;
#236 = ORIENTED_EDGE ( 'NONE', *, *, #88, .F. ) ;
#237 = DIRECTION ( 'NONE',  ( 0.000000000000000000, 0.000000000000000000, 1.000000000000000000 ) ) ;
#238 = ORIENTED_EDGE ( 'NONE', *, *, #340, .F. ) ;
#239 =( LENGTH_UNIT ( ) NAMED_UNIT ( * ) SI_UNIT ( $, .METRE. ) );
#240 = EDGE_CURVE ( 'NONE', #286, #99, #304, .T. ) ;
#241 = CIRCLE ( 'NONE', #264, 0.1249999999999996947 ) ;
#242 = STYLED_ITEM ( 'NONE', ( #217 ), #296 ) ;
#243 = COLOUR_RGB ( '',0.7921568627450980005, 0.8196078431372548767, 0.9333333333333333481 ) ;
#244 = SURFACE_STYLE_FILL_AREA ( #17 ) ;
#245 = CARTESIAN_POINT ( 'NONE',  ( 0.000000000000000000, 1.250000000000000000, -0.1249999999999998473 ) ) ;
#246 = DIRECTION ( 'NONE',  ( 1.000000000000000000, 0.000000000000000000, 0.000000000000000000 ) ) ;
#247 = CARTESIAN_POINT ( 'NONE',  ( -6.123233995736772199E-17, 3.000000000000000444, 0.000000000000000000 ) ) ;
#248 = AXIS2_PLACEMENT_3D ( 'NONE', #291, #124, #367 ) ;
#249 = AXIS2_PLACEMENT_3D ( 'NONE', #92, #234, #262 ) ;
#250 =( GEOMETRIC_REPRESENTATION_CONTEXT ( 3 ) GLOBAL_UNCERTAINTY_ASSIGNED_CONTEXT ( ( #141 ) ) GLOBAL_UNIT_ASSIGNED_CONTEXT ( ( #113, #339, #278 ) ) REPRESENTATION_CONTEXT ( 'NONE', 'WORKASPACE' ) );
#251 = SURFACE_SIDE_STYLE ('',( #199 ) ) ;
#252 = DIRECTION ( 'NONE',  ( 0.000000000000000000, 0.000000000000000000, -1.000000000000000000 ) ) ;
#253 = PRESENTATION_LAYER_ASSIGNMENT (  '', '', ( #205 ) ) ;
#254 = CARTESIAN_POINT ( 'NONE',  ( 1.530808498934189968E-17, 1.250000000000000000, 0.1249999999999998473 ) ) ;
#255 = EDGE_LOOP ( 'NONE', ( #191, #289 ) ) ;
#256 = SURFACE_STYLE_FILL_AREA ( #203 ) ;
#257 = DIMENSIONAL_EXPONENTS ( 1.000000000000000000, 0.000000000000000000, 0.000000000000000000, 0.000000000000000000, 0.000000000000000000, 0.000000000000000000, 0.000000000000000000 ) ;
#258 = DIRECTION ( 'NONE',  ( -0.000000000000000000, -1.000000000000000000, -0.000000000000000000 ) ) ;
#259 = AXIS2_PLACEMENT_3D ( 'NONE', #24, #93, #181 ) ;
#260 = DIRECTION ( 'NONE',  ( 0.000000000000000000, -0.000000000000000000, 1.000000000000000000 ) ) ;
#261 = PRESENTATION_STYLE_ASSIGNMENT (( #279 ) ) ;
#262 = DIRECTION ( 'NONE',  ( 0.000000000000000000, 0.000000000000000000, -1.000000000000000000 ) ) ;
#263 = ORIENTED_EDGE ( 'NONE', *, *, #94, .T. ) ;
#264 = AXIS2_PLACEMENT_3D ( 'NONE', #77, #362, #12 ) ;
#265 = VERTEX_POINT ( 'NONE', #334 ) ;
#266 = EDGE_LOOP ( 'NONE', ( #30, #102, #5, #348 ) ) ;
#267 = AXIS2_PLACEMENT_3D ( 'NONE', #195, #344, #371 ) ;
#268 = DIMENSIONAL_EXPONENTS ( 1.000000000000000000, 0.000000000000000000, 0.000000000000000000, 0.000000000000000000, 0.000000000000000000, 0.000000000000000000, 0.000000000000000000 ) ;
#269 = LENGTH_MEASURE_WITH_UNIT ( LENGTH_MEASURE( 0.02539999999999999897 ), #162 );
#270 = ORIENTED_EDGE ( 'NONE', *, *, #49, .F. ) ;
#271 = MECHANICAL_DESIGN_GEOMETRIC_PRESENTATION_REPRESENTATION (  '', ( #144 ), #2 ) ;
#272 = CARTESIAN_POINT ( 'NONE',  ( -1.530808498934191509E-17, 0.1250000000000000000, 0.000000000000000000 ) ) ;
#273 =( NAMED_UNIT ( * ) PLANE_ANGLE_UNIT ( ) SI_UNIT ( $, .RADIAN. ) );
#274 = PLANE ( 'NONE',  #115 ) ;
#275 =( LENGTH_UNIT ( ) NAMED_UNIT ( * ) SI_UNIT ( $, .METRE. ) );
#276 = MECHANICAL_DESIGN_GEOMETRIC_PRESENTATION_REPRESENTATION (  '', ( #187 ), #194 ) ;
#277 = CYLINDRICAL_SURFACE ( 'NONE', #37, 0.1249999999999999306 ) ;
#278 =( NAMED_UNIT ( * ) SI_UNIT ( $, .STERADIAN. ) SOLID_ANGLE_UNIT ( ) );
#279 = SURFACE_STYLE_USAGE ( .BOTH. , #173 ) ;
#280 =( LENGTH_UNIT ( ) NAMED_UNIT ( * ) SI_UNIT ( $, .METRE. ) );
#281 = LINE ( 'NONE', #142, #292 ) ;
#282 = DIRECTION ( 'NONE',  ( -0.000000000000000000, -1.000000000000000000, -0.000000000000000000 ) ) ;
#283 = CLOSED_SHELL ( 'NONE', ( #42, #160, #9, #156 ) ) ;
#284 = COLOUR_RGB ( '',1.000000000000000000, 0.000000000000000000, 0.000000000000000000 ) ;
#285 = DIRECTION ( 'NONE',  ( 0.000000000000000000, 0.000000000000000000, -1.000000000000000000 ) ) ;
#286 = VERTEX_POINT ( 'NONE', #245 ) ;
#287 = PRODUCT_RELATED_PRODUCT_CATEGORY ( 'part', '', ( #183 ) ) ;
#288 = FILL_AREA_STYLE_COLOUR ( '', #214 ) ;
#289 = ORIENTED_EDGE ( 'NONE', *, *, #118, .F. ) ;
#290 = FILL_AREA_STYLE ('',( #56 ) ) ;
#291 = CARTESIAN_POINT ( 'NONE',  ( -6.123233995736772199E-17, 3.000000000000000444, 0.000000000000000000 ) ) ;
#292 = VECTOR ( 'NONE', #258, 39.37007874015748143 ) ;
#293 = MANIFOLD_SOLID_BREP ( 'Revolve - Cutting Edge', #76 ) ;
#294 = ORIENTED_EDGE ( 'NONE', *, *, #240, .T. ) ;
#295 = EDGE_LOOP ( 'NONE', ( #85, #67 ) ) ;
#296 = MANIFOLD_SOLID_BREP ( 'Revolve - Tool Body (Straight Shanked)', #283 ) ;
#297 = DIMENSIONAL_EXPONENTS ( 1.000000000000000000, 0.000000000000000000, 0.000000000000000000, 0.000000000000000000, 0.000000000000000000, 0.000000000000000000, 0.000000000000000000 ) ;
#298 = AXIS2_PLACEMENT_3D ( 'NONE', #103, #282, #307 ) ;
#299 = FILL_AREA_STYLE_COLOUR ( '', #243 ) ;
#300 = ORIENTED_EDGE ( 'NONE', *, *, #118, .T. ) ;
#301 = SURFACE_STYLE_FILL_AREA ( #44 ) ;
#302 = SURFACE_STYLE_USAGE ( .BOTH. , #251 ) ;
#303 =( GEOMETRIC_REPRESENTATION_CONTEXT ( 3 ) GLOBAL_UNCERTAINTY_ASSIGNED_CONTEXT ( ( #225 ) ) GLOBAL_UNIT_ASSIGNED_CONTEXT ( ( #110, #22, #129 ) ) REPRESENTATION_CONTEXT ( 'NONE', 'WORKASPACE' ) );
#304 = CIRCLE ( 'NONE', #316, 0.1249999999999998473 ) ;
#305 = LENGTH_MEASURE_WITH_UNIT ( LENGTH_MEASURE( 0.02539999999999999897 ), #280 );
#306 = UNCERTAINTY_MEASURE_WITH_UNIT (LENGTH_MEASURE( 1.000000000000000082E-05 ), #189, 'distance_accuracy_value', 'NONE');
#307 = DIRECTION ( 'NONE',  ( 0.000000000000000000, 0.000000000000000000, -1.000000000000000000 ) ) ;
#308 = SURFACE_STYLE_USAGE ( .BOTH. , #54 ) ;
#309 = COLOUR_RGB ( '',1.000000000000000000, 0.000000000000000000, 0.000000000000000000 ) ;
#310 = ADVANCED_FACE ( 'NONE', ( #206 ), #112, .T. ) ;
#311 = CARTESIAN_POINT ( 'NONE',  ( 1.530808498934190893E-17, 0.000000000000000000, 0.1249999999999999306 ) ) ;
#312 = DIMENSIONAL_EXPONENTS ( 1.000000000000000000, 0.000000000000000000, 0.000000000000000000, 0.000000000000000000, 0.000000000000000000, 0.000000000000000000, 0.000000000000000000 ) ;
#313 = LENGTH_MEASURE_WITH_UNIT ( LENGTH_MEASURE( 0.02539999999999999897 ), #3 );
#314 =( NAMED_UNIT ( * ) PLANE_ANGLE_UNIT ( ) SI_UNIT ( $, .RADIAN. ) );
#315 = LENGTH_MEASURE_WITH_UNIT ( LENGTH_MEASURE( 0.02539999999999999897 ), #239 );
#316 = AXIS2_PLACEMENT_3D ( 'NONE', #32, #232, #10 ) ;
#317 =( CONVERSION_BASED_UNIT ( 'INCH', #313 ) LENGTH_UNIT ( ) NAMED_UNIT ( #333 ) );
#318 = PRODUCT_DEFINITION_FORMATION_WITH_SPECIFIED_SOURCE ( 'ANY', '', #183, .NOT_KNOWN. ) ;
#319 =( NAMED_UNIT ( * ) SI_UNIT ( $, .STERADIAN. ) SOLID_ANGLE_UNIT ( ) );
#320 = EDGE_LOOP ( 'NONE', ( #209, #300, #197, #347 ) ) ;
#321 = DIRECTION ( 'NONE',  ( -1.220437756016033644E-16, 1.000000000000000000, -0.000000000000000000 ) ) ;
#322 = DIRECTION ( 'NONE',  ( 1.000000000000000000, 1.220437756016033644E-16, 0.000000000000000000 ) ) ;
#323 = DIRECTION ( 'NONE',  ( -1.000000000000000000, 0.000000000000000000, 0.000000000000000000 ) ) ;
#324 = ORIENTED_EDGE ( 'NONE', *, *, #190, .T. ) ;
#325 = LENGTH_MEASURE_WITH_UNIT ( LENGTH_MEASURE( 0.02539999999999999897 ), #132 );
#326 = EDGE_CURVE ( 'NONE', #207, #39, #96, .T. ) ;
#327 = CIRCLE ( 'NONE', #168, 0.1250000000000000000 ) ;
#328 = UNCERTAINTY_MEASURE_WITH_UNIT (LENGTH_MEASURE( 1.000000000000000082E-05 ), #71, 'distance_accuracy_value', 'NONE');
#329 = APPLICATION_CONTEXT ( 'automotive_design' ) ;
#330 = EDGE_CURVE ( 'NONE', #211, #185, #349, .T. ) ;
#331 = CARTESIAN_POINT ( 'NONE',  ( 1.523442673454382089E-16, 1.250000000000000000, 0.000000000000000000 ) ) ;
#332 = DIRECTION ( 'NONE',  ( 1.000000000000000000, 0.000000000000000000, -1.224646799147353207E-16 ) ) ;
#333 = DIMENSIONAL_EXPONENTS ( 1.000000000000000000, 0.000000000000000000, 0.000000000000000000, 0.000000000000000000, 0.000000000000000000, 0.000000000000000000, 0.000000000000000000 ) ;
#334 = CARTESIAN_POINT ( 'NONE',  ( -0.1249999999999995420, 1.250000000000000000, 0.000000000000000000 ) ) ;
#335 = PRESENTATION_LAYER_ASSIGNMENT (  '', '', ( #242 ) ) ;
#336 = ORIENTED_EDGE ( 'NONE', *, *, #190, .F. ) ;
#337 = DIRECTION ( 'NONE',  ( 0.000000000000000000, 1.000000000000000000, 0.000000000000000000 ) ) ;
#338 = CARTESIAN_POINT ( 'NONE',  ( 0.000000000000000000, 0.1250000000000000278, 0.000000000000000000 ) ) ;
#339 =( NAMED_UNIT ( * ) PLANE_ANGLE_UNIT ( ) SI_UNIT ( $, .RADIAN. ) );
#340 = EDGE_CURVE ( 'NONE', #207, #152, #327, .T. ) ;
#341 = FILL_AREA_STYLE ('',( #226 ) ) ;
#342 = UNCERTAINTY_MEASURE_WITH_UNIT (LENGTH_MEASURE( 1.000000000000000082E-05 ), #23, 'distance_accuracy_value', 'NONE');
#343 = AXIS2_PLACEMENT_3D ( 'NONE', #137, #134, #220 ) ;
#344 = DIRECTION ( 'NONE',  ( -0.000000000000000000, -1.000000000000000000, -0.000000000000000000 ) ) ;
#345 = ORIENTED_EDGE ( 'NONE', *, *, #166, .T. ) ;
#346 = CARTESIAN_POINT ( 'NONE',  ( -0.1249999999999999861, 3.000000000000000444, 0.000000000000000000 ) ) ;
#347 = ORIENTED_EDGE ( 'NONE', *, *, #330, .F. ) ;
#348 = ORIENTED_EDGE ( 'NONE', *, *, #340, .T. ) ;
#349 = CIRCLE ( 'NONE', #122, 0.1249999999999999167 ) ;
#350 = EDGE_LOOP ( 'NONE', ( #106, #150 ) ) ;
#351 = DIRECTION ( 'NONE',  ( -1.000000000000000000, 0.000000000000000000, 0.000000000000000000 ) ) ;
#352 = EDGE_LOOP ( 'NONE', ( #294, #7, #83, #270, #63 ) ) ;
#353 = APPLICATION_CONTEXT ( 'automotive_design' ) ;
#354 = AXIS2_PLACEMENT_3D ( 'NONE', #338, #86, #131 ) ;
#355 = STYLED_ITEM ( 'NONE', ( #89 ), #55 ) ;
#356 = SURFACE_STYLE_USAGE ( .BOTH. , #358 ) ;
#357 = COLOUR_RGB ( '',1.000000000000000000, 0.000000000000000000, 0.000000000000000000 ) ;
#358 = SURFACE_SIDE_STYLE ('',( #244 ) ) ;
#359 = DIRECTION ( 'NONE',  ( -0.000000000000000000, -1.000000000000000000, -0.000000000000000000 ) ) ;
#360 = DIRECTION ( 'NONE',  ( 1.224646799147353207E-16, -0.000000000000000000, 1.000000000000000000 ) ) ;
#361 = UNCERTAINTY_MEASURE_WITH_UNIT (LENGTH_MEASURE( 1.000000000000000082E-05 ), #317, 'distance_accuracy_value', 'NONE');
#362 = DIRECTION ( 'NONE',  ( -1.220437756016033644E-16, 1.000000000000000000, -0.000000000000000000 ) ) ;
#363 = PRESENTATION_LAYER_ASSIGNMENT (  '', '', ( #13 ) ) ;
#364 = COLOUR_RGB ( '',1.000000000000000000, 0.000000000000000000, 0.000000000000000000 ) ;
#365 = DIRECTION ( 'NONE',  ( -1.220437756016033644E-16, 1.000000000000000000, -0.000000000000000000 ) ) ;
#366 = FILL_AREA_STYLE ('',( #372 ) ) ;
#367 = DIRECTION ( 'NONE',  ( -1.000000000000000000, 0.000000000000000000, 0.000000000000000000 ) ) ;
#368 =( NAMED_UNIT ( * ) SI_UNIT ( $, .STERADIAN. ) SOLID_ANGLE_UNIT ( ) );
#369 = ORIENTED_EDGE ( 'NONE', *, *, #145, .T. ) ;
#370 = FILL_AREA_STYLE ('',( #223 ) ) ;
#371 = DIRECTION ( 'NONE',  ( 0.000000000000000000, 0.000000000000000000, -1.000000000000000000 ) ) ;
#372 = FILL_AREA_STYLE_COLOUR ( '', #309 ) ;
#373 = SPHERICAL_SURFACE ( 'NONE', #78, 0.1250000000000000000 ) ;
ENDSEC;
END-ISO-10303-21;
