ISO-10303-21;
HEADER;
FILE_DESCRIPTION (( 'STEP AP214' ),
    '1' );
FILE_NAME ('Micro_GEM-218-2.STEP',
    '2021-09-01T20:10:23',
    ( '' ),
    ( '' ),
    'SwSTEP 2.0',
    'SolidWorks 2020',
    '' );
FILE_SCHEMA (( 'AUTOMOTIVE_DESIGN' ));
ENDSEC;

DATA;
#1 = EDGE_CURVE ( 'NONE', #155, #159, #231, .T. ) ;
#2 = CARTESIAN_POINT ( 'NONE',  ( -0.1092406499999999947, 0.0000000000000000000, 1.337812123592763100E-17 ) ) ;
#3 = AXIS2_PLACEMENT_3D ( 'NONE', #21, #215, #43 ) ;
#4 = CONICAL_SURFACE ( 'NONE', #54, 0.1100000000000001948, 0.7853981633974517207 ) ;
#5 = CARTESIAN_POINT ( 'NONE',  ( 0.1100000000000001948, 1.347111479062090784E-17, 2.500000000000000000 ) ) ;
#6 = EDGE_CURVE ( 'NONE', #159, #155, #192, .T. ) ;
#7 = CARTESIAN_POINT ( 'NONE',  ( 1.638347335018400726E-33, 0.0000000000000000000, 1.337812123592763100E-17 ) ) ;
#8 = FACE_OUTER_BOUND ( 'NONE', #129, .T. ) ;
#9 = DIRECTION ( 'NONE',  ( 1.000000000000000000, 0.0000000000000000000, 0.0000000000000000000 ) ) ;
#10 =( LENGTH_UNIT ( ) NAMED_UNIT ( * ) SI_UNIT ( $, .METRE. ) );
#11 = CONICAL_SURFACE ( 'NONE', #245, 0.1100000000000001948, 0.7853981633974517207 ) ;
#12 = EDGE_CURVE ( 'NONE', #298, #66, #216, .T. ) ;
#13 = ORIENTED_EDGE ( 'NONE', *, *, #261, .T. ) ;
#14 =( NAMED_UNIT ( * ) PLANE_ANGLE_UNIT ( ) SI_UNIT ( $, .RADIAN. ) );
#15 = VECTOR ( 'NONE', #237, 39.37007874015748143 ) ;
#16 = ORIENTED_EDGE ( 'NONE', *, *, #51, .F. ) ;
#17 = EDGE_LOOP ( 'NONE', ( #16, #276, #230, #86 ) ) ;
#18 = ORIENTED_EDGE ( 'NONE', *, *, #97, .T. ) ;
#19 = ORIENTED_EDGE ( 'NONE', *, *, #145, .F. ) ;
#20 = ADVANCED_FACE ( 'NONE', ( #91 ), #279, .T. ) ;
#21 = CARTESIAN_POINT ( 'NONE',  ( 0.0000000000000000000, 0.0000000000000000000, 0.0000000000000000000 ) ) ;
#22 = CARTESIAN_POINT ( 'NONE',  ( 0.1250000000000000833, 1.530808498934192433E-17, 0.7143757151439918962 ) ) ;
#23 = UNCERTAINTY_MEASURE_WITH_UNIT (LENGTH_MEASURE( 1.000000000000000082E-05 ), #99, 'distance_accuracy_value', 'NONE');
#24 = LINE ( 'NONE', #119, #53 ) ;
#25 = CARTESIAN_POINT ( 'NONE',  ( -0.1249999999999999167, 0.0000000000000000000, 0.7143757151439918962 ) ) ;
#26 = DIRECTION ( 'NONE',  ( -1.000000000000000000, 0.0000000000000000000, 1.224646799147353207E-16 ) ) ;
#27 = DIRECTION ( 'NONE',  ( -0.0000000000000000000, -0.0000000000000000000, -1.000000000000000000 ) ) ;
#28 = AXIS2_PLACEMENT_3D ( 'NONE', #120, #27, #217 ) ;
#29 = CARTESIAN_POINT ( 'NONE',  ( 0.1250000000000000000, 1.530808498934191509E-17, 2.500000000000000000 ) ) ;
#30 = EDGE_CURVE ( 'NONE', #128, #293, #92, .T. ) ;
#31 = DIMENSIONAL_EXPONENTS ( 1.000000000000000000, 0.0000000000000000000, 0.0000000000000000000, 0.0000000000000000000, 0.0000000000000000000, 0.0000000000000000000, 0.0000000000000000000 ) ;
#32 = CARTESIAN_POINT ( 'NONE',  ( 0.0000000000000000000, 0.0000000000000000000, 2.500000000000000000 ) ) ;
#33 = PLANE ( 'NONE',  #182 ) ;
#34 = ORIENTED_EDGE ( 'NONE', *, *, #12, .F. ) ;
#35 = ORIENTED_EDGE ( 'NONE', *, *, #250, .F. ) ;
#36 = VECTOR ( 'NONE', #284, 39.37007874015748143 ) ;
#37 = EDGE_LOOP ( 'NONE', ( #208, #201, #294, #252 ) ) ;
#38 = EDGE_CURVE ( 'NONE', #109, #293, #179, .T. ) ;
#39 = ORIENTED_EDGE ( 'NONE', *, *, #261, .F. ) ;
#40 = APPLICATION_PROTOCOL_DEFINITION ( 'draft international standard', 'automotive_design', 1998, #197 ) ;
#41 = ORIENTED_EDGE ( 'NONE', *, *, #272, .F. ) ;
#42 = EDGE_CURVE ( 'NONE', #155, #157, #24, .T. ) ;
#43 = DIRECTION ( 'NONE',  ( 1.000000000000000000, 0.0000000000000000000, -0.0000000000000000000 ) ) ;
#44 = DIRECTION ( 'NONE',  ( -1.224646799147353207E-16, -0.0000000000000000000, -1.000000000000000000 ) ) ;
#45 = FACE_OUTER_BOUND ( 'NONE', #17, .T. ) ;
#46 = DIRECTION ( 'NONE',  ( 0.0000000000000000000, 0.0000000000000000000, 1.000000000000000000 ) ) ;
#47 = AXIS2_PLACEMENT_3D ( 'NONE', #140, #114, #181 ) ;
#48 = PRESENTATION_LAYER_ASSIGNMENT (  '', '', ( #98 ) ) ;
#49 = DIRECTION ( 'NONE',  ( -1.000000000000000000, 0.0000000000000000000, 1.224646799147353207E-16 ) ) ;
#50 = DIRECTION ( 'NONE',  ( -0.0000000000000000000, -0.0000000000000000000, -1.000000000000000000 ) ) ;
#51 = EDGE_CURVE ( 'NONE', #105, #109, #133, .T. ) ;
#52 = SURFACE_STYLE_FILL_AREA ( #134 ) ;
#53 = VECTOR ( 'NONE', #164, 39.37007874015748143 ) ;
#54 = AXIS2_PLACEMENT_3D ( 'NONE', #113, #96, #142 ) ;
#55 = CARTESIAN_POINT ( 'NONE',  ( 0.0000000000000000000, 0.0000000000000000000, 2.500000000000000000 ) ) ;
#56 = CONICAL_SURFACE ( 'NONE', #132, 0.1092406499999999947, 0.1745329251994338637 ) ;
#57 = AXIS2_PLACEMENT_3D ( 'NONE', #247, #148, #286 ) ;
#58 = PRODUCT_CONTEXT ( 'NONE', #160, 'mechanical' ) ;
#59 = AXIS2_PLACEMENT_3D ( 'NONE', #146, #170, #289 ) ;
#60 = EDGE_LOOP ( 'NONE', ( #41, #271, #178, #39 ) ) ;
#61 =( CONVERSION_BASED_UNIT ( 'INCH', #205 ) LENGTH_UNIT ( ) NAMED_UNIT ( #147 ) );
#62 = ORIENTED_EDGE ( 'NONE', *, *, #145, .T. ) ;
#63 = ADVANCED_FACE ( 'NONE', ( #45 ), #283, .T. ) ;
#64 = ORIENTED_EDGE ( 'NONE', *, *, #42, .F. ) ;
#65 = ORIENTED_EDGE ( 'NONE', *, *, #1, .T. ) ;
#66 = VERTEX_POINT ( 'NONE', #260 ) ;
#67 = PRODUCT_RELATED_PRODUCT_CATEGORY ( 'part', '', ( #233 ) ) ;
#68 = CLOSED_SHELL ( 'NONE', ( #20, #219, #207, #295, #234, #213, #195, #78, #63, #74 ) ) ;
#69 = DIRECTION ( 'NONE',  ( -1.224646799147353207E-16, -0.0000000000000000000, -1.000000000000000000 ) ) ;
#70 = LINE ( 'NONE', #299, #162 ) ;
#71 = AXIS2_PLACEMENT_3D ( 'NONE', #221, #191, #9 ) ;
#72 = PRODUCT_DEFINITION_CONTEXT ( 'detailed design', #197, 'design' ) ;
#73 = DIRECTION ( 'NONE',  ( 1.224646799147353207E-16, 0.0000000000000000000, 1.000000000000000000 ) ) ;
#74 = ADVANCED_FACE ( 'NONE', ( #211 ), #212, .F. ) ;
#75 = CARTESIAN_POINT ( 'NONE',  ( 7.654042494670957853E-17, 0.0000000000000000000, 0.6250000000000000000 ) ) ;
#76 = CARTESIAN_POINT ( 'NONE',  ( 0.1092406500000000502, 0.0000000000000000000, 0.6250000000000000000 ) ) ;
#77 = FACE_OUTER_BOUND ( 'NONE', #60, .T. ) ;
#78 = ADVANCED_FACE ( 'NONE', ( #282 ), #56, .T. ) ;
#79 = CARTESIAN_POINT ( 'NONE',  ( 7.654042494670957853E-17, 0.0000000000000000000, 0.6250000000000000000 ) ) ;
#80 = DIMENSIONAL_EXPONENTS ( 1.000000000000000000, 0.0000000000000000000, 0.0000000000000000000, 0.0000000000000000000, 0.0000000000000000000, 0.0000000000000000000, 0.0000000000000000000 ) ;
#81 =( GEOMETRIC_REPRESENTATION_CONTEXT ( 3 ) GLOBAL_UNCERTAINTY_ASSIGNED_CONTEXT ( ( #209 ) ) GLOBAL_UNIT_ASSIGNED_CONTEXT ( ( #175, #14, #110 ) ) REPRESENTATION_CONTEXT ( 'NONE', 'WORKASPACE' ) );
#82 = FACE_OUTER_BOUND ( 'NONE', #130, .T. ) ;
#83 = SHAPE_DEFINITION_REPRESENTATION ( #280, #106 ) ;
#84 = CARTESIAN_POINT ( 'NONE',  ( 0.0000000000000000000, 0.0000000000000000000, 2.485000000000000320 ) ) ;
#85 = SURFACE_STYLE_USAGE ( .BOTH. , #203 ) ;
#86 = ORIENTED_EDGE ( 'NONE', *, *, #38, .F. ) ;
#87 = AXIS2_PLACEMENT_3D ( 'NONE', #75, #69, #185 ) ;
#88 =( GEOMETRIC_REPRESENTATION_CONTEXT ( 3 ) GLOBAL_UNCERTAINTY_ASSIGNED_CONTEXT ( ( #131 ) ) GLOBAL_UNIT_ASSIGNED_CONTEXT ( ( #61, #151, #158 ) ) REPRESENTATION_CONTEXT ( 'NONE', 'WORKASPACE' ) );
#89 = DIRECTION ( 'NONE',  ( 1.000000000000000000, 0.0000000000000000000, 0.0000000000000000000 ) ) ;
#90 = CARTESIAN_POINT ( 'NONE',  ( 7.654042494670957853E-17, 0.0000000000000000000, 0.6250000000000000000 ) ) ;
#91 = FACE_OUTER_BOUND ( 'NONE', #199, .T. ) ;
#92 = LINE ( 'NONE', #2, #137 ) ;
#93 = EDGE_CURVE ( 'NONE', #105, #128, #223, .T. ) ;
#94 = DIRECTION ( 'NONE',  ( 0.7071067811865499042, 8.659560562354961208E-17, -0.7071067811865451302 ) ) ;
#95 = CARTESIAN_POINT ( 'NONE',  ( 0.0000000000000000000, 0.0000000000000000000, 0.0000000000000000000 ) ) ;
#96 = DIRECTION ( 'NONE',  ( 0.0000000000000000000, 0.0000000000000000000, -1.000000000000000000 ) ) ;
#97 = EDGE_CURVE ( 'NONE', #298, #159, #238, .T. ) ;
#98 = STYLED_ITEM ( 'NONE', ( #268 ), #194 ) ;
#99 =( CONVERSION_BASED_UNIT ( 'INCH', #248 ) LENGTH_UNIT ( ) NAMED_UNIT ( #80 ) );
#100 = DIRECTION ( 'NONE',  ( 0.0000000000000000000, 0.0000000000000000000, -1.000000000000000000 ) ) ;
#101 = DIRECTION ( 'NONE',  ( 0.1736481776669313581, 0.0000000000000000000, 0.9848077530122077983 ) ) ;
#102 = AXIS2_PLACEMENT_3D ( 'NONE', #256, #107, #200 ) ;
#103 = DIRECTION ( 'NONE',  ( -1.000000000000000000, 0.0000000000000000000, 0.0000000000000000000 ) ) ;
#104 = SURFACE_STYLE_FILL_AREA ( #229 ) ;
#105 = VERTEX_POINT ( 'NONE', #76 ) ;
#106 = ADVANCED_BREP_SHAPE_REPRESENTATION ( 'Micro_GEM-218-2', ( #194, #102 ), #88 ) ;
#107 = DIRECTION ( 'NONE',  ( 0.0000000000000000000, 0.0000000000000000000, 1.000000000000000000 ) ) ;
#108 = ORIENTED_EDGE ( 'NONE', *, *, #97, .F. ) ;
#109 = VERTEX_POINT ( 'NONE', #281 ) ;
#110 =( NAMED_UNIT ( * ) SI_UNIT ( $, .STERADIAN. ) SOLID_ANGLE_UNIT ( ) );
#111 = ORIENTED_EDGE ( 'NONE', *, *, #224, .T. ) ;
#112 = EDGE_LOOP ( 'NONE', ( #235, #278 ) ) ;
#113 = CARTESIAN_POINT ( 'NONE',  ( 0.0000000000000000000, 0.0000000000000000000, 2.500000000000000000 ) ) ;
#114 = DIRECTION ( 'NONE',  ( -1.224646799147353207E-16, -0.0000000000000000000, -1.000000000000000000 ) ) ;
#115 = DIRECTION ( 'NONE',  ( -1.224646799147353207E-16, -0.0000000000000000000, -1.000000000000000000 ) ) ;
#116 = AXIS2_PLACEMENT_3D ( 'NONE', #79, #220, #267 ) ;
#117 = DIRECTION ( 'NONE',  ( -1.224646799147353207E-16, -0.0000000000000000000, -1.000000000000000000 ) ) ;
#118 = EDGE_CURVE ( 'NONE', #128, #157, #70, .T. ) ;
#119 = CARTESIAN_POINT ( 'NONE',  ( -0.1250000000000000000, 0.0000000000000000000, 2.500000000000000000 ) ) ;
#120 = CARTESIAN_POINT ( 'NONE',  ( 0.0000000000000000000, 0.0000000000000000000, 2.500000000000000000 ) ) ;
#121 = CIRCLE ( 'NONE', #127, 0.1092406499999999947 ) ;
#122 =( NAMED_UNIT ( * ) SI_UNIT ( $, .STERADIAN. ) SOLID_ANGLE_UNIT ( ) );
#123 = DIRECTION ( 'NONE',  ( -1.000000000000000000, 0.0000000000000000000, 0.0000000000000000000 ) ) ;
#124 = AXIS2_PLACEMENT_3D ( 'NONE', #32, #287, #123 ) ;
#125 = ORIENTED_EDGE ( 'NONE', *, *, #93, .F. ) ;
#126 = VERTEX_POINT ( 'NONE', #22 ) ;
#127 = AXIS2_PLACEMENT_3D ( 'NONE', #7, #44, #49 ) ;
#128 = VERTEX_POINT ( 'NONE', #136 ) ;
#129 = EDGE_LOOP ( 'NONE', ( #65, #225, #204, #64 ) ) ;
#130 = EDGE_LOOP ( 'NONE', ( #34, #18, #176, #19 ) ) ;
#131 = UNCERTAINTY_MEASURE_WITH_UNIT (LENGTH_MEASURE( 1.000000000000000082E-05 ), #61, 'distance_accuracy_value', 'NONE');
#132 = AXIS2_PLACEMENT_3D ( 'NONE', #90, #73, #180 ) ;
#133 = LINE ( 'NONE', #263, #15 ) ;
#134 = FILL_AREA_STYLE ('',( #210 ) ) ;
#135 = DIRECTION ( 'NONE',  ( 1.000000000000000000, 0.0000000000000000000, 0.0000000000000000000 ) ) ;
#136 = CARTESIAN_POINT ( 'NONE',  ( -0.1092406499999999253, 1.434310311263477304E-17, 0.6250000000000000000 ) ) ;
#137 = VECTOR ( 'NONE', #163, 39.37007874015748143 ) ;
#138 =( GEOMETRIC_REPRESENTATION_CONTEXT ( 3 ) GLOBAL_UNCERTAINTY_ASSIGNED_CONTEXT ( ( #23 ) ) GLOBAL_UNIT_ASSIGNED_CONTEXT ( ( #99, #269, #122 ) ) REPRESENTATION_CONTEXT ( 'NONE', 'WORKASPACE' ) );
#139 = PRODUCT_DEFINITION ( 'UNKNOWN', '', #277, #72 ) ;
#140 = CARTESIAN_POINT ( 'NONE',  ( 0.0000000000000000000, 0.0000000000000000000, 0.0000000000000000000 ) ) ;
#141 = CARTESIAN_POINT ( 'NONE',  ( -0.1092406499999999947, 0.0000000000000000000, 2.675624247185526200E-17 ) ) ;
#142 = DIRECTION ( 'NONE',  ( -1.000000000000000000, 0.0000000000000000000, 0.0000000000000000000 ) ) ;
#143 = AXIS2_PLACEMENT_3D ( 'NONE', #242, #46, #135 ) ;
#144 = COLOUR_RGB ( '',0.7921568627450980005, 0.8196078431372548767, 0.9333333333333333481 ) ;
#145 = EDGE_CURVE ( 'NONE', #66, #155, #241, .T. ) ;
#146 = CARTESIAN_POINT ( 'NONE',  ( 7.654042494670957853E-17, 0.0000000000000000000, 0.6250000000000000000 ) ) ;
#147 = DIMENSIONAL_EXPONENTS ( 1.000000000000000000, 0.0000000000000000000, 0.0000000000000000000, 0.0000000000000000000, 0.0000000000000000000, 0.0000000000000000000, 0.0000000000000000000 ) ;
#148 = DIRECTION ( 'NONE',  ( -1.224646799147353207E-16, -0.0000000000000000000, -1.000000000000000000 ) ) ;
#149 = AXIS2_PLACEMENT_3D ( 'NONE', #84, #273, #184 ) ;
#150 = MECHANICAL_DESIGN_GEOMETRIC_PRESENTATION_REPRESENTATION (  '', ( #171 ), #81 ) ;
#151 =( NAMED_UNIT ( * ) PLANE_ANGLE_UNIT ( ) SI_UNIT ( $, .RADIAN. ) );
#152 = ORIENTED_EDGE ( 'NONE', *, *, #30, .F. ) ;
#153 = LENGTH_MEASURE_WITH_UNIT ( LENGTH_MEASURE( 0.02539999999999999897 ), #226 );
#154 = EDGE_LOOP ( 'NONE', ( #108, #35, #62, #257 ) ) ;
#155 = VERTEX_POINT ( 'NONE', #264 ) ;
#156 = COLOUR_RGB ( '',0.7921568627450980005, 0.8196078431372548767, 0.9333333333333333481 ) ;
#157 = VERTEX_POINT ( 'NONE', #25 ) ;
#158 =( NAMED_UNIT ( * ) SI_UNIT ( $, .STERADIAN. ) SOLID_ANGLE_UNIT ( ) );
#159 = VERTEX_POINT ( 'NONE', #214 ) ;
#160 = APPLICATION_CONTEXT ( 'automotive_design' ) ;
#161 = CARTESIAN_POINT ( 'NONE',  ( 8.748579329396911086E-17, 0.0000000000000000000, 0.7143757151439918962 ) ) ;
#162 = VECTOR ( 'NONE', #165, 39.37007874015747433 ) ;
#163 = DIRECTION ( 'NONE',  ( -1.224646799147353207E-16, -0.0000000000000000000, -1.000000000000000000 ) ) ;
#164 = DIRECTION ( 'NONE',  ( -0.0000000000000000000, -0.0000000000000000000, -1.000000000000000000 ) ) ;
#165 = DIRECTION ( 'NONE',  ( -0.1736481776669311639, 2.126576849575783008E-17, 0.9848077530122080203 ) ) ;
#166 = CARTESIAN_POINT ( 'NONE',  ( -0.1100000000000001948, 0.0000000000000000000, 2.500000000000000000 ) ) ;
#167 = CIRCLE ( 'NONE', #297, 0.1250000000000000000 ) ;
#168 = LINE ( 'NONE', #29, #240 ) ;
#169 = CARTESIAN_POINT ( 'NONE',  ( 0.1100000000000001948, 1.438959988998141146E-17, 2.500000000000000000 ) ) ;
#170 = DIRECTION ( 'NONE',  ( -1.224646799147353207E-16, -0.0000000000000000000, -1.000000000000000000 ) ) ;
#171 = STYLED_ITEM ( 'NONE', ( #198 ), #106 ) ;
#172 = SURFACE_STYLE_USAGE ( .BOTH. , #288 ) ;
#173 = CARTESIAN_POINT ( 'NONE',  ( 0.1092406500000000502, 0.0000000000000000000, 0.6250000000000000000 ) ) ;
#174 = EDGE_CURVE ( 'NONE', #293, #109, #121, .T. ) ;
#175 =( CONVERSION_BASED_UNIT ( 'INCH', #153 ) LENGTH_UNIT ( ) NAMED_UNIT ( #31 ) );
#176 = ORIENTED_EDGE ( 'NONE', *, *, #1, .F. ) ;
#177 = EDGE_LOOP ( 'NONE', ( #206, #125, #111, #13 ) ) ;
#178 = ORIENTED_EDGE ( 'NONE', *, *, #42, .T. ) ;
#179 = CIRCLE ( 'NONE', #186, 0.1092406499999999947 ) ;
#180 = DIRECTION ( 'NONE',  ( 1.000000000000000000, 0.0000000000000000000, 0.0000000000000000000 ) ) ;
#181 = DIRECTION ( 'NONE',  ( -1.000000000000000000, 0.0000000000000000000, 1.224646799147353207E-16 ) ) ;
#182 = AXIS2_PLACEMENT_3D ( 'NONE', #196, #222, #291 ) ;
#183 = DIRECTION ( 'NONE',  ( -1.000000000000000000, 0.0000000000000000000, 1.224646799147353207E-16 ) ) ;
#184 = DIRECTION ( 'NONE',  ( 1.000000000000000000, 0.0000000000000000000, 0.0000000000000000000 ) ) ;
#185 = DIRECTION ( 'NONE',  ( -1.000000000000000000, 0.0000000000000000000, 0.0000000000000000000 ) ) ;
#186 = AXIS2_PLACEMENT_3D ( 'NONE', #262, #115, #26 ) ;
#187 = FACE_OUTER_BOUND ( 'NONE', #37, .T. ) ;
#188 = MECHANICAL_DESIGN_GEOMETRIC_PRESENTATION_REPRESENTATION (  '', ( #98 ), #138 ) ;
#189 = FACE_OUTER_BOUND ( 'NONE', #112, .T. ) ;
#190 = EDGE_CURVE ( 'NONE', #157, #126, #167, .T. ) ;
#191 = DIRECTION ( 'NONE',  ( 0.0000000000000000000, 0.0000000000000000000, 1.000000000000000000 ) ) ;
#192 = CIRCLE ( 'NONE', #149, 0.1250000000000000000 ) ;
#193 = CIRCLE ( 'NONE', #57, 0.1250000000000000000 ) ;
#194 = MANIFOLD_SOLID_BREP ( 'Cut-Revolve1', #68 ) ;
#195 = ADVANCED_FACE ( 'NONE', ( #265 ), #4, .T. ) ;
#196 = CARTESIAN_POINT ( 'NONE',  ( 0.0000000000000000000, 0.0000000000000000000, 2.500000000000000000 ) ) ;
#197 = APPLICATION_CONTEXT ( 'automotive_design' ) ;
#198 = PRESENTATION_STYLE_ASSIGNMENT (( #85 ) ) ;
#199 = EDGE_LOOP ( 'NONE', ( #255, #232, #254, #152 ) ) ;
#200 = DIRECTION ( 'NONE',  ( 1.000000000000000000, 0.0000000000000000000, 0.0000000000000000000 ) ) ;
#201 = ORIENTED_EDGE ( 'NONE', *, *, #118, .T. ) ;
#202 = EDGE_CURVE ( 'NONE', #128, #105, #228, .T. ) ;
#203 = SURFACE_SIDE_STYLE ('',( #104 ) ) ;
#204 = ORIENTED_EDGE ( 'NONE', *, *, #190, .F. ) ;
#205 = LENGTH_MEASURE_WITH_UNIT ( LENGTH_MEASURE( 0.02539999999999999897 ), #274 );
#206 = ORIENTED_EDGE ( 'NONE', *, *, #118, .F. ) ;
#207 = ADVANCED_FACE ( 'NONE', ( #82 ), #11, .T. ) ;
#208 = ORIENTED_EDGE ( 'NONE', *, *, #202, .F. ) ;
#209 = UNCERTAINTY_MEASURE_WITH_UNIT (LENGTH_MEASURE( 1.000000000000000082E-05 ), #175, 'distance_accuracy_value', 'NONE');
#210 = FILL_AREA_STYLE_COLOUR ( '', #144 ) ;
#211 = FACE_OUTER_BOUND ( 'NONE', #275, .T. ) ;
#212 = PLANE ( 'NONE',  #3 ) ;
#213 = ADVANCED_FACE ( 'NONE', ( #189 ), #33, .T. ) ;
#214 = CARTESIAN_POINT ( 'NONE',  ( 0.1250000000000000000, 1.530808498934191509E-17, 2.485000000000000320 ) ) ;
#215 = DIRECTION ( 'NONE',  ( 0.0000000000000000000, 0.0000000000000000000, 1.000000000000000000 ) ) ;
#216 = CIRCLE ( 'NONE', #143, 0.1100000000000001948 ) ;
#217 = DIRECTION ( 'NONE',  ( -1.000000000000000000, 0.0000000000000000000, 0.0000000000000000000 ) ) ;
#218 = PRESENTATION_LAYER_ASSIGNMENT (  '', '', ( #171 ) ) ;
#219 = ADVANCED_FACE ( 'NONE', ( #187 ), #270, .T. ) ;
#220 = DIRECTION ( 'NONE',  ( 1.224646799147353207E-16, 0.0000000000000000000, 1.000000000000000000 ) ) ;
#221 = CARTESIAN_POINT ( 'NONE',  ( 0.0000000000000000000, 0.0000000000000000000, 2.500000000000000000 ) ) ;
#222 = DIRECTION ( 'NONE',  ( 0.0000000000000000000, 0.0000000000000000000, 1.000000000000000000 ) ) ;
#223 = CIRCLE ( 'NONE', #87, 0.1092406499999999947 ) ;
#224 = EDGE_CURVE ( 'NONE', #105, #126, #246, .T. ) ;
#225 = ORIENTED_EDGE ( 'NONE', *, *, #272, .T. ) ;
#226 =( LENGTH_UNIT ( ) NAMED_UNIT ( * ) SI_UNIT ( $, .METRE. ) );
#227 = ORIENTED_EDGE ( 'NONE', *, *, #174, .T. ) ;
#228 = CIRCLE ( 'NONE', #59, 0.1092406499999999947 ) ;
#229 = FILL_AREA_STYLE ('',( #251 ) ) ;
#230 = ORIENTED_EDGE ( 'NONE', *, *, #30, .T. ) ;
#231 = CIRCLE ( 'NONE', #266, 0.1250000000000000000 ) ;
#232 = ORIENTED_EDGE ( 'NONE', *, *, #51, .T. ) ;
#233 = PRODUCT ( 'Micro_GEM-218-2', 'Micro_GEM-218-2', '', ( #58 ) ) ;
#234 = ADVANCED_FACE ( 'NONE', ( #77 ), #244, .T. ) ;
#235 = ORIENTED_EDGE ( 'NONE', *, *, #250, .T. ) ;
#236 = DIRECTION ( 'NONE',  ( 1.000000000000000000, 0.0000000000000000000, 0.0000000000000000000 ) ) ;
#237 = DIRECTION ( 'NONE',  ( -1.224646799147353207E-16, -0.0000000000000000000, -1.000000000000000000 ) ) ;
#238 = LINE ( 'NONE', #5, #259 ) ;
#239 = AXIS2_PLACEMENT_3D ( 'NONE', #95, #117, #183 ) ;
#240 = VECTOR ( 'NONE', #50, 39.37007874015748143 ) ;
#241 = LINE ( 'NONE', #166, #36 ) ;
#242 = CARTESIAN_POINT ( 'NONE',  ( 0.0000000000000000000, 0.0000000000000000000, 2.500000000000000000 ) ) ;
#243 = CYLINDRICAL_SURFACE ( 'NONE', #28, 0.1250000000000000000 ) ;
#244 = CYLINDRICAL_SURFACE ( 'NONE', #124, 0.1250000000000000000 ) ;
#245 = AXIS2_PLACEMENT_3D ( 'NONE', #55, #100, #103 ) ;
#246 = LINE ( 'NONE', #173, #290 ) ;
#247 = CARTESIAN_POINT ( 'NONE',  ( 8.748579329396911086E-17, 0.0000000000000000000, 0.7143757151439918962 ) ) ;
#248 = LENGTH_MEASURE_WITH_UNIT ( LENGTH_MEASURE( 0.02539999999999999897 ), #10 );
#249 = ORIENTED_EDGE ( 'NONE', *, *, #38, .T. ) ;
#250 = EDGE_CURVE ( 'NONE', #66, #298, #285, .T. ) ;
#251 = FILL_AREA_STYLE_COLOUR ( '', #156 ) ;
#252 = ORIENTED_EDGE ( 'NONE', *, *, #224, .F. ) ;
#253 = APPLICATION_PROTOCOL_DEFINITION ( 'draft international standard', 'automotive_design', 1998, #160 ) ;
#254 = ORIENTED_EDGE ( 'NONE', *, *, #174, .F. ) ;
#255 = ORIENTED_EDGE ( 'NONE', *, *, #202, .T. ) ;
#256 = CARTESIAN_POINT ( 'NONE',  ( 0.0000000000000000000, 0.0000000000000000000, 0.0000000000000000000 ) ) ;
#257 = ORIENTED_EDGE ( 'NONE', *, *, #6, .F. ) ;
#258 = DIRECTION ( 'NONE',  ( -1.224646799147353207E-16, -0.0000000000000000000, -1.000000000000000000 ) ) ;
#259 = VECTOR ( 'NONE', #94, 39.37007874015748143 ) ;
#260 = CARTESIAN_POINT ( 'NONE',  ( -0.1100000000000001948, 0.0000000000000000000, 2.500000000000000000 ) ) ;
#261 = EDGE_CURVE ( 'NONE', #126, #157, #193, .T. ) ;
#262 = CARTESIAN_POINT ( 'NONE',  ( 1.638347335018400726E-33, 0.0000000000000000000, 1.337812123592763100E-17 ) ) ;
#263 = CARTESIAN_POINT ( 'NONE',  ( 0.1092406499999999947, 1.337812123592763100E-17, -1.337812123592763100E-17 ) ) ;
#264 = CARTESIAN_POINT ( 'NONE',  ( -0.1250000000000000000, 0.0000000000000000000, 2.485000000000000320 ) ) ;
#265 = FACE_OUTER_BOUND ( 'NONE', #154, .T. ) ;
#266 = AXIS2_PLACEMENT_3D ( 'NONE', #292, #296, #89 ) ;
#267 = DIRECTION ( 'NONE',  ( 1.000000000000000000, 0.0000000000000000000, 0.0000000000000000000 ) ) ;
#268 = PRESENTATION_STYLE_ASSIGNMENT (( #172 ) ) ;
#269 =( NAMED_UNIT ( * ) PLANE_ANGLE_UNIT ( ) SI_UNIT ( $, .RADIAN. ) );
#270 = CONICAL_SURFACE ( 'NONE', #116, 0.1092406499999999947, 0.1745329251994338637 ) ;
#271 = ORIENTED_EDGE ( 'NONE', *, *, #6, .T. ) ;
#272 = EDGE_CURVE ( 'NONE', #159, #126, #168, .T. ) ;
#273 = DIRECTION ( 'NONE',  ( 0.0000000000000000000, 0.0000000000000000000, -1.000000000000000000 ) ) ;
#274 =( LENGTH_UNIT ( ) NAMED_UNIT ( * ) SI_UNIT ( $, .METRE. ) );
#275 = EDGE_LOOP ( 'NONE', ( #227, #249 ) ) ;
#276 = ORIENTED_EDGE ( 'NONE', *, *, #93, .T. ) ;
#277 = PRODUCT_DEFINITION_FORMATION_WITH_SPECIFIED_SOURCE ( 'ANY', '', #233, .NOT_KNOWN. ) ;
#278 = ORIENTED_EDGE ( 'NONE', *, *, #12, .T. ) ;
#279 = CYLINDRICAL_SURFACE ( 'NONE', #239, 0.1092406499999999947 ) ;
#280 = PRODUCT_DEFINITION_SHAPE ( 'NONE', 'NONE',  #139 ) ;
#281 = CARTESIAN_POINT ( 'NONE',  ( 0.1092406499999999947, 1.337812123592763100E-17, 0.0000000000000000000 ) ) ;
#282 = FACE_OUTER_BOUND ( 'NONE', #177, .T. ) ;
#283 = CYLINDRICAL_SURFACE ( 'NONE', #47, 0.1092406499999999947 ) ;
#284 = DIRECTION ( 'NONE',  ( -0.7071067811865499042, 0.0000000000000000000, -0.7071067811865451302 ) ) ;
#285 = CIRCLE ( 'NONE', #71, 0.1100000000000001948 ) ;
#286 = DIRECTION ( 'NONE',  ( 1.000000000000000000, 0.0000000000000000000, 0.0000000000000000000 ) ) ;
#287 = DIRECTION ( 'NONE',  ( -0.0000000000000000000, -0.0000000000000000000, -1.000000000000000000 ) ) ;
#288 = SURFACE_SIDE_STYLE ('',( #52 ) ) ;
#289 = DIRECTION ( 'NONE',  ( -1.000000000000000000, 0.0000000000000000000, 0.0000000000000000000 ) ) ;
#290 = VECTOR ( 'NONE', #101, 39.37007874015748143 ) ;
#291 = DIRECTION ( 'NONE',  ( 1.000000000000000000, 0.0000000000000000000, -0.0000000000000000000 ) ) ;
#292 = CARTESIAN_POINT ( 'NONE',  ( 0.0000000000000000000, 0.0000000000000000000, 2.485000000000000320 ) ) ;
#293 = VERTEX_POINT ( 'NONE', #141 ) ;
#294 = ORIENTED_EDGE ( 'NONE', *, *, #190, .T. ) ;
#295 = ADVANCED_FACE ( 'NONE', ( #8 ), #243, .T. ) ;
#296 = DIRECTION ( 'NONE',  ( 0.0000000000000000000, 0.0000000000000000000, -1.000000000000000000 ) ) ;
#297 = AXIS2_PLACEMENT_3D ( 'NONE', #161, #258, #236 ) ;
#298 = VERTEX_POINT ( 'NONE', #169 ) ;
#299 = CARTESIAN_POINT ( 'NONE',  ( -0.1092406499999999253, 1.337812123592763100E-17, 0.6250000000000000000 ) ) ;
ENDSEC;
END-ISO-10303-21;
