ISO-10303-21;
HEADER;
FILE_DESCRIPTION (( 'STEP AP214' ),
    '1' );
FILE_NAME ('Micro_DT-187-030-010X.STEP',
    '2021-09-02T21:17:06',
    ( '' ),
    ( '' ),
    'SwSTEP 2.0',
    'SolidWorks 2020',
    '' );
FILE_SCHEMA (( 'AUTOMOTIVE_DESIGN' ));
ENDSEC;

DATA;
#1 = ORIENTED_EDGE ( 'NONE', *, *, #180, .T. ) ;
#2 = CIRCLE ( 'NONE', #161, 0.09375000000000001388 ) ;
#3 =( GEOMETRIC_REPRESENTATION_CONTEXT ( 3 ) GLOBAL_UNCERTAINTY_ASSIGNED_CONTEXT ( ( #31 ) ) GLOBAL_UNIT_ASSIGNED_CONTEXT ( ( #81, #159, #82 ) ) REPRESENTATION_CONTEXT ( 'NONE', 'WORKASPACE' ) );
#4 = CONICAL_SURFACE ( 'NONE', #44, 0.07874999999999980627, 0.7853981633974466137 ) ;
#5 = ADVANCED_FACE ( 'NONE', ( #190 ), #4, .T. ) ;
#6 = DIRECTION ( 'NONE',  ( 0.0000000000000000000, 0.0000000000000000000, -1.000000000000000000 ) ) ;
#7 = CARTESIAN_POINT ( 'NONE',  ( -0.07874999999999980627, 0.0000000000000000000, 2.000000000000000000 ) ) ;
#8 = FACE_OUTER_BOUND ( 'NONE', #34, .T. ) ;
#9 = AXIS2_PLACEMENT_3D ( 'NONE', #41, #85, #133 ) ;
#10 = PRESENTATION_STYLE_ASSIGNMENT (( #134 ) ) ;
#11 = AXIS2_PLACEMENT_3D ( 'NONE', #136, #95, #139 ) ;
#12 = EDGE_CURVE ( 'NONE', #114, #18, #196, .T. ) ;
#13 = CARTESIAN_POINT ( 'NONE',  ( 0.0000000000000000000, 0.0000000000000000000, 2.000000000000000000 ) ) ;
#14 =( NAMED_UNIT ( * ) SI_UNIT ( $, .STERADIAN. ) SOLID_ANGLE_UNIT ( ) );
#15 = DIRECTION ( 'NONE',  ( 0.0000000000000000000, 0.0000000000000000000, -1.000000000000000000 ) ) ;
#16 = DIRECTION ( 'NONE',  ( 1.000000000000000000, 0.0000000000000000000, 0.0000000000000000000 ) ) ;
#17 = APPLICATION_PROTOCOL_DEFINITION ( 'draft international standard', 'automotive_design', 1998, #126 ) ;
#18 = VERTEX_POINT ( 'NONE', #22 ) ;
#19 = CIRCLE ( 'NONE', #64, 0.07874999999999980627 ) ;
#20 =( CONVERSION_BASED_UNIT ( 'INCH', #101 ) LENGTH_UNIT ( ) NAMED_UNIT ( #125 ) );
#21 = DIRECTION ( 'NONE',  ( 0.0000000000000000000, 0.0000000000000000000, 1.000000000000000000 ) ) ;
#22 = CARTESIAN_POINT ( 'NONE',  ( 0.09375000000000001388, 1.148106374200643863E-17, 0.0000000000000000000 ) ) ;
#23 = EDGE_CURVE ( 'NONE', #171, #38, #2, .T. ) ;
#24 = DIRECTION ( 'NONE',  ( 1.000000000000000000, 0.0000000000000000000, 0.0000000000000000000 ) ) ;
#25 = CARTESIAN_POINT ( 'NONE',  ( 0.0000000000000000000, 0.0000000000000000000, 2.000000000000000000 ) ) ;
#26 = DIRECTION ( 'NONE',  ( -0.0000000000000000000, -0.0000000000000000000, -1.000000000000000000 ) ) ;
#27 = FILL_AREA_STYLE ('',( #65 ) ) ;
#28 = AXIS2_PLACEMENT_3D ( 'NONE', #195, #151, #30 ) ;
#29 = VERTEX_POINT ( 'NONE', #69 ) ;
#30 = DIRECTION ( 'NONE',  ( 1.000000000000000000, 0.0000000000000000000, -0.0000000000000000000 ) ) ;
#31 = UNCERTAINTY_MEASURE_WITH_UNIT (LENGTH_MEASURE( 1.000000000000000082E-05 ), #81, 'distance_accuracy_value', 'NONE');
#32 = CARTESIAN_POINT ( 'NONE',  ( -0.09375000000000001388, 0.0000000000000000000, 0.0000000000000000000 ) ) ;
#33 = EDGE_CURVE ( 'NONE', #38, #171, #60, .T. ) ;
#34 = EDGE_LOOP ( 'NONE', ( #99, #78, #123, #160 ) ) ;
#35 = AXIS2_PLACEMENT_3D ( 'NONE', #46, #169, #16 ) ;
#36 = ORIENTED_EDGE ( 'NONE', *, *, #23, .F. ) ;
#37 = VECTOR ( 'NONE', #26, 39.37007874015748143 ) ;
#38 = VERTEX_POINT ( 'NONE', #71 ) ;
#39 = ADVANCED_FACE ( 'NONE', ( #8 ), #119, .T. ) ;
#40 = MANIFOLD_SOLID_BREP ( 'Chamfer', #51 ) ;
#41 = CARTESIAN_POINT ( 'NONE',  ( 0.0000000000000000000, 0.0000000000000000000, 2.000000000000000000 ) ) ;
#42 = FILL_AREA_STYLE ('',( #59 ) ) ;
#43 = DIRECTION ( 'NONE',  ( 1.000000000000000000, 0.0000000000000000000, 0.0000000000000000000 ) ) ;
#44 = AXIS2_PLACEMENT_3D ( 'NONE', #13, #84, #105 ) ;
#45 = CARTESIAN_POINT ( 'NONE',  ( 0.0000000000000000000, 0.0000000000000000000, 2.000000000000000000 ) ) ;
#46 = CARTESIAN_POINT ( 'NONE',  ( 0.0000000000000000000, 0.0000000000000000000, 0.0000000000000000000 ) ) ;
#47 = AXIS2_PLACEMENT_3D ( 'NONE', #164, #21, #146 ) ;
#48 = ADVANCED_FACE ( 'NONE', ( #115 ), #54, .T. ) ;
#49 = SURFACE_STYLE_USAGE ( .BOTH. , #66 ) ;
#50 = ORIENTED_EDGE ( 'NONE', *, *, #12, .F. ) ;
#51 = CLOSED_SHELL ( 'NONE', ( #5, #48, #39, #141, #176, #162 ) ) ;
#52 = ORIENTED_EDGE ( 'NONE', *, *, #68, .T. ) ;
#53 = COLOUR_RGB ( '',0.7921568627450980005, 0.8196078431372548767, 0.9333333333333333481 ) ;
#54 = CYLINDRICAL_SURFACE ( 'NONE', #57, 0.09375000000000001388 ) ;
#55 = DIRECTION ( 'NONE',  ( 1.000000000000000000, 0.0000000000000000000, 0.0000000000000000000 ) ) ;
#56 =( NAMED_UNIT ( * ) SI_UNIT ( $, .STERADIAN. ) SOLID_ANGLE_UNIT ( ) );
#57 = AXIS2_PLACEMENT_3D ( 'NONE', #116, #103, #177 ) ;
#58 = CONICAL_SURFACE ( 'NONE', #132, 0.07874999999999980627, 0.7853981633974466137 ) ;
#59 = FILL_AREA_STYLE_COLOUR ( '', #87 ) ;
#60 = CIRCLE ( 'NONE', #72, 0.09375000000000001388 ) ;
#61 = CARTESIAN_POINT ( 'NONE',  ( 0.0000000000000000000, 0.0000000000000000000, 1.984999999999999654 ) ) ;
#62 = LINE ( 'NONE', #197, #37 ) ;
#63 = AXIS2_PLACEMENT_3D ( 'NONE', #45, #165, #24 ) ;
#64 = AXIS2_PLACEMENT_3D ( 'NONE', #157, #112, #150 ) ;
#65 = FILL_AREA_STYLE_COLOUR ( '', #53 ) ;
#66 = SURFACE_SIDE_STYLE ('',( #182 ) ) ;
#67 = EDGE_CURVE ( 'NONE', #29, #198, #74, .T. ) ;
#68 = EDGE_CURVE ( 'NONE', #29, #38, #100, .T. ) ;
#69 = CARTESIAN_POINT ( 'NONE',  ( 0.07874999999999980627, 1.056257864264590573E-17, 2.000000000000000000 ) ) ;
#70 = SURFACE_SIDE_STYLE ('',( #148 ) ) ;
#71 = CARTESIAN_POINT ( 'NONE',  ( 0.09375000000000001388, 1.148106374200643863E-17, 1.984999999999999654 ) ) ;
#72 = AXIS2_PLACEMENT_3D ( 'NONE', #61, #6, #43 ) ;
#73 = DIRECTION ( 'NONE',  ( -1.000000000000000000, 0.0000000000000000000, 0.0000000000000000000 ) ) ;
#74 = CIRCLE ( 'NONE', #63, 0.07874999999999980627 ) ;
#75 = PLANE ( 'NONE',  #11 ) ;
#76 = FACE_OUTER_BOUND ( 'NONE', #110, .T. ) ;
#77 = PRODUCT_DEFINITION_SHAPE ( 'NONE', 'NONE',  #97 ) ;
#78 = ORIENTED_EDGE ( 'NONE', *, *, #33, .T. ) ;
#79 =( CONVERSION_BASED_UNIT ( 'INCH', #107 ) LENGTH_UNIT ( ) NAMED_UNIT ( #154 ) );
#80 = PRODUCT_CONTEXT ( 'NONE', #181, 'mechanical' ) ;
#81 =( CONVERSION_BASED_UNIT ( 'INCH', #185 ) LENGTH_UNIT ( ) NAMED_UNIT ( #152 ) );
#82 =( NAMED_UNIT ( * ) SI_UNIT ( $, .STERADIAN. ) SOLID_ANGLE_UNIT ( ) );
#83 = DIRECTION ( 'NONE',  ( 0.7071067811865463515, 8.659560562354916834E-17, -0.7071067811865486830 ) ) ;
#84 = DIRECTION ( 'NONE',  ( 0.0000000000000000000, 0.0000000000000000000, -1.000000000000000000 ) ) ;
#85 = DIRECTION ( 'NONE',  ( -0.0000000000000000000, -0.0000000000000000000, -1.000000000000000000 ) ) ;
#86 = ADVANCED_BREP_SHAPE_REPRESENTATION ( 'Micro_DT-187-030-010X', ( #40, #193 ), #96 ) ;
#87 = COLOUR_RGB ( '',0.7921568627450980005, 0.8196078431372548767, 0.9333333333333333481 ) ;
#88 = DIRECTION ( 'NONE',  ( 0.0000000000000000000, 0.0000000000000000000, -1.000000000000000000 ) ) ;
#89 = DIRECTION ( 'NONE',  ( -0.7071067811865463515, 0.0000000000000000000, -0.7071067811865486830 ) ) ;
#90 = PLANE ( 'NONE',  #28 ) ;
#91 = PRODUCT_RELATED_PRODUCT_CATEGORY ( 'part', '', ( #178 ) ) ;
#92 = ORIENTED_EDGE ( 'NONE', *, *, #68, .F. ) ;
#93 = CARTESIAN_POINT ( 'NONE',  ( -0.07874999999999980627, 0.0000000000000000000, 2.000000000000000000 ) ) ;
#94 = ORIENTED_EDGE ( 'NONE', *, *, #67, .T. ) ;
#95 = DIRECTION ( 'NONE',  ( 0.0000000000000000000, 0.0000000000000000000, 1.000000000000000000 ) ) ;
#96 =( GEOMETRIC_REPRESENTATION_CONTEXT ( 3 ) GLOBAL_UNCERTAINTY_ASSIGNED_CONTEXT ( ( #184 ) ) GLOBAL_UNIT_ASSIGNED_CONTEXT ( ( #79, #183, #14 ) ) REPRESENTATION_CONTEXT ( 'NONE', 'WORKASPACE' ) );
#97 = PRODUCT_DEFINITION ( 'UNKNOWN', '', #147, #156 ) ;
#98 = CARTESIAN_POINT ( 'NONE',  ( 0.0000000000000000000, 0.0000000000000000000, 0.0000000000000000000 ) ) ;
#99 = ORIENTED_EDGE ( 'NONE', *, *, #191, .F. ) ;
#100 = LINE ( 'NONE', #175, #186 ) ;
#101 = LENGTH_MEASURE_WITH_UNIT ( LENGTH_MEASURE( 0.02539999999999999897 ), #130 );
#102 = EDGE_LOOP ( 'NONE', ( #144, #173, #192, #124 ) ) ;
#103 = DIRECTION ( 'NONE',  ( -0.0000000000000000000, -0.0000000000000000000, -1.000000000000000000 ) ) ;
#104 = PRESENTATION_LAYER_ASSIGNMENT (  '', '', ( #135 ) ) ;
#105 = DIRECTION ( 'NONE',  ( -1.000000000000000000, 0.0000000000000000000, 0.0000000000000000000 ) ) ;
#106 = EDGE_CURVE ( 'NONE', #198, #171, #145, .T. ) ;
#107 = LENGTH_MEASURE_WITH_UNIT ( LENGTH_MEASURE( 0.02539999999999999897 ), #121 );
#108 = FACE_OUTER_BOUND ( 'NONE', #149, .T. ) ;
#109 = APPLICATION_PROTOCOL_DEFINITION ( 'draft international standard', 'automotive_design', 1998, #181 ) ;
#110 = EDGE_LOOP ( 'NONE', ( #1, #94 ) ) ;
#111 = VECTOR ( 'NONE', #170, 39.37007874015748143 ) ;
#112 = DIRECTION ( 'NONE',  ( 0.0000000000000000000, 0.0000000000000000000, 1.000000000000000000 ) ) ;
#113 = STYLED_ITEM ( 'NONE', ( #10 ), #40 ) ;
#114 = VERTEX_POINT ( 'NONE', #32 ) ;
#115 = FACE_OUTER_BOUND ( 'NONE', #102, .T. ) ;
#116 = CARTESIAN_POINT ( 'NONE',  ( 0.0000000000000000000, 0.0000000000000000000, 2.000000000000000000 ) ) ;
#117 = SHAPE_DEFINITION_REPRESENTATION ( #77, #86 ) ;
#118 = MECHANICAL_DESIGN_GEOMETRIC_PRESENTATION_REPRESENTATION (  '', ( #113 ), #142 ) ;
#119 = CYLINDRICAL_SURFACE ( 'NONE', #9, 0.09375000000000001388 ) ;
#120 = VECTOR ( 'NONE', #89, 39.37007874015748143 ) ;
#121 =( LENGTH_UNIT ( ) NAMED_UNIT ( * ) SI_UNIT ( $, .METRE. ) );
#122 = PRESENTATION_STYLE_ASSIGNMENT (( #49 ) ) ;
#123 = ORIENTED_EDGE ( 'NONE', *, *, #189, .T. ) ;
#124 = ORIENTED_EDGE ( 'NONE', *, *, #189, .F. ) ;
#125 = DIMENSIONAL_EXPONENTS ( 1.000000000000000000, 0.0000000000000000000, 0.0000000000000000000, 0.0000000000000000000, 0.0000000000000000000, 0.0000000000000000000, 0.0000000000000000000 ) ;
#126 = APPLICATION_CONTEXT ( 'automotive_design' ) ;
#127 = PRESENTATION_LAYER_ASSIGNMENT (  '', '', ( #113 ) ) ;
#128 = EDGE_CURVE ( 'NONE', #18, #114, #166, .T. ) ;
#129 = DIRECTION ( 'NONE',  ( 0.0000000000000000000, 0.0000000000000000000, 1.000000000000000000 ) ) ;
#130 =( LENGTH_UNIT ( ) NAMED_UNIT ( * ) SI_UNIT ( $, .METRE. ) );
#131 = DIRECTION ( 'NONE',  ( 1.000000000000000000, 0.0000000000000000000, 0.0000000000000000000 ) ) ;
#132 = AXIS2_PLACEMENT_3D ( 'NONE', #25, #15, #73 ) ;
#133 = DIRECTION ( 'NONE',  ( -1.000000000000000000, 0.0000000000000000000, 0.0000000000000000000 ) ) ;
#134 = SURFACE_STYLE_USAGE ( .BOTH. , #70 ) ;
#135 = STYLED_ITEM ( 'NONE', ( #122 ), #86 ) ;
#136 = CARTESIAN_POINT ( 'NONE',  ( 0.0000000000000000000, 0.0000000000000000000, 0.0000000000000000000 ) ) ;
#137 = FACE_OUTER_BOUND ( 'NONE', #163, .T. ) ;
#138 = MECHANICAL_DESIGN_GEOMETRIC_PRESENTATION_REPRESENTATION (  '', ( #135 ), #3 ) ;
#139 = DIRECTION ( 'NONE',  ( 1.000000000000000000, 0.0000000000000000000, -0.0000000000000000000 ) ) ;
#140 = EDGE_LOOP ( 'NONE', ( #153, #52, #36, #187 ) ) ;
#141 = ADVANCED_FACE ( 'NONE', ( #76 ), #90, .T. ) ;
#142 =( GEOMETRIC_REPRESENTATION_CONTEXT ( 3 ) GLOBAL_UNCERTAINTY_ASSIGNED_CONTEXT ( ( #188 ) ) GLOBAL_UNIT_ASSIGNED_CONTEXT ( ( #20, #179, #56 ) ) REPRESENTATION_CONTEXT ( 'NONE', 'WORKASPACE' ) );
#143 = ORIENTED_EDGE ( 'NONE', *, *, #33, .F. ) ;
#144 = ORIENTED_EDGE ( 'NONE', *, *, #23, .T. ) ;
#145 = LINE ( 'NONE', #7, #120 ) ;
#146 = DIRECTION ( 'NONE',  ( 1.000000000000000000, 0.0000000000000000000, 0.0000000000000000000 ) ) ;
#147 = PRODUCT_DEFINITION_FORMATION_WITH_SPECIFIED_SOURCE ( 'ANY', '', #178, .NOT_KNOWN. ) ;
#148 = SURFACE_STYLE_FILL_AREA ( #42 ) ;
#149 = EDGE_LOOP ( 'NONE', ( #92, #168, #172, #143 ) ) ;
#150 = DIRECTION ( 'NONE',  ( 1.000000000000000000, 0.0000000000000000000, 0.0000000000000000000 ) ) ;
#151 = DIRECTION ( 'NONE',  ( 0.0000000000000000000, 0.0000000000000000000, 1.000000000000000000 ) ) ;
#152 = DIMENSIONAL_EXPONENTS ( 1.000000000000000000, 0.0000000000000000000, 0.0000000000000000000, 0.0000000000000000000, 0.0000000000000000000, 0.0000000000000000000, 0.0000000000000000000 ) ;
#153 = ORIENTED_EDGE ( 'NONE', *, *, #67, .F. ) ;
#154 = DIMENSIONAL_EXPONENTS ( 1.000000000000000000, 0.0000000000000000000, 0.0000000000000000000, 0.0000000000000000000, 0.0000000000000000000, 0.0000000000000000000, 0.0000000000000000000 ) ;
#155 = CARTESIAN_POINT ( 'NONE',  ( -0.09375000000000001388, 0.0000000000000000000, 2.000000000000000000 ) ) ;
#156 = PRODUCT_DEFINITION_CONTEXT ( 'detailed design', #126, 'design' ) ;
#157 = CARTESIAN_POINT ( 'NONE',  ( 0.0000000000000000000, 0.0000000000000000000, 2.000000000000000000 ) ) ;
#158 = ORIENTED_EDGE ( 'NONE', *, *, #128, .F. ) ;
#159 =( NAMED_UNIT ( * ) PLANE_ANGLE_UNIT ( ) SI_UNIT ( $, .RADIAN. ) );
#160 = ORIENTED_EDGE ( 'NONE', *, *, #12, .T. ) ;
#161 = AXIS2_PLACEMENT_3D ( 'NONE', #174, #88, #131 ) ;
#162 = ADVANCED_FACE ( 'NONE', ( #108 ), #58, .T. ) ;
#163 = EDGE_LOOP ( 'NONE', ( #50, #158 ) ) ;
#164 = CARTESIAN_POINT ( 'NONE',  ( 0.0000000000000000000, 0.0000000000000000000, 0.0000000000000000000 ) ) ;
#165 = DIRECTION ( 'NONE',  ( 0.0000000000000000000, 0.0000000000000000000, 1.000000000000000000 ) ) ;
#166 = CIRCLE ( 'NONE', #35, 0.09375000000000001388 ) ;
#167 = CARTESIAN_POINT ( 'NONE',  ( -0.09375000000000001388, 0.0000000000000000000, 1.984999999999999654 ) ) ;
#168 = ORIENTED_EDGE ( 'NONE', *, *, #180, .F. ) ;
#169 = DIRECTION ( 'NONE',  ( 0.0000000000000000000, 0.0000000000000000000, 1.000000000000000000 ) ) ;
#170 = DIRECTION ( 'NONE',  ( -0.0000000000000000000, -0.0000000000000000000, -1.000000000000000000 ) ) ;
#171 = VERTEX_POINT ( 'NONE', #167 ) ;
#172 = ORIENTED_EDGE ( 'NONE', *, *, #106, .T. ) ;
#173 = ORIENTED_EDGE ( 'NONE', *, *, #191, .T. ) ;
#174 = CARTESIAN_POINT ( 'NONE',  ( 0.0000000000000000000, 0.0000000000000000000, 1.984999999999999654 ) ) ;
#175 = CARTESIAN_POINT ( 'NONE',  ( 0.07874999999999980627, 9.644093543285380530E-18, 2.000000000000000000 ) ) ;
#176 = ADVANCED_FACE ( 'NONE', ( #137 ), #75, .F. ) ;
#177 = DIRECTION ( 'NONE',  ( -1.000000000000000000, 0.0000000000000000000, 0.0000000000000000000 ) ) ;
#178 = PRODUCT ( 'Micro_DT-187-030-010X', 'Micro_DT-187-030-010X', '', ( #80 ) ) ;
#179 =( NAMED_UNIT ( * ) PLANE_ANGLE_UNIT ( ) SI_UNIT ( $, .RADIAN. ) );
#180 = EDGE_CURVE ( 'NONE', #198, #29, #19, .T. ) ;
#181 = APPLICATION_CONTEXT ( 'automotive_design' ) ;
#182 = SURFACE_STYLE_FILL_AREA ( #27 ) ;
#183 =( NAMED_UNIT ( * ) PLANE_ANGLE_UNIT ( ) SI_UNIT ( $, .RADIAN. ) );
#184 = UNCERTAINTY_MEASURE_WITH_UNIT (LENGTH_MEASURE( 1.000000000000000082E-05 ), #79, 'distance_accuracy_value', 'NONE');
#185 = LENGTH_MEASURE_WITH_UNIT ( LENGTH_MEASURE( 0.02539999999999999897 ), #199 );
#186 = VECTOR ( 'NONE', #83, 39.37007874015748143 ) ;
#187 = ORIENTED_EDGE ( 'NONE', *, *, #106, .F. ) ;
#188 = UNCERTAINTY_MEASURE_WITH_UNIT (LENGTH_MEASURE( 1.000000000000000082E-05 ), #20, 'distance_accuracy_value', 'NONE');
#189 = EDGE_CURVE ( 'NONE', #171, #114, #194, .T. ) ;
#190 = FACE_OUTER_BOUND ( 'NONE', #140, .T. ) ;
#191 = EDGE_CURVE ( 'NONE', #38, #18, #62, .T. ) ;
#192 = ORIENTED_EDGE ( 'NONE', *, *, #128, .T. ) ;
#193 = AXIS2_PLACEMENT_3D ( 'NONE', #98, #129, #55 ) ;
#194 = LINE ( 'NONE', #155, #111 ) ;
#195 = CARTESIAN_POINT ( 'NONE',  ( 0.0000000000000000000, 0.0000000000000000000, 2.000000000000000000 ) ) ;
#196 = CIRCLE ( 'NONE', #47, 0.09375000000000001388 ) ;
#197 = CARTESIAN_POINT ( 'NONE',  ( 0.09375000000000001388, 1.148106374200643863E-17, 2.000000000000000000 ) ) ;
#198 = VERTEX_POINT ( 'NONE', #93 ) ;
#199 =( LENGTH_UNIT ( ) NAMED_UNIT ( * ) SI_UNIT ( $, .METRE. ) );
ENDSEC;
END-ISO-10303-21;
