ISO-10303-21;
HEADER;
FILE_DESCRIPTION (( 'STEP AP214' ),
    '1' );
FILE_NAME ('Micro_EMSM-080-3.STEP',
    '2022-03-15T14:39:16',
    ( '' ),
    ( '' ),
    'SwSTEP 2.0',
    'SolidWorks 2022',
    '' );
FILE_SCHEMA (( 'AUTOMOTIVE_DESIGN' ));
ENDSEC;

DATA;
#1 = CARTESIAN_POINT ( 'NONE',  ( -0.1574804999999999955, 0.000000000000000000, 2.480315000000000047 ) ) ;
#2 = EDGE_LOOP ( 'NONE', ( #53, #74 ) ) ;
#3 = CONICAL_SURFACE ( 'NONE', #193, 0.1424804999999990940, 0.7853981633974699283 ) ;
#4 = ADVANCED_BREP_SHAPE_REPRESENTATION ( 'Micro_EMSM-080-3', ( #85, #118 ), #120 ) ;
#5 = EDGE_LOOP ( 'NONE', ( #98, #148, #282, #253 ) ) ;
#6 = EDGE_CURVE ( 'NONE', #215, #192, #250, .T. ) ;
#7 = PRODUCT_CONTEXT ( 'NONE', #28, 'mechanical' ) ;
#8 = DIRECTION ( 'NONE',  ( -1.224646799147353207E-16, -0.000000000000000000, -1.000000000000000000 ) ) ;
#9 = ORIENTED_EDGE ( 'NONE', *, *, #92, .T. ) ;
#10 = FACE_OUTER_BOUND ( 'NONE', #141, .T. ) ;
#11 = AXIS2_PLACEMENT_3D ( 'NONE', #196, #284, #134 ) ;
#12 = CARTESIAN_POINT ( 'NONE',  ( 1.060718027907086782E-16, 0.000000000000000000, 0.8661419999999999675 ) ) ;
#13 = DIRECTION ( 'NONE',  ( 0.000000000000000000, 0.000000000000000000, 1.000000000000000000 ) ) ;
#14 = CIRCLE ( 'NONE', #274, 0.1574804999999999955 ) ;
#15 = CARTESIAN_POINT ( 'NONE',  ( 0.000000000000000000, 0.000000000000000000, 2.465314999999999923 ) ) ;
#16 = CARTESIAN_POINT ( 'NONE',  ( 0.1573230194999999942, 1.926651322628716627E-17, 0.000000000000000000 ) ) ;
#17 = DIRECTION ( 'NONE',  ( -1.224646799147353207E-16, -0.000000000000000000, -1.000000000000000000 ) ) ;
#18 = CARTESIAN_POINT ( 'NONE',  ( 0.1573230195000001053, 0.000000000000000000, 0.8661419999999999675 ) ) ;
#19 = ADVANCED_FACE ( 'NONE', ( #128 ), #108, .T. ) ;
#20 = CYLINDRICAL_SURFACE ( 'NONE', #296, 0.1574804999999999955 ) ;
#21 = CARTESIAN_POINT ( 'NONE',  ( -0.1574804999999999955, 0.000000000000000000, 2.465314999999999923 ) ) ;
#22 = CIRCLE ( 'NONE', #112, 0.1424804999999990940 ) ;
#23 = CARTESIAN_POINT ( 'NONE',  ( 0.000000000000000000, 0.000000000000000000, 0.000000000000000000 ) ) ;
#24 = EDGE_CURVE ( 'NONE', #47, #276, #179, .T. ) ;
#25 = EDGE_LOOP ( 'NONE', ( #91, #9, #58, #69 ) ) ;
#26 = DIRECTION ( 'NONE',  ( 1.000000000000000000, 0.000000000000000000, 0.000000000000000000 ) ) ;
#27 = ORIENTED_EDGE ( 'NONE', *, *, #64, .T. ) ;
#28 = APPLICATION_CONTEXT ( 'automotive_design' ) ;
#29 = PRODUCT_RELATED_PRODUCT_CATEGORY ( 'part', '', ( #251 ) ) ;
#30 = STYLED_ITEM ( 'NONE', ( #138 ), #4 ) ;
#31 = DIRECTION ( 'NONE',  ( -1.000000000000000000, 0.000000000000000000, 1.224646799147353454E-16 ) ) ;
#32 = ORIENTED_EDGE ( 'NONE', *, *, #64, .F. ) ;
#33 = SHAPE_DEFINITION_REPRESENTATION ( #62, #4 ) ;
#34 = DIRECTION ( 'NONE',  ( -1.000000000000000000, 0.000000000000000000, 0.000000000000000000 ) ) ;
#35 = CARTESIAN_POINT ( 'NONE',  ( 2.359467375330272285E-33, 0.000000000000000000, 1.926651322628716627E-17 ) ) ;
#36 = VECTOR ( 'NONE', #45, 39.37007874015748143 ) ;
#37 = CARTESIAN_POINT ( 'NONE',  ( 1.060718027907086782E-16, 0.000000000000000000, 0.8661419999999999675 ) ) ;
#38 = DIRECTION ( 'NONE',  ( 0.000000000000000000, 0.000000000000000000, -1.000000000000000000 ) ) ;
#39 = ADVANCED_FACE ( 'NONE', ( #10 ), #242, .T. ) ;
#40 = DIRECTION ( 'NONE',  ( 0.000000000000000000, 0.000000000000000000, -1.000000000000000000 ) ) ;
#41 = VECTOR ( 'NONE', #201, 39.37007874015748143 ) ;
#42 = CARTESIAN_POINT ( 'NONE',  ( 1.061811779920977231E-16, 0.000000000000000000, 0.8670351162965941327 ) ) ;
#43 = DIRECTION ( 'NONE',  ( 1.000000000000000000, 0.000000000000000000, 0.000000000000000000 ) ) ;
#44 = ORIENTED_EDGE ( 'NONE', *, *, #157, .T. ) ;
#45 = DIRECTION ( 'NONE',  ( -0.000000000000000000, -0.000000000000000000, -1.000000000000000000 ) ) ;
#46 = VERTEX_POINT ( 'NONE', #213 ) ;
#47 = VERTEX_POINT ( 'NONE', #217 ) ;
#48 = DIRECTION ( 'NONE',  ( -1.000000000000000000, 0.000000000000000000, 0.000000000000000000 ) ) ;
#49 =( CONVERSION_BASED_UNIT ( 'INCH', #226 ) LENGTH_UNIT ( ) NAMED_UNIT ( #240 ) );
#50 = EDGE_CURVE ( 'NONE', #273, #46, #101, .T. ) ;
#51 = ORIENTED_EDGE ( 'NONE', *, *, #50, .F. ) ;
#52 = ADVANCED_FACE ( 'NONE', ( #150 ), #241, .T. ) ;
#53 = ORIENTED_EDGE ( 'NONE', *, *, #177, .T. ) ;
#54 = AXIS2_PLACEMENT_3D ( 'NONE', #57, #194, #99 ) ;
#55 = PRESENTATION_LAYER_ASSIGNMENT (  '', '', ( #30 ) ) ;
#56 = CARTESIAN_POINT ( 'NONE',  ( 1.061811779920977231E-16, 0.000000000000000000, 0.8670351162965941327 ) ) ;
#57 = CARTESIAN_POINT ( 'NONE',  ( 1.060718027907086782E-16, 0.000000000000000000, 0.8661419999999999675 ) ) ;
#58 = ORIENTED_EDGE ( 'NONE', *, *, #135, .F. ) ;
#59 = AXIS2_PLACEMENT_3D ( 'NONE', #35, #8, #31 ) ;
#60 = DIRECTION ( 'NONE',  ( -1.224646799147353207E-16, -0.000000000000000000, -1.000000000000000000 ) ) ;
#61 = AXIS2_PLACEMENT_3D ( 'NONE', #111, #38, #263 ) ;
#62 = PRODUCT_DEFINITION_SHAPE ( 'NONE', 'NONE',  #283 ) ;
#63 = CARTESIAN_POINT ( 'NONE',  ( -0.1573230194999999942, 0.000000000000000000, 1.926651322628716627E-17 ) ) ;
#64 = EDGE_CURVE ( 'NONE', #276, #47, #289, .T. ) ;
#65 =( NAMED_UNIT ( * ) PLANE_ANGLE_UNIT ( ) SI_UNIT ( $, .RADIAN. ) );
#66 = AXIS2_PLACEMENT_3D ( 'NONE', #56, #173, #154 ) ;
#67 =( LENGTH_UNIT ( ) NAMED_UNIT ( * ) SI_UNIT ( $, .METRE. ) );
#68 = ORIENTED_EDGE ( 'NONE', *, *, #197, .T. ) ;
#69 = ORIENTED_EDGE ( 'NONE', *, *, #293, .F. ) ;
#70 = SURFACE_STYLE_USAGE ( .BOTH. , #272 ) ;
#71 = VECTOR ( 'NONE', #146, 39.37007874015748854 ) ;
#72 =( CONVERSION_BASED_UNIT ( 'INCH', #208 ) LENGTH_UNIT ( ) NAMED_UNIT ( #166 ) );
#73 = ADVANCED_FACE ( 'NONE', ( #121 ), #151, .T. ) ;
#74 = ORIENTED_EDGE ( 'NONE', *, *, #6, .T. ) ;
#75 = VERTEX_POINT ( 'NONE', #105 ) ;
#76 = FILL_AREA_STYLE ('',( #77 ) ) ;
#77 = FILL_AREA_STYLE_COLOUR ( '', #82 ) ;
#78 = DIRECTION ( 'NONE',  ( -1.224646799147353207E-16, -0.000000000000000000, -1.000000000000000000 ) ) ;
#79 = CARTESIAN_POINT ( 'NONE',  ( -0.1573230194999999110, 1.926651322628716627E-17, 0.8661419999999999675 ) ) ;
#80 = DIRECTION ( 'NONE',  ( 0.000000000000000000, 0.000000000000000000, -1.000000000000000000 ) ) ;
#81 = DIRECTION ( 'NONE',  ( 1.000000000000000000, 0.000000000000000000, 0.000000000000000000 ) ) ;
#82 = COLOUR_RGB ( '',0.7921568627450980005, 0.8196078431372548767, 0.9333333333333333481 ) ;
#83 = CARTESIAN_POINT ( 'NONE',  ( 0.1424804999999990940, 1.744882882659133128E-17, 2.480315000000000047 ) ) ;
#84 = FACE_OUTER_BOUND ( 'NONE', #294, .T. ) ;
#85 = MANIFOLD_SOLID_BREP ( 'Cut-Revolve1', #126 ) ;
#86 = CARTESIAN_POINT ( 'NONE',  ( 0.000000000000000000, 0.000000000000000000, 2.480315000000000047 ) ) ;
#87 = CIRCLE ( 'NONE', #265, 0.1574804999999999955 ) ;
#88 = EDGE_LOOP ( 'NONE', ( #44, #271 ) ) ;
#89 = CARTESIAN_POINT ( 'NONE',  ( 0.000000000000000000, 0.000000000000000000, 2.480315000000000047 ) ) ;
#90 = ORIENTED_EDGE ( 'NONE', *, *, #259, .F. ) ;
#91 = ORIENTED_EDGE ( 'NONE', *, *, #123, .F. ) ;
#92 = EDGE_CURVE ( 'NONE', #75, #144, #172, .T. ) ;
#93 = DIRECTION ( 'NONE',  ( 1.000000000000000000, 0.000000000000000000, -0.000000000000000000 ) ) ;
#94 = EDGE_CURVE ( 'NONE', #144, #46, #199, .T. ) ;
#95 = ORIENTED_EDGE ( 'NONE', *, *, #259, .T. ) ;
#96 = CIRCLE ( 'NONE', #11, 0.1573230194999999942 ) ;
#97 = ORIENTED_EDGE ( 'NONE', *, *, #129, .T. ) ;
#98 = ORIENTED_EDGE ( 'NONE', *, *, #92, .F. ) ;
#99 = DIRECTION ( 'NONE',  ( 1.000000000000000000, 0.000000000000000000, 0.000000000000000000 ) ) ;
#100 = CARTESIAN_POINT ( 'NONE',  ( 0.000000000000000000, 0.000000000000000000, 0.000000000000000000 ) ) ;
#101 = CIRCLE ( 'NONE', #66, 0.1574804999999999955 ) ;
#102 = DIRECTION ( 'NONE',  ( -1.000000000000000000, 0.000000000000000000, 0.000000000000000000 ) ) ;
#103 = ORIENTED_EDGE ( 'NONE', *, *, #94, .F. ) ;
#104 = PRODUCT_DEFINITION_CONTEXT ( 'detailed design', #136, 'design' ) ;
#105 = CARTESIAN_POINT ( 'NONE',  ( 0.1424804999999990940, 1.836731392595189962E-17, 2.480315000000000047 ) ) ;
#106 = ORIENTED_EDGE ( 'NONE', *, *, #24, .F. ) ;
#107 = DIRECTION ( 'NONE',  ( 1.000000000000000000, 0.000000000000000000, 0.000000000000000000 ) ) ;
#108 = CONICAL_SURFACE ( 'NONE', #139, 0.1573230194999999942, 0.1745329251994338360 ) ;
#109 = CARTESIAN_POINT ( 'NONE',  ( 0.1574804999999999955, 1.928579902531247412E-17, 2.465314999999999923 ) ) ;
#110 = DIRECTION ( 'NONE',  ( 0.000000000000000000, 0.000000000000000000, -1.000000000000000000 ) ) ;
#111 = CARTESIAN_POINT ( 'NONE',  ( 0.000000000000000000, 0.000000000000000000, 2.480315000000000047 ) ) ;
#112 = AXIS2_PLACEMENT_3D ( 'NONE', #130, #13, #198 ) ;
#113 = DIRECTION ( 'NONE',  ( -0.000000000000000000, -0.000000000000000000, -1.000000000000000000 ) ) ;
#114 = CARTESIAN_POINT ( 'NONE',  ( -0.1424804999999990940, 0.000000000000000000, 2.480315000000000047 ) ) ;
#115 = DIRECTION ( 'NONE',  ( -0.000000000000000000, -0.000000000000000000, -1.000000000000000000 ) ) ;
#116 = UNCERTAINTY_MEASURE_WITH_UNIT (LENGTH_MEASURE( 1.000000000000000082E-05 ), #49, 'distance_accuracy_value', 'NONE');
#117 =( GEOMETRIC_REPRESENTATION_CONTEXT ( 3 ) GLOBAL_UNCERTAINTY_ASSIGNED_CONTEXT ( ( #229 ) ) GLOBAL_UNIT_ASSIGNED_CONTEXT ( ( #239, #243, #180 ) ) REPRESENTATION_CONTEXT ( 'NONE', 'WORKASPACE' ) );
#118 = AXIS2_PLACEMENT_3D ( 'NONE', #191, #152, #26 ) ;
#119 = DIRECTION ( 'NONE',  ( -1.000000000000000000, 0.000000000000000000, 0.000000000000000000 ) ) ;
#120 =( GEOMETRIC_REPRESENTATION_CONTEXT ( 3 ) GLOBAL_UNCERTAINTY_ASSIGNED_CONTEXT ( ( #116 ) ) GLOBAL_UNIT_ASSIGNED_CONTEXT ( ( #49, #65, #292 ) ) REPRESENTATION_CONTEXT ( 'NONE', 'WORKASPACE' ) );
#121 = FACE_OUTER_BOUND ( 'NONE', #163, .T. ) ;
#122 = EDGE_LOOP ( 'NONE', ( #203, #27, #97, #233 ) ) ;
#123 = EDGE_CURVE ( 'NONE', #75, #209, #22, .T. ) ;
#124 = DIRECTION ( 'NONE',  ( -1.224646799147353207E-16, -0.000000000000000000, -1.000000000000000000 ) ) ;
#125 = ORIENTED_EDGE ( 'NONE', *, *, #232, .F. ) ;
#126 = CLOSED_SHELL ( 'NONE', ( #73, #39, #145, #291, #278, #52, #207, #19, #227, #287 ) ) ;
#127 = AXIS2_PLACEMENT_3D ( 'NONE', #89, #113, #119 ) ;
#128 = FACE_OUTER_BOUND ( 'NONE', #260, .T. ) ;
#129 = EDGE_CURVE ( 'NONE', #47, #192, #159, .T. ) ;
#130 = CARTESIAN_POINT ( 'NONE',  ( 0.000000000000000000, 0.000000000000000000, 2.480315000000000047 ) ) ;
#131 = DIRECTION ( 'NONE',  ( 1.000000000000000000, 0.000000000000000000, 0.000000000000000000 ) ) ;
#132 = AXIS2_PLACEMENT_3D ( 'NONE', #37, #124, #102 ) ;
#133 = FACE_OUTER_BOUND ( 'NONE', #25, .T. ) ;
#134 = DIRECTION ( 'NONE',  ( -1.000000000000000000, 0.000000000000000000, 1.224646799147353454E-16 ) ) ;
#135 = EDGE_CURVE ( 'NONE', #275, #144, #200, .T. ) ;
#136 = APPLICATION_CONTEXT ( 'automotive_design' ) ;
#137 = LINE ( 'NONE', #224, #216 ) ;
#138 = PRESENTATION_STYLE_ASSIGNMENT (( #70 ) ) ;
#139 = AXIS2_PLACEMENT_3D ( 'NONE', #12, #261, #212 ) ;
#140 = CARTESIAN_POINT ( 'NONE',  ( -0.1574804999999998845, 0.000000000000000000, 0.8670351162965941327 ) ) ;
#141 = EDGE_LOOP ( 'NONE', ( #106, #68, #167, #90 ) ) ;
#142 = DIRECTION ( 'NONE',  ( 0.1736481776669313304, 0.000000000000000000, 0.9848077530122077983 ) ) ;
#143 = AXIS2_PLACEMENT_3D ( 'NONE', #223, #60, #246 ) ;
#144 = VERTEX_POINT ( 'NONE', #109 ) ;
#145 = ADVANCED_FACE ( 'NONE', ( #133 ), #205, .T. ) ;
#146 = DIRECTION ( 'NONE',  ( -0.7071067811865627828, 0.000000000000000000, -0.7071067811865321406 ) ) ;
#147 = ORIENTED_EDGE ( 'NONE', *, *, #94, .T. ) ;
#148 = ORIENTED_EDGE ( 'NONE', *, *, #157, .F. ) ;
#149 = AXIS2_PLACEMENT_3D ( 'NONE', #290, #40, #131 ) ;
#150 = FACE_OUTER_BOUND ( 'NONE', #88, .T. ) ;
#151 = CYLINDRICAL_SURFACE ( 'NONE', #245, 0.1573230194999999942 ) ;
#152 = DIRECTION ( 'NONE',  ( 0.000000000000000000, 0.000000000000000000, 1.000000000000000000 ) ) ;
#153 = AXIS2_PLACEMENT_3D ( 'NONE', #219, #182, #107 ) ;
#154 = DIRECTION ( 'NONE',  ( 1.000000000000000000, 0.000000000000000000, 0.000000000000000000 ) ) ;
#155 = CARTESIAN_POINT ( 'NONE',  ( -0.1573230194999999942, 0.000000000000000000, 3.853302645257433254E-17 ) ) ;
#156 = CARTESIAN_POINT ( 'NONE',  ( -0.1424804999999990940, 0.000000000000000000, 2.480315000000000047 ) ) ;
#157 = EDGE_CURVE ( 'NONE', #209, #75, #158, .T. ) ;
#158 = CIRCLE ( 'NONE', #153, 0.1424804999999990940 ) ;
#159 = LINE ( 'NONE', #63, #280 ) ;
#160 = APPLICATION_PROTOCOL_DEFINITION ( 'draft international standard', 'automotive_design', 1998, #28 ) ;
#161 = COLOUR_RGB ( '',0.7921568627450980005, 0.8196078431372548767, 0.9333333333333333481 ) ;
#162 =( NAMED_UNIT ( * ) PLANE_ANGLE_UNIT ( ) SI_UNIT ( $, .RADIAN. ) );
#163 = EDGE_LOOP ( 'NONE', ( #187, #269, #270, #206 ) ) ;
#164 = FILL_AREA_STYLE_COLOUR ( '', #161 ) ;
#165 = ORIENTED_EDGE ( 'NONE', *, *, #232, .T. ) ;
#166 = DIMENSIONAL_EXPONENTS ( 1.000000000000000000, 0.000000000000000000, 0.000000000000000000, 0.000000000000000000, 0.000000000000000000, 0.000000000000000000, 0.000000000000000000 ) ;
#167 = ORIENTED_EDGE ( 'NONE', *, *, #50, .T. ) ;
#168 = PRESENTATION_STYLE_ASSIGNMENT (( #210 ) ) ;
#169 = MECHANICAL_DESIGN_GEOMETRIC_PRESENTATION_REPRESENTATION (  '', ( #236 ), #117 ) ;
#170 =( GEOMETRIC_REPRESENTATION_CONTEXT ( 3 ) GLOBAL_UNCERTAINTY_ASSIGNED_CONTEXT ( ( #298 ) ) GLOBAL_UNIT_ASSIGNED_CONTEXT ( ( #72, #162, #211 ) ) REPRESENTATION_CONTEXT ( 'NONE', 'WORKASPACE' ) );
#171 = LENGTH_MEASURE_WITH_UNIT ( LENGTH_MEASURE( 0.02539999999999999897 ), #188 );
#172 = LINE ( 'NONE', #83, #288 ) ;
#173 = DIRECTION ( 'NONE',  ( -1.224646799147353207E-16, -0.000000000000000000, -1.000000000000000000 ) ) ;
#174 = AXIS2_PLACEMENT_3D ( 'NONE', #23, #267, #93 ) ;
#175 = CARTESIAN_POINT ( 'NONE',  ( 0.000000000000000000, 0.000000000000000000, 2.480315000000000047 ) ) ;
#176 = DIRECTION ( 'NONE',  ( -1.000000000000000000, 0.000000000000000000, 0.000000000000000000 ) ) ;
#177 = EDGE_CURVE ( 'NONE', #192, #215, #96, .T. ) ;
#178 = FACE_OUTER_BOUND ( 'NONE', #5, .T. ) ;
#179 = CIRCLE ( 'NONE', #132, 0.1573230194999999942 ) ;
#180 =( NAMED_UNIT ( * ) SI_UNIT ( $, .STERADIAN. ) SOLID_ANGLE_UNIT ( ) );
#181 = MECHANICAL_DESIGN_GEOMETRIC_PRESENTATION_REPRESENTATION (  '', ( #30 ), #170 ) ;
#182 = DIRECTION ( 'NONE',  ( 0.000000000000000000, 0.000000000000000000, 1.000000000000000000 ) ) ;
#183 = LINE ( 'NONE', #114, #71 ) ;
#184 = ORIENTED_EDGE ( 'NONE', *, *, #214, .T. ) ;
#185 = SURFACE_STYLE_FILL_AREA ( #252 ) ;
#186 = AXIS2_PLACEMENT_3D ( 'NONE', #190, #257, #279 ) ;
#187 = ORIENTED_EDGE ( 'NONE', *, *, #24, .T. ) ;
#188 =( LENGTH_UNIT ( ) NAMED_UNIT ( * ) SI_UNIT ( $, .METRE. ) );
#189 = ORIENTED_EDGE ( 'NONE', *, *, #197, .F. ) ;
#190 = CARTESIAN_POINT ( 'NONE',  ( 0.000000000000000000, 0.000000000000000000, 2.480315000000000047 ) ) ;
#191 = CARTESIAN_POINT ( 'NONE',  ( 0.000000000000000000, 0.000000000000000000, 0.000000000000000000 ) ) ;
#192 = VERTEX_POINT ( 'NONE', #155 ) ;
#193 = AXIS2_PLACEMENT_3D ( 'NONE', #175, #80, #176 ) ;
#194 = DIRECTION ( 'NONE',  ( 1.224646799147353207E-16, 0.000000000000000000, 1.000000000000000000 ) ) ;
#195 = SURFACE_SIDE_STYLE ('',( #235 ) ) ;
#196 = CARTESIAN_POINT ( 'NONE',  ( 2.359467375330272285E-33, 0.000000000000000000, 1.926651322628716627E-17 ) ) ;
#197 = EDGE_CURVE ( 'NONE', #47, #273, #266, .T. ) ;
#198 = DIRECTION ( 'NONE',  ( 1.000000000000000000, 0.000000000000000000, 0.000000000000000000 ) ) ;
#199 = LINE ( 'NONE', #222, #41 ) ;
#200 = CIRCLE ( 'NONE', #149, 0.1574804999999999955 ) ;
#201 = DIRECTION ( 'NONE',  ( -0.000000000000000000, -0.000000000000000000, -1.000000000000000000 ) ) ;
#202 = FACE_OUTER_BOUND ( 'NONE', #231, .T. ) ;
#203 = ORIENTED_EDGE ( 'NONE', *, *, #255, .F. ) ;
#204 = CYLINDRICAL_SURFACE ( 'NONE', #127, 0.1574804999999999955 ) ;
#205 = CONICAL_SURFACE ( 'NONE', #61, 0.1424804999999990940, 0.7853981633974699283 ) ;
#206 = ORIENTED_EDGE ( 'NONE', *, *, #129, .F. ) ;
#207 = ADVANCED_FACE ( 'NONE', ( #178 ), #3, .T. ) ;
#208 = LENGTH_MEASURE_WITH_UNIT ( LENGTH_MEASURE( 0.02539999999999999897 ), #67 );
#209 = VERTEX_POINT ( 'NONE', #156 ) ;
#210 = SURFACE_STYLE_USAGE ( .BOTH. , #195 ) ;
#211 =( NAMED_UNIT ( * ) SI_UNIT ( $, .STERADIAN. ) SOLID_ANGLE_UNIT ( ) );
#212 = DIRECTION ( 'NONE',  ( 1.000000000000000000, 0.000000000000000000, 0.000000000000000000 ) ) ;
#213 = CARTESIAN_POINT ( 'NONE',  ( 0.1574805000000000788, 1.928579902531248645E-17, 0.8670351162965941327 ) ) ;
#214 = EDGE_CURVE ( 'NONE', #144, #275, #14, .T. ) ;
#215 = VERTEX_POINT ( 'NONE', #16 ) ;
#216 = VECTOR ( 'NONE', #17, 39.37007874015748143 ) ;
#217 = CARTESIAN_POINT ( 'NONE',  ( -0.1573230194999999110, 1.927615612579982019E-17, 0.8661419999999999675 ) ) ;
#218 = DIRECTION ( 'NONE',  ( -1.224646799147353207E-16, -0.000000000000000000, -1.000000000000000000 ) ) ;
#219 = CARTESIAN_POINT ( 'NONE',  ( 0.000000000000000000, 0.000000000000000000, 2.480315000000000047 ) ) ;
#220 = VECTOR ( 'NONE', #244, 39.37007874015747433 ) ;
#221 = PRODUCT_DEFINITION_FORMATION_WITH_SPECIFIED_SOURCE ( 'ANY', '', #251, .NOT_KNOWN. ) ;
#222 = CARTESIAN_POINT ( 'NONE',  ( 0.1574804999999999955, 1.928579902531247412E-17, 2.480315000000000047 ) ) ;
#223 = CARTESIAN_POINT ( 'NONE',  ( 0.000000000000000000, 0.000000000000000000, 0.000000000000000000 ) ) ;
#224 = CARTESIAN_POINT ( 'NONE',  ( 0.1573230194999999942, 1.926651322628716627E-17, -1.926651322628716627E-17 ) ) ;
#225 = VECTOR ( 'NONE', #142, 39.37007874015748143 ) ;
#226 = LENGTH_MEASURE_WITH_UNIT ( LENGTH_MEASURE( 0.02539999999999999897 ), #249 );
#227 = ADVANCED_FACE ( 'NONE', ( #286 ), #264, .T. ) ;
#228 = LINE ( 'NONE', #1, #36 ) ;
#229 = UNCERTAINTY_MEASURE_WITH_UNIT (LENGTH_MEASURE( 1.000000000000000082E-05 ), #239, 'distance_accuracy_value', 'NONE');
#230 = FACE_OUTER_BOUND ( 'NONE', #2, .T. ) ;
#231 = EDGE_LOOP ( 'NONE', ( #103, #184, #295, #125 ) ) ;
#232 = EDGE_CURVE ( 'NONE', #46, #273, #87, .T. ) ;
#233 = ORIENTED_EDGE ( 'NONE', *, *, #6, .F. ) ;
#234 = DIMENSIONAL_EXPONENTS ( 1.000000000000000000, 0.000000000000000000, 0.000000000000000000, 0.000000000000000000, 0.000000000000000000, 0.000000000000000000, 0.000000000000000000 ) ;
#235 = SURFACE_STYLE_FILL_AREA ( #76 ) ;
#236 = STYLED_ITEM ( 'NONE', ( #168 ), #85 ) ;
#237 = CARTESIAN_POINT ( 'NONE',  ( 1.060718027907086782E-16, 0.000000000000000000, 0.8661419999999999675 ) ) ;
#238 = APPLICATION_PROTOCOL_DEFINITION ( 'draft international standard', 'automotive_design', 1998, #136 ) ;
#239 =( CONVERSION_BASED_UNIT ( 'INCH', #171 ) LENGTH_UNIT ( ) NAMED_UNIT ( #234 ) );
#240 = DIMENSIONAL_EXPONENTS ( 1.000000000000000000, 0.000000000000000000, 0.000000000000000000, 0.000000000000000000, 0.000000000000000000, 0.000000000000000000, 0.000000000000000000 ) ;
#241 = PLANE ( 'NONE',  #186 ) ;
#242 = CONICAL_SURFACE ( 'NONE', #54, 0.1573230194999999942, 0.1745329251994338360 ) ;
#243 =( NAMED_UNIT ( * ) PLANE_ANGLE_UNIT ( ) SI_UNIT ( $, .RADIAN. ) );
#244 = DIRECTION ( 'NONE',  ( -0.1736481776669311639, 2.126576849575782392E-17, 0.9848077530122080203 ) ) ;
#245 = AXIS2_PLACEMENT_3D ( 'NONE', #100, #78, #256 ) ;
#246 = DIRECTION ( 'NONE',  ( -1.000000000000000000, 0.000000000000000000, 1.224646799147353454E-16 ) ) ;
#247 = DIRECTION ( 'NONE',  ( -1.224646799147353207E-16, -0.000000000000000000, -1.000000000000000000 ) ) ;
#248 = PRESENTATION_LAYER_ASSIGNMENT (  '', '', ( #236 ) ) ;
#249 =( LENGTH_UNIT ( ) NAMED_UNIT ( * ) SI_UNIT ( $, .METRE. ) );
#250 = CIRCLE ( 'NONE', #59, 0.1573230194999999942 ) ;
#251 = PRODUCT ( 'Micro_EMSM-080-3', 'Micro_EMSM-080-3', '', ( #7 ) ) ;
#252 = FILL_AREA_STYLE ('',( #164 ) ) ;
#253 = ORIENTED_EDGE ( 'NONE', *, *, #214, .F. ) ;
#254 = CARTESIAN_POINT ( 'NONE',  ( 0.1573230195000001053, 0.000000000000000000, 0.8661419999999999675 ) ) ;
#255 = EDGE_CURVE ( 'NONE', #276, #215, #137, .T. ) ;
#256 = DIRECTION ( 'NONE',  ( -1.000000000000000000, 0.000000000000000000, 1.224646799147353454E-16 ) ) ;
#257 = DIRECTION ( 'NONE',  ( 0.000000000000000000, 0.000000000000000000, 1.000000000000000000 ) ) ;
#258 = ORIENTED_EDGE ( 'NONE', *, *, #135, .T. ) ;
#259 = EDGE_CURVE ( 'NONE', #276, #46, #299, .T. ) ;
#260 = EDGE_LOOP ( 'NONE', ( #189, #32, #95, #165 ) ) ;
#261 = DIRECTION ( 'NONE',  ( 1.224646799147353207E-16, 0.000000000000000000, 1.000000000000000000 ) ) ;
#262 = EDGE_CURVE ( 'NONE', #275, #273, #228, .T. ) ;
#263 = DIRECTION ( 'NONE',  ( -1.000000000000000000, 0.000000000000000000, 0.000000000000000000 ) ) ;
#264 = CYLINDRICAL_SURFACE ( 'NONE', #143, 0.1573230194999999942 ) ;
#265 = AXIS2_PLACEMENT_3D ( 'NONE', #42, #247, #43 ) ;
#266 = LINE ( 'NONE', #79, #220 ) ;
#267 = DIRECTION ( 'NONE',  ( 0.000000000000000000, 0.000000000000000000, 1.000000000000000000 ) ) ;
#268 = AXIS2_PLACEMENT_3D ( 'NONE', #237, #277, #34 ) ;
#269 = ORIENTED_EDGE ( 'NONE', *, *, #255, .T. ) ;
#270 = ORIENTED_EDGE ( 'NONE', *, *, #177, .F. ) ;
#271 = ORIENTED_EDGE ( 'NONE', *, *, #123, .T. ) ;
#272 = SURFACE_SIDE_STYLE ('',( #185 ) ) ;
#273 = VERTEX_POINT ( 'NONE', #140 ) ;
#274 = AXIS2_PLACEMENT_3D ( 'NONE', #15, #110, #81 ) ;
#275 = VERTEX_POINT ( 'NONE', #21 ) ;
#276 = VERTEX_POINT ( 'NONE', #18 ) ;
#277 = DIRECTION ( 'NONE',  ( -1.224646799147353207E-16, -0.000000000000000000, -1.000000000000000000 ) ) ;
#278 = ADVANCED_FACE ( 'NONE', ( #202 ), #20, .T. ) ;
#279 = DIRECTION ( 'NONE',  ( 1.000000000000000000, 0.000000000000000000, -0.000000000000000000 ) ) ;
#280 = VECTOR ( 'NONE', #218, 39.37007874015748143 ) ;
#281 = ORIENTED_EDGE ( 'NONE', *, *, #262, .F. ) ;
#282 = ORIENTED_EDGE ( 'NONE', *, *, #293, .T. ) ;
#283 = PRODUCT_DEFINITION ( 'UNKNOWN', '', #221, #104 ) ;
#284 = DIRECTION ( 'NONE',  ( -1.224646799147353207E-16, -0.000000000000000000, -1.000000000000000000 ) ) ;
#285 = DIRECTION ( 'NONE',  ( 0.7071067811865627828, 8.659560562355118980E-17, -0.7071067811865321406 ) ) ;
#286 = FACE_OUTER_BOUND ( 'NONE', #122, .T. ) ;
#287 = ADVANCED_FACE ( 'NONE', ( #230 ), #297, .F. ) ;
#288 = VECTOR ( 'NONE', #285, 39.37007874015748854 ) ;
#289 = CIRCLE ( 'NONE', #268, 0.1573230194999999942 ) ;
#290 = CARTESIAN_POINT ( 'NONE',  ( 0.000000000000000000, 0.000000000000000000, 2.465314999999999923 ) ) ;
#291 = ADVANCED_FACE ( 'NONE', ( #84 ), #204, .T. ) ;
#292 =( NAMED_UNIT ( * ) SI_UNIT ( $, .STERADIAN. ) SOLID_ANGLE_UNIT ( ) );
#293 = EDGE_CURVE ( 'NONE', #209, #275, #183, .T. ) ;
#294 = EDGE_LOOP ( 'NONE', ( #258, #147, #51, #281 ) ) ;
#295 = ORIENTED_EDGE ( 'NONE', *, *, #262, .T. ) ;
#296 = AXIS2_PLACEMENT_3D ( 'NONE', #86, #115, #48 ) ;
#297 = PLANE ( 'NONE',  #174 ) ;
#298 = UNCERTAINTY_MEASURE_WITH_UNIT (LENGTH_MEASURE( 1.000000000000000082E-05 ), #72, 'distance_accuracy_value', 'NONE');
#299 = LINE ( 'NONE', #254, #225 ) ;
ENDSEC;
END-ISO-10303-21;
