ISO-10303-21;
HEADER;
FILE_DESCRIPTION (( 'STEP AP214' ),
    '1' );
FILE_NAME ('83276.STEP',
    '2023-06-30T22:51:05',
    ( '' ),
    ( '' ),
    'SwSTEP 2.0',
    'SolidWorks 2023',
    '' );
FILE_SCHEMA (( 'AUTOMOTIVE_DESIGN' ));
ENDSEC;

DATA;
#1 = SPHERICAL_SURFACE ( 'NONE', #40, 0.06250000000000002776 ) ;
#2 = DIRECTION ( 'NONE',  ( -0.000000000000000000, -1.000000000000000000, -0.000000000000000000 ) ) ;
#3 = MECHANICAL_DESIGN_GEOMETRIC_PRESENTATION_REPRESENTATION (  '', ( #280 ), #87 ) ;
#4 = MECHANICAL_DESIGN_GEOMETRIC_PRESENTATION_REPRESENTATION (  '', ( #233 ), #229 ) ;
#5 = CARTESIAN_POINT ( 'NONE',  ( -7.654042494670957545E-18, 0.06250000000000001388, 0.000000000000000000 ) ) ;
#6 = PRESENTATION_STYLE_ASSIGNMENT (( #171 ) ) ;
#7 =( LENGTH_UNIT ( ) NAMED_UNIT ( * ) SI_UNIT ( $, .METRE. ) );
#8 = AXIS2_PLACEMENT_3D ( 'NONE', #214, #150, #183 ) ;
#9 = DIRECTION ( 'NONE',  ( 0.000000000000000000, 0.000000000000000000, -1.000000000000000000 ) ) ;
#10 = APPLICATION_CONTEXT ( 'automotive_design' ) ;
#11 = EDGE_CURVE ( 'NONE', #132, #362, #279, .T. ) ;
#12 = UNCERTAINTY_MEASURE_WITH_UNIT (LENGTH_MEASURE( 1.000000000000000082E-05 ), #253, 'distance_accuracy_value', 'NONE');
#13 = CYLINDRICAL_SURFACE ( 'NONE', #139, 0.06250000000000000000 ) ;
#14 = AXIS2_PLACEMENT_3D ( 'NONE', #271, #367, #104 ) ;
#15 = PRESENTATION_STYLE_ASSIGNMENT (( #189 ) ) ;
#16 = DIMENSIONAL_EXPONENTS ( 1.000000000000000000, 0.000000000000000000, 0.000000000000000000, 0.000000000000000000, 0.000000000000000000, 0.000000000000000000, 0.000000000000000000 ) ;
#17 = LENGTH_MEASURE_WITH_UNIT ( LENGTH_MEASURE( 0.02539999999999999897 ), #99 );
#18 = EDGE_CURVE ( 'NONE', #238, #105, #304, .T. ) ;
#19 = ORIENTED_EDGE ( 'NONE', *, *, #91, .F. ) ;
#20 = STYLED_ITEM ( 'NONE', ( #138 ), #340 ) ;
#21 = EDGE_LOOP ( 'NONE', ( #109, #26, #95, #158 ) ) ;
#22 = ADVANCED_FACE ( 'NONE', ( #53 ), #48, .T. ) ;
#23 =( CONVERSION_BASED_UNIT ( 'INCH', #17 ) LENGTH_UNIT ( ) NAMED_UNIT ( #356 ) );
#24 = VERTEX_POINT ( 'NONE', #243 ) ;
#25 = DIRECTION ( 'NONE',  ( -0.000000000000000000, -1.000000000000000000, -0.000000000000000000 ) ) ;
#26 = ORIENTED_EDGE ( 'NONE', *, *, #241, .T. ) ;
#27 = CARTESIAN_POINT ( 'NONE',  ( 0.000000000000000000, 0.06250000000000005551, 0.000000000000000000 ) ) ;
#28 = CARTESIAN_POINT ( 'NONE',  ( -0.06249999999999997224, 2.000000000000000000, 0.000000000000000000 ) ) ;
#29 = CARTESIAN_POINT ( 'NONE',  ( -0.06250000000000006939, 2.000000000000000000, 0.000000000000000000 ) ) ;
#30 =( NAMED_UNIT ( * ) PLANE_ANGLE_UNIT ( ) SI_UNIT ( $, .RADIAN. ) );
#31 = DIRECTION ( 'NONE',  ( -1.000000000000000000, 0.000000000000000000, 0.000000000000000000 ) ) ;
#32 = APPLICATION_CONTEXT ( 'automotive_design' ) ;
#33 = CARTESIAN_POINT ( 'NONE',  ( 0.000000000000000000, 0.06250000000000005551, 0.000000000000000000 ) ) ;
#34 = FACE_OUTER_BOUND ( 'NONE', #21, .T. ) ;
#35 = COLOUR_RGB ( '',0.7921568627450980005, 0.8196078431372548767, 0.9333333333333333481 ) ;
#36 =( GEOMETRIC_REPRESENTATION_CONTEXT ( 3 ) GLOBAL_UNCERTAINTY_ASSIGNED_CONTEXT ( ( #50 ) ) GLOBAL_UNIT_ASSIGNED_CONTEXT ( ( #23, #160, #103 ) ) REPRESENTATION_CONTEXT ( 'NONE', 'WORKASPACE' ) );
#37 = FILL_AREA_STYLE_COLOUR ( '', #93 ) ;
#38 = FILL_AREA_STYLE_COLOUR ( '', #145 ) ;
#39 = VERTEX_POINT ( 'NONE', #74 ) ;
#40 = AXIS2_PLACEMENT_3D ( 'NONE', #5, #198, #318 ) ;
#41 = DIMENSIONAL_EXPONENTS ( 1.000000000000000000, 0.000000000000000000, 0.000000000000000000, 0.000000000000000000, 0.000000000000000000, 0.000000000000000000, 0.000000000000000000 ) ;
#42 = FACE_OUTER_BOUND ( 'NONE', #302, .T. ) ;
#43 =( NAMED_UNIT ( * ) SI_UNIT ( $, .STERADIAN. ) SOLID_ANGLE_UNIT ( ) );
#44 = ORIENTED_EDGE ( 'NONE', *, *, #18, .T. ) ;
#45 = CARTESIAN_POINT ( 'NONE',  ( -6.123233995736766036E-17, 2.000000000000000000, 0.000000000000000000 ) ) ;
#46 = DIRECTION ( 'NONE',  ( 0.000000000000000000, 0.000000000000000000, -1.000000000000000000 ) ) ;
#47 = EDGE_CURVE ( 'NONE', #248, #84, #313, .T. ) ;
#48 = CYLINDRICAL_SURFACE ( 'NONE', #211, 0.06249999999999991673 ) ;
#49 = APPLICATION_PROTOCOL_DEFINITION ( 'draft international standard', 'automotive_design', 1998, #10 ) ;
#50 = UNCERTAINTY_MEASURE_WITH_UNIT (LENGTH_MEASURE( 1.000000000000000082E-05 ), #23, 'distance_accuracy_value', 'NONE');
#51 = SURFACE_SIDE_STYLE ('',( #56 ) ) ;
#52 = MECHANICAL_DESIGN_GEOMETRIC_PRESENTATION_REPRESENTATION (  '', ( #292 ), #333 ) ;
#53 = FACE_OUTER_BOUND ( 'NONE', #122, .T. ) ;
#54 = DIRECTION ( 'NONE',  ( -1.224646799147352961E-16, 1.000000000000000000, -0.000000000000000000 ) ) ;
#55 = DIRECTION ( 'NONE',  ( 0.000000000000000000, 0.000000000000000000, -1.000000000000000000 ) ) ;
#56 = SURFACE_STYLE_FILL_AREA ( #191 ) ;
#57 = ORIENTED_EDGE ( 'NONE', *, *, #315, .T. ) ;
#58 = AXIS2_PLACEMENT_3D ( 'NONE', #133, #219, #273 ) ;
#59 = PRODUCT_DEFINITION_FORMATION_WITH_SPECIFIED_SOURCE ( 'ANY', '', #61, .NOT_KNOWN. ) ;
#60 = DIRECTION ( 'NONE',  ( -0.000000000000000000, -1.000000000000000000, -0.000000000000000000 ) ) ;
#61 = PRODUCT ( '83276', '83276', '', ( #246 ) ) ;
#62 =( CONVERSION_BASED_UNIT ( 'INCH', #117 ) LENGTH_UNIT ( ) NAMED_UNIT ( #265 ) );
#63 =( LENGTH_UNIT ( ) NAMED_UNIT ( * ) SI_UNIT ( $, .METRE. ) );
#64 = VECTOR ( 'NONE', #209, 39.37007874015748143 ) ;
#65 =( NAMED_UNIT ( * ) PLANE_ANGLE_UNIT ( ) SI_UNIT ( $, .RADIAN. ) );
#66 = ORIENTED_EDGE ( 'NONE', *, *, #166, .F. ) ;
#67 = DIRECTION ( 'NONE',  ( 1.224646799147352961E-16, -1.000000000000000000, 0.000000000000000000 ) ) ;
#68 = STYLED_ITEM ( 'NONE', ( #261 ), #227 ) ;
#69 = FILL_AREA_STYLE ('',( #328 ) ) ;
#70 = EDGE_LOOP ( 'NONE', ( #364, #235 ) ) ;
#71 = ADVANCED_BREP_SHAPE_REPRESENTATION ( '83276', ( #157, #163, #188 ), #300 ) ;
#72 = PRESENTATION_STYLE_ASSIGNMENT (( #149 ) ) ;
#73 = CIRCLE ( 'NONE', #148, 0.06250000000000001388 ) ;
#74 = CARTESIAN_POINT ( 'NONE',  ( -3.827021247335477232E-18, -1.707404996040164512E-17, 0.000000000000000000 ) ) ;
#75 = ORIENTED_EDGE ( 'NONE', *, *, #11, .F. ) ;
#76 = FACE_OUTER_BOUND ( 'NONE', #311, .T. ) ;
#77 = ORIENTED_EDGE ( 'NONE', *, *, #18, .F. ) ;
#78 = UNCERTAINTY_MEASURE_WITH_UNIT (LENGTH_MEASURE( 1.000000000000000082E-05 ), #230, 'distance_accuracy_value', 'NONE');
#79 = CLOSED_SHELL ( 'NONE', ( #22, #221, #324, #223 ) ) ;
#80 = MECHANICAL_DESIGN_GEOMETRIC_PRESENTATION_REPRESENTATION (  '', ( #68 ), #36 ) ;
#81 = ORIENTED_EDGE ( 'NONE', *, *, #208, .T. ) ;
#82 = FILL_AREA_STYLE_COLOUR ( '', #121 ) ;
#83 = PRODUCT_RELATED_PRODUCT_CATEGORY ( 'part', '', ( #61 ) ) ;
#84 = VERTEX_POINT ( 'NONE', #217 ) ;
#85 =( NAMED_UNIT ( * ) SI_UNIT ( $, .STERADIAN. ) SOLID_ANGLE_UNIT ( ) );
#86 = SURFACE_STYLE_FILL_AREA ( #346 ) ;
#87 =( GEOMETRIC_REPRESENTATION_CONTEXT ( 3 ) GLOBAL_UNCERTAINTY_ASSIGNED_CONTEXT ( ( #204 ) ) GLOBAL_UNIT_ASSIGNED_CONTEXT ( ( #282, #30, #111 ) ) REPRESENTATION_CONTEXT ( 'NONE', 'WORKASPACE' ) );
#88 = SURFACE_STYLE_FILL_AREA ( #167 ) ;
#89 = AXIS2_PLACEMENT_3D ( 'NONE', #27, #60, #250 ) ;
#90 =( LENGTH_UNIT ( ) NAMED_UNIT ( * ) SI_UNIT ( $, .METRE. ) );
#91 = EDGE_CURVE ( 'NONE', #362, #24, #332, .T. ) ;
#92 = PRESENTATION_STYLE_ASSIGNMENT (( #319 ) ) ;
#93 = COLOUR_RGB ( '',0.7921568627450980005, 0.8196078431372548767, 0.9333333333333333481 ) ;
#94 =( NAMED_UNIT ( * ) PLANE_ANGLE_UNIT ( ) SI_UNIT ( $, .RADIAN. ) );
#95 = ORIENTED_EDGE ( 'NONE', *, *, #268, .F. ) ;
#96 = CARTESIAN_POINT ( 'NONE',  ( 1.377727649040771896E-16, 0.3750000000000000555, 0.000000000000000000 ) ) ;
#97 = MECHANICAL_DESIGN_GEOMETRIC_PRESENTATION_REPRESENTATION (  '', ( #369 ), #249 ) ;
#98 = EDGE_LOOP ( 'NONE', ( #100, #151 ) ) ;
#99 =( LENGTH_UNIT ( ) NAMED_UNIT ( * ) SI_UNIT ( $, .METRE. ) );
#100 = ORIENTED_EDGE ( 'NONE', *, *, #91, .T. ) ;
#101 = VECTOR ( 'NONE', #136, 39.37007874015748143 ) ;
#102 = ORIENTED_EDGE ( 'NONE', *, *, #266, .F. ) ;
#103 =( NAMED_UNIT ( * ) SI_UNIT ( $, .STERADIAN. ) SOLID_ANGLE_UNIT ( ) );
#104 = DIRECTION ( 'NONE',  ( -1.000000000000000000, 0.000000000000000000, 0.000000000000000000 ) ) ;
#105 = VERTEX_POINT ( 'NONE', #215 ) ;
#106 = VECTOR ( 'NONE', #186, 39.37007874015748143 ) ;
#107 = CARTESIAN_POINT ( 'NONE',  ( 0.000000000000000000, 0.000000000000000000, 0.000000000000000000 ) ) ;
#108 = CIRCLE ( 'NONE', #327, 0.06249999999999981265 ) ;
#109 = ORIENTED_EDGE ( 'NONE', *, *, #361, .T. ) ;
#110 =( NAMED_UNIT ( * ) PLANE_ANGLE_UNIT ( ) SI_UNIT ( $, .RADIAN. ) );
#111 =( NAMED_UNIT ( * ) SI_UNIT ( $, .STERADIAN. ) SOLID_ANGLE_UNIT ( ) );
#112 = DIRECTION ( 'NONE',  ( 0.000000000000000000, -0.000000000000000000, 1.000000000000000000 ) ) ;
#113 = CARTESIAN_POINT ( 'NONE',  ( -7.654042494670957545E-18, 0.06250000000000001388, 0.000000000000000000 ) ) ;
#114 = SURFACE_STYLE_USAGE ( .BOTH. , #256 ) ;
#115 = DIRECTION ( 'NONE',  ( 0.000000000000000000, 0.000000000000000000, 1.000000000000000000 ) ) ;
#116 = PRESENTATION_LAYER_ASSIGNMENT (  '', '', ( #200 ) ) ;
#117 = LENGTH_MEASURE_WITH_UNIT ( LENGTH_MEASURE( 0.02539999999999999897 ), #63 );
#118 =( NAMED_UNIT ( * ) SI_UNIT ( $, .STERADIAN. ) SOLID_ANGLE_UNIT ( ) );
#119 = EDGE_CURVE ( 'NONE', #131, #238, #286, .T. ) ;
#120 = LENGTH_MEASURE_WITH_UNIT ( LENGTH_MEASURE( 0.02539999999999999897 ), #7 );
#121 = COLOUR_RGB ( '',1.000000000000000000, 0.000000000000000000, 0.000000000000000000 ) ;
#122 = EDGE_LOOP ( 'NONE', ( #81, #176, #19, #75 ) ) ;
#123 = DIMENSIONAL_EXPONENTS ( 1.000000000000000000, 0.000000000000000000, 0.000000000000000000, 0.000000000000000000, 0.000000000000000000, 0.000000000000000000, 0.000000000000000000 ) ;
#124 = DIRECTION ( 'NONE',  ( 0.000000000000000000, 0.000000000000000000, -1.000000000000000000 ) ) ;
#125 = EDGE_CURVE ( 'NONE', #296, #105, #357, .T. ) ;
#126 = DIRECTION ( 'NONE',  ( -1.000000000000000000, 0.000000000000000000, 0.000000000000000000 ) ) ;
#127 = CARTESIAN_POINT ( 'NONE',  ( 7.654042494670957545E-18, 0.000000000000000000, 0.06250000000000000000 ) ) ;
#128 = AXIS2_PLACEMENT_3D ( 'NONE', #190, #308, #55 ) ;
#129 = COLOUR_RGB ( '',1.000000000000000000, 0.000000000000000000, 0.000000000000000000 ) ;
#130 = DIRECTION ( 'NONE',  ( 0.000000000000000000, 0.000000000000000000, -1.000000000000000000 ) ) ;
#131 = VERTEX_POINT ( 'NONE', #161 ) ;
#132 = VERTEX_POINT ( 'NONE', #373 ) ;
#133 = CARTESIAN_POINT ( 'NONE',  ( -7.654042494670957545E-18, 0.06250000000000001388, 0.000000000000000000 ) ) ;
#134 = EDGE_LOOP ( 'NONE', ( #269, #44, #276, #370, #102 ) ) ;
#135 = DIRECTION ( 'NONE',  ( 0.000000000000000000, 0.000000000000000000, 1.000000000000000000 ) ) ;
#136 = DIRECTION ( 'NONE',  ( -1.224646799147352961E-16, 1.000000000000000000, -0.000000000000000000 ) ) ;
#137 = LENGTH_MEASURE_WITH_UNIT ( LENGTH_MEASURE( 0.02539999999999999897 ), #284 );
#138 = PRESENTATION_STYLE_ASSIGNMENT (( #114 ) ) ;
#139 = AXIS2_PLACEMENT_3D ( 'NONE', #201, #207, #124 ) ;
#140 = SPHERICAL_SURFACE ( 'NONE', #255, 0.06250000000000002776 ) ;
#141 = MECHANICAL_DESIGN_GEOMETRIC_PRESENTATION_REPRESENTATION (  '', ( #200 ), #281 ) ;
#142 = LENGTH_MEASURE_WITH_UNIT ( LENGTH_MEASURE( 0.02539999999999999897 ), #257 );
#143 = UNCERTAINTY_MEASURE_WITH_UNIT (LENGTH_MEASURE( 1.000000000000000082E-05 ), #62, 'distance_accuracy_value', 'NONE');
#144 = DIRECTION ( 'NONE',  ( 1.000000000000000000, 1.224646799147352961E-16, 0.000000000000000000 ) ) ;
#145 = COLOUR_RGB ( '',1.000000000000000000, 0.000000000000000000, 0.000000000000000000 ) ;
#146 = SURFACE_STYLE_USAGE ( .BOTH. , #294 ) ;
#147 = ADVANCED_FACE ( 'NONE', ( #34 ), #140, .T. ) ;
#148 = AXIS2_PLACEMENT_3D ( 'NONE', #45, #270, #126 ) ;
#149 = SURFACE_STYLE_USAGE ( .BOTH. , #295 ) ;
#150 = DIRECTION ( 'NONE',  ( 0.000000000000000000, 0.000000000000000000, -1.000000000000000000 ) ) ;
#151 = ORIENTED_EDGE ( 'NONE', *, *, #260, .T. ) ;
#152 = UNCERTAINTY_MEASURE_WITH_UNIT (LENGTH_MEASURE( 1.000000000000000082E-05 ), #178, 'distance_accuracy_value', 'NONE');
#153 =( CONVERSION_BASED_UNIT ( 'INCH', #337 ) LENGTH_UNIT ( ) NAMED_UNIT ( #321 ) );
#154 = EDGE_LOOP ( 'NONE', ( #345, #57, #182, #192 ) ) ;
#155 = AXIS2_PLACEMENT_3D ( 'NONE', #96, #172, #325 ) ;
#156 = LINE ( 'NONE', #247, #64 ) ;
#157 = MANIFOLD_SOLID_BREP ( 'Revolve - Cutting Edge', #298 ) ;
#158 = ORIENTED_EDGE ( 'NONE', *, *, #125, .T. ) ;
#159 = EDGE_CURVE ( 'NONE', #84, #296, #305, .T. ) ;
#160 =( NAMED_UNIT ( * ) PLANE_ANGLE_UNIT ( ) SI_UNIT ( $, .RADIAN. ) );
#161 = CARTESIAN_POINT ( 'NONE',  ( 0.000000000000000000, 0.3750000000000000555, -0.06249999999999995143 ) ) ;
#162 = CARTESIAN_POINT ( 'NONE',  ( 0.000000000000000000, 0.000000000000000000, 0.000000000000000000 ) ) ;
#163 = MANIFOLD_SOLID_BREP ( 'Revolve - Tool Body (Straight Shanked)', #79 ) ;
#164 = LENGTH_MEASURE_WITH_UNIT ( LENGTH_MEASURE( 0.02539999999999999897 ), #90 );
#165 = VECTOR ( 'NONE', #54, 39.37007874015748143 ) ;
#166 = EDGE_CURVE ( 'NONE', #238, #131, #354, .T. ) ;
#167 = FILL_AREA_STYLE ('',( #347 ) ) ;
#168 = DIRECTION ( 'NONE',  ( 1.000000000000000000, 0.000000000000000000, 0.000000000000000000 ) ) ;
#169 = FILL_AREA_STYLE_COLOUR ( '', #234 ) ;
#170 = PRESENTATION_STYLE_ASSIGNMENT (( #254 ) ) ;
#171 = SURFACE_STYLE_USAGE ( .BOTH. , #353 ) ;
#172 = DIRECTION ( 'NONE',  ( -1.224646799147352961E-16, 1.000000000000000000, 0.000000000000000000 ) ) ;
#173 = DIMENSIONAL_EXPONENTS ( 1.000000000000000000, 0.000000000000000000, 0.000000000000000000, 0.000000000000000000, 0.000000000000000000, 0.000000000000000000, 0.000000000000000000 ) ;
#174 = PLANE ( 'NONE',  #342 ) ;
#175 = PRESENTATION_LAYER_ASSIGNMENT (  '', '', ( #369 ) ) ;
#176 = ORIENTED_EDGE ( 'NONE', *, *, #251, .T. ) ;
#177 = SURFACE_STYLE_FILL_AREA ( #69 ) ;
#178 =( CONVERSION_BASED_UNIT ( 'INCH', #120 ) LENGTH_UNIT ( ) NAMED_UNIT ( #41 ) );
#179 = DIMENSIONAL_EXPONENTS ( 1.000000000000000000, 0.000000000000000000, 0.000000000000000000, 0.000000000000000000, 0.000000000000000000, 0.000000000000000000, 0.000000000000000000 ) ;
#180 = FILL_AREA_STYLE ('',( #38 ) ) ;
#181 = AXIS2_PLACEMENT_3D ( 'NONE', #350, #259, #9 ) ;
#182 = ORIENTED_EDGE ( 'NONE', *, *, #11, .T. ) ;
#183 = DIRECTION ( 'NONE',  ( -1.000000000000000000, 0.000000000000000000, 0.000000000000000000 ) ) ;
#184 = ORIENTED_EDGE ( 'NONE', *, *, #268, .T. ) ;
#185 = LINE ( 'NONE', #301, #165 ) ;
#186 = DIRECTION ( 'NONE',  ( -0.000000000000000000, -1.000000000000000000, -0.000000000000000000 ) ) ;
#187 = AXIS2_PLACEMENT_3D ( 'NONE', #33, #2, #289 ) ;
#188 = AXIS2_PLACEMENT_3D ( 'NONE', #162, #135, #309 ) ;
#189 = SURFACE_STYLE_USAGE ( .BOTH. , #51 ) ;
#190 = CARTESIAN_POINT ( 'NONE',  ( 0.000000000000000000, 0.06250000000000005551, 0.000000000000000000 ) ) ;
#191 = FILL_AREA_STYLE ('',( #82 ) ) ;
#192 = ORIENTED_EDGE ( 'NONE', *, *, #260, .F. ) ;
#193 =( CONVERSION_BASED_UNIT ( 'INCH', #137 ) LENGTH_UNIT ( ) NAMED_UNIT ( #179 ) );
#194 = AXIS2_PLACEMENT_3D ( 'NONE', #338, #306, #341 ) ;
#195 = DIRECTION ( 'NONE',  ( -1.224646799147352961E-16, 1.000000000000000000, -0.000000000000000000 ) ) ;
#196 =( GEOMETRIC_REPRESENTATION_CONTEXT ( 3 ) GLOBAL_UNCERTAINTY_ASSIGNED_CONTEXT ( ( #12 ) ) GLOBAL_UNIT_ASSIGNED_CONTEXT ( ( #253, #288, #85 ) ) REPRESENTATION_CONTEXT ( 'NONE', 'WORKASPACE' ) );
#197 = FILL_AREA_STYLE_COLOUR ( '', #35 ) ;
#198 = DIRECTION ( 'NONE',  ( 0.000000000000000000, 0.000000000000000000, 1.000000000000000000 ) ) ;
#199 = SURFACE_SIDE_STYLE ('',( #312 ) ) ;
#200 = STYLED_ITEM ( 'NONE', ( #72 ), #203 ) ;
#201 = CARTESIAN_POINT ( 'NONE',  ( 0.000000000000000000, 0.000000000000000000, 0.000000000000000000 ) ) ;
#202 = PRODUCT_DEFINITION ( 'UNKNOWN', '', #59, #344 ) ;
#203 = ADVANCED_FACE ( 'NONE', ( #42 ), #13, .T. ) ;
#204 = UNCERTAINTY_MEASURE_WITH_UNIT (LENGTH_MEASURE( 1.000000000000000082E-05 ), #282, 'distance_accuracy_value', 'NONE');
#205 = CYLINDRICAL_SURFACE ( 'NONE', #348, 0.06250000000000000000 ) ;
#206 = CIRCLE ( 'NONE', #8, 0.06250000000000002776 ) ;
#207 = DIRECTION ( 'NONE',  ( -0.000000000000000000, -1.000000000000000000, -0.000000000000000000 ) ) ;
#208 = EDGE_CURVE ( 'NONE', #132, #245, #108, .T. ) ;
#209 = DIRECTION ( 'NONE',  ( -0.000000000000000000, -1.000000000000000000, -0.000000000000000000 ) ) ;
#210 = DIRECTION ( 'NONE',  ( -0.000000000000000000, -1.000000000000000000, -0.000000000000000000 ) ) ;
#211 = AXIS2_PLACEMENT_3D ( 'NONE', #239, #274, #252 ) ;
#212 = AXIS2_PLACEMENT_3D ( 'NONE', #267, #237, #366 ) ;
#213 = ORIENTED_EDGE ( 'NONE', *, *, #47, .F. ) ;
#214 = CARTESIAN_POINT ( 'NONE',  ( -7.654042494670957545E-18, 0.06250000000000001388, 0.000000000000000000 ) ) ;
#215 = CARTESIAN_POINT ( 'NONE',  ( 7.654042494670963708E-18, 0.06250000000000005551, 0.06250000000000005551 ) ) ;
#216 = UNCERTAINTY_MEASURE_WITH_UNIT (LENGTH_MEASURE( 1.000000000000000082E-05 ), #193, 'distance_accuracy_value', 'NONE');
#217 = CARTESIAN_POINT ( 'NONE',  ( 0.000000000000000000, 0.06250000000000005551, -0.06250000000000005551 ) ) ;
#218 = AXIS2_PLACEMENT_3D ( 'NONE', #349, #195, #31 ) ;
#219 = DIRECTION ( 'NONE',  ( 1.224646799147353207E-16, -0.000000000000000000, 1.000000000000000000 ) ) ;
#220 = EDGE_LOOP ( 'NONE', ( #334, #326, #365, #184 ) ) ;
#221 = ADVANCED_FACE ( 'NONE', ( #331 ), #322, .F. ) ;
#222 = FACE_OUTER_BOUND ( 'NONE', #154, .T. ) ;
#223 = ADVANCED_FACE ( 'NONE', ( #290 ), #174, .F. ) ;
#224 = PRESENTATION_LAYER_ASSIGNMENT (  '', '', ( #280 ) ) ;
#225 = CARTESIAN_POINT ( 'NONE',  ( 0.000000000000000000, 0.3750000000000000555, 0.000000000000000000 ) ) ;
#226 = PRESENTATION_LAYER_ASSIGNMENT (  '', '', ( #233 ) ) ;
#227 = ADVANCED_FACE ( 'NONE', ( #293 ), #205, .T. ) ;
#228 = SURFACE_STYLE_FILL_AREA ( #285 ) ;
#229 =( GEOMETRIC_REPRESENTATION_CONTEXT ( 3 ) GLOBAL_UNCERTAINTY_ASSIGNED_CONTEXT ( ( #78 ) ) GLOBAL_UNIT_ASSIGNED_CONTEXT ( ( #230, #94, #43 ) ) REPRESENTATION_CONTEXT ( 'NONE', 'WORKASPACE' ) );
#230 =( CONVERSION_BASED_UNIT ( 'INCH', #359 ) LENGTH_UNIT ( ) NAMED_UNIT ( #16 ) );
#231 = DIRECTION ( 'NONE',  ( -1.224646799147352961E-16, 1.000000000000000000, -0.000000000000000000 ) ) ;
#232 = DIRECTION ( 'NONE',  ( -1.000000000000000000, 0.000000000000000000, 0.000000000000000000 ) ) ;
#233 = STYLED_ITEM ( 'NONE', ( #6 ), #163 ) ;
#234 = COLOUR_RGB ( '',1.000000000000000000, 0.000000000000000000, 0.000000000000000000 ) ;
#235 = ORIENTED_EDGE ( 'NONE', *, *, #315, .F. ) ;
#236 = CARTESIAN_POINT ( 'NONE',  ( 1.377727649040771896E-16, 0.3749999999999999445, 0.000000000000000000 ) ) ;
#237 = DIRECTION ( 'NONE',  ( -1.224646799147352961E-16, 1.000000000000000000, -0.000000000000000000 ) ) ;
#238 = VERTEX_POINT ( 'NONE', #310 ) ;
#239 = CARTESIAN_POINT ( 'NONE',  ( -6.123233995736766036E-17, 2.000000000000000000, 0.000000000000000000 ) ) ;
#240 = CIRCLE ( 'NONE', #89, 0.06250000000000005551 ) ;
#241 = EDGE_CURVE ( 'NONE', #248, #39, #272, .T. ) ;
#242 = CARTESIAN_POINT ( 'NONE',  ( 0.06250000000000002776, 0.06250000000000005551, 0.000000000000000000 ) ) ;
#243 = CARTESIAN_POINT ( 'NONE',  ( 0.06249999999999995837, 2.000000000000000000, 7.654042494670954463E-18 ) ) ;
#244 = APPLICATION_PROTOCOL_DEFINITION ( 'draft international standard', 'automotive_design', 1998, #32 ) ;
#245 = VERTEX_POINT ( 'NONE', #275 ) ;
#246 = PRODUCT_CONTEXT ( 'NONE', #10, 'mechanical' ) ;
#247 = CARTESIAN_POINT ( 'NONE',  ( 0.000000000000000000, 0.000000000000000000, -0.06250000000000000000 ) ) ;
#248 = VERTEX_POINT ( 'NONE', #343 ) ;
#249 =( GEOMETRIC_REPRESENTATION_CONTEXT ( 3 ) GLOBAL_UNCERTAINTY_ASSIGNED_CONTEXT ( ( #216 ) ) GLOBAL_UNIT_ASSIGNED_CONTEXT ( ( #193, #65, #118 ) ) REPRESENTATION_CONTEXT ( 'NONE', 'WORKASPACE' ) );
#250 = DIRECTION ( 'NONE',  ( 0.000000000000000000, 0.000000000000000000, -1.000000000000000000 ) ) ;
#251 = EDGE_CURVE ( 'NONE', #245, #24, #185, .T. ) ;
#252 = DIRECTION ( 'NONE',  ( -1.000000000000000000, 0.000000000000000000, 0.000000000000000000 ) ) ;
#253 =( CONVERSION_BASED_UNIT ( 'INCH', #164 ) LENGTH_UNIT ( ) NAMED_UNIT ( #173 ) );
#254 = SURFACE_STYLE_USAGE ( .BOTH. , #317 ) ;
#255 = AXIS2_PLACEMENT_3D ( 'NONE', #113, #115, #168 ) ;
#256 = SURFACE_SIDE_STYLE ('',( #86 ) ) ;
#257 =( LENGTH_UNIT ( ) NAMED_UNIT ( * ) SI_UNIT ( $, .METRE. ) );
#258 = PRESENTATION_LAYER_ASSIGNMENT (  '', '', ( #20 ) ) ;
#259 = DIRECTION ( 'NONE',  ( -0.000000000000000000, -1.000000000000000000, -0.000000000000000000 ) ) ;
#260 = EDGE_CURVE ( 'NONE', #24, #362, #73, .T. ) ;
#261 = PRESENTATION_STYLE_ASSIGNMENT (( #146 ) ) ;
#262 =( NAMED_UNIT ( * ) SI_UNIT ( $, .STERADIAN. ) SOLID_ANGLE_UNIT ( ) );
#263 = COLOUR_RGB ( '',1.000000000000000000, 0.000000000000000000, 0.000000000000000000 ) ;
#264 = AXIS2_PLACEMENT_3D ( 'NONE', #225, #283, #112 ) ;
#265 = DIMENSIONAL_EXPONENTS ( 1.000000000000000000, 0.000000000000000000, 0.000000000000000000, 0.000000000000000000, 0.000000000000000000, 0.000000000000000000, 0.000000000000000000 ) ;
#266 = EDGE_CURVE ( 'NONE', #131, #84, #156, .T. ) ;
#267 = CARTESIAN_POINT ( 'NONE',  ( 1.377727649040771896E-16, 0.3749999999999999445, 0.000000000000000000 ) ) ;
#268 = EDGE_CURVE ( 'NONE', #296, #39, #206, .T. ) ;
#269 = ORIENTED_EDGE ( 'NONE', *, *, #119, .T. ) ;
#270 = DIRECTION ( 'NONE',  ( -1.224646799147352961E-16, 1.000000000000000000, -0.000000000000000000 ) ) ;
#271 = CARTESIAN_POINT ( 'NONE',  ( -6.123233995736766036E-17, 2.000000000000000000, 0.000000000000000000 ) ) ;
#272 = CIRCLE ( 'NONE', #58, 0.06250000000000002776 ) ;
#273 = DIRECTION ( 'NONE',  ( 1.000000000000000000, 0.000000000000000000, -1.224646799147353207E-16 ) ) ;
#274 = DIRECTION ( 'NONE',  ( -1.224646799147352961E-16, 1.000000000000000000, -0.000000000000000000 ) ) ;
#275 = CARTESIAN_POINT ( 'NONE',  ( 0.06249999999999995837, 0.3749999999999999445, 7.654042494670954463E-18 ) ) ;
#276 = ORIENTED_EDGE ( 'NONE', *, *, #125, .F. ) ;
#277 = SHAPE_DEFINITION_REPRESENTATION ( #360, #71 ) ;
#278 =( NAMED_UNIT ( * ) SI_UNIT ( $, .STERADIAN. ) SOLID_ANGLE_UNIT ( ) );
#279 = LINE ( 'NONE', #28, #101 ) ;
#280 = STYLED_ITEM ( 'NONE', ( #170 ), #147 ) ;
#281 =( GEOMETRIC_REPRESENTATION_CONTEXT ( 3 ) GLOBAL_UNCERTAINTY_ASSIGNED_CONTEXT ( ( #152 ) ) GLOBAL_UNIT_ASSIGNED_CONTEXT ( ( #178, #355, #262 ) ) REPRESENTATION_CONTEXT ( 'NONE', 'WORKASPACE' ) );
#282 =( CONVERSION_BASED_UNIT ( 'INCH', #142 ) LENGTH_UNIT ( ) NAMED_UNIT ( #123 ) );
#283 = DIRECTION ( 'NONE',  ( 0.000000000000000000, 1.000000000000000000, 0.000000000000000000 ) ) ;
#284 =( LENGTH_UNIT ( ) NAMED_UNIT ( * ) SI_UNIT ( $, .METRE. ) );
#285 = FILL_AREA_STYLE ('',( #197 ) ) ;
#286 = CIRCLE ( 'NONE', #194, 0.06249999999999995143 ) ;
#287 = MECHANICAL_DESIGN_GEOMETRIC_PRESENTATION_REPRESENTATION (  '', ( #20 ), #196 ) ;
#288 =( NAMED_UNIT ( * ) PLANE_ANGLE_UNIT ( ) SI_UNIT ( $, .RADIAN. ) );
#289 = DIRECTION ( 'NONE',  ( 0.000000000000000000, 0.000000000000000000, -1.000000000000000000 ) ) ;
#290 = FACE_OUTER_BOUND ( 'NONE', #98, .T. ) ;
#291 = AXIS2_PLACEMENT_3D ( 'NONE', #371, #210, #46 ) ;
#292 = STYLED_ITEM ( 'NONE', ( #15 ), #320 ) ;
#293 = FACE_OUTER_BOUND ( 'NONE', #134, .T. ) ;
#294 = SURFACE_SIDE_STYLE ('',( #177 ) ) ;
#295 = SURFACE_SIDE_STYLE ('',( #297 ) ) ;
#296 = VERTEX_POINT ( 'NONE', #242 ) ;
#297 = SURFACE_STYLE_FILL_AREA ( #180 ) ;
#298 = CLOSED_SHELL ( 'NONE', ( #147, #227, #320, #203, #340 ) ) ;
#299 = CIRCLE ( 'NONE', #212, 0.06249999999999981265 ) ;
#300 =( GEOMETRIC_REPRESENTATION_CONTEXT ( 3 ) GLOBAL_UNCERTAINTY_ASSIGNED_CONTEXT ( ( #143 ) ) GLOBAL_UNIT_ASSIGNED_CONTEXT ( ( #62, #110, #278 ) ) REPRESENTATION_CONTEXT ( 'NONE', 'WORKASPACE' ) );
#301 = CARTESIAN_POINT ( 'NONE',  ( 0.06249999999999985428, 2.000000000000000000, 7.654042494670946760E-18 ) ) ;
#302 = EDGE_LOOP ( 'NONE', ( #77, #368, #330, #213, #336 ) ) ;
#303 =( NAMED_UNIT ( * ) SI_UNIT ( $, .STERADIAN. ) SOLID_ANGLE_UNIT ( ) );
#304 = LINE ( 'NONE', #127, #106 ) ;
#305 = CIRCLE ( 'NONE', #187, 0.06250000000000005551 ) ;
#306 = DIRECTION ( 'NONE',  ( -0.000000000000000000, -1.000000000000000000, -0.000000000000000000 ) ) ;
#307 = UNCERTAINTY_MEASURE_WITH_UNIT (LENGTH_MEASURE( 1.000000000000000082E-05 ), #153, 'distance_accuracy_value', 'NONE');
#308 = DIRECTION ( 'NONE',  ( -0.000000000000000000, -1.000000000000000000, -0.000000000000000000 ) ) ;
#309 = DIRECTION ( 'NONE',  ( 1.000000000000000000, 0.000000000000000000, 0.000000000000000000 ) ) ;
#310 = CARTESIAN_POINT ( 'NONE',  ( 7.654042494670954463E-18, 0.3750000000000000555, 0.06249999999999995143 ) ) ;
#311 = EDGE_LOOP ( 'NONE', ( #323, #66 ) ) ;
#312 = SURFACE_STYLE_FILL_AREA ( #316 ) ;
#313 = CIRCLE ( 'NONE', #291, 0.06250000000000005551 ) ;
#314 = PRESENTATION_LAYER_ASSIGNMENT (  '', '', ( #68 ) ) ;
#315 = EDGE_CURVE ( 'NONE', #245, #132, #299, .T. ) ;
#316 = FILL_AREA_STYLE ('',( #37 ) ) ;
#317 = SURFACE_SIDE_STYLE ('',( #88 ) ) ;
#318 = DIRECTION ( 'NONE',  ( 1.000000000000000000, 0.000000000000000000, 0.000000000000000000 ) ) ;
#319 = SURFACE_STYLE_USAGE ( .BOTH. , #199 ) ;
#320 = ADVANCED_FACE ( 'NONE', ( #76 ), #339, .T. ) ;
#321 = DIMENSIONAL_EXPONENTS ( 1.000000000000000000, 0.000000000000000000, 0.000000000000000000, 0.000000000000000000, 0.000000000000000000, 0.000000000000000000, 0.000000000000000000 ) ;
#322 = PLANE ( 'NONE',  #155 ) ;
#323 = ORIENTED_EDGE ( 'NONE', *, *, #119, .F. ) ;
#324 = ADVANCED_FACE ( 'NONE', ( #222 ), #351, .T. ) ;
#325 = DIRECTION ( 'NONE',  ( -1.000000000000000000, -1.224646799147352961E-16, 0.000000000000000000 ) ) ;
#326 = ORIENTED_EDGE ( 'NONE', *, *, #47, .T. ) ;
#327 = AXIS2_PLACEMENT_3D ( 'NONE', #236, #231, #232 ) ;
#328 = FILL_AREA_STYLE_COLOUR ( '', #129 ) ;
#329 = CARTESIAN_POINT ( 'NONE',  ( 0.06249999999999995143, 2.000000000000000000, 0.000000000000000000 ) ) ;
#330 = ORIENTED_EDGE ( 'NONE', *, *, #266, .T. ) ;
#331 = FACE_OUTER_BOUND ( 'NONE', #70, .T. ) ;
#332 = CIRCLE ( 'NONE', #14, 0.06250000000000001388 ) ;
#333 =( GEOMETRIC_REPRESENTATION_CONTEXT ( 3 ) GLOBAL_UNCERTAINTY_ASSIGNED_CONTEXT ( ( #307 ) ) GLOBAL_UNIT_ASSIGNED_CONTEXT ( ( #153, #335, #303 ) ) REPRESENTATION_CONTEXT ( 'NONE', 'WORKASPACE' ) );
#334 = ORIENTED_EDGE ( 'NONE', *, *, #241, .F. ) ;
#335 =( NAMED_UNIT ( * ) PLANE_ANGLE_UNIT ( ) SI_UNIT ( $, .RADIAN. ) );
#336 = ORIENTED_EDGE ( 'NONE', *, *, #361, .F. ) ;
#337 = LENGTH_MEASURE_WITH_UNIT ( LENGTH_MEASURE( 0.02539999999999999897 ), #363 );
#338 = CARTESIAN_POINT ( 'NONE',  ( 0.000000000000000000, 0.3750000000000000555, 0.000000000000000000 ) ) ;
#339 = PLANE ( 'NONE',  #264 ) ;
#340 = ADVANCED_FACE ( 'NONE', ( #372 ), #1, .T. ) ;
#341 = DIRECTION ( 'NONE',  ( 0.000000000000000000, 0.000000000000000000, -1.000000000000000000 ) ) ;
#342 = AXIS2_PLACEMENT_3D ( 'NONE', #329, #67, #144 ) ;
#343 = CARTESIAN_POINT ( 'NONE',  ( -0.06250000000000005551, 0.06250000000000005551, 7.654042494670963708E-18 ) ) ;
#344 = PRODUCT_DEFINITION_CONTEXT ( 'detailed design', #32, 'design' ) ;
#345 = ORIENTED_EDGE ( 'NONE', *, *, #251, .F. ) ;
#346 = FILL_AREA_STYLE ('',( #169 ) ) ;
#347 = FILL_AREA_STYLE_COLOUR ( '', #263 ) ;
#348 = AXIS2_PLACEMENT_3D ( 'NONE', #107, #25, #130 ) ;
#349 = CARTESIAN_POINT ( 'NONE',  ( -6.123233995736766036E-17, 2.000000000000000000, 0.000000000000000000 ) ) ;
#350 = CARTESIAN_POINT ( 'NONE',  ( 0.000000000000000000, 0.3750000000000000555, 0.000000000000000000 ) ) ;
#351 = CYLINDRICAL_SURFACE ( 'NONE', #218, 0.06249999999999991673 ) ;
#352 =( LENGTH_UNIT ( ) NAMED_UNIT ( * ) SI_UNIT ( $, .METRE. ) );
#353 = SURFACE_SIDE_STYLE ('',( #228 ) ) ;
#354 = CIRCLE ( 'NONE', #181, 0.06249999999999995143 ) ;
#355 =( NAMED_UNIT ( * ) PLANE_ANGLE_UNIT ( ) SI_UNIT ( $, .RADIAN. ) );
#356 = DIMENSIONAL_EXPONENTS ( 1.000000000000000000, 0.000000000000000000, 0.000000000000000000, 0.000000000000000000, 0.000000000000000000, 0.000000000000000000, 0.000000000000000000 ) ;
#357 = CIRCLE ( 'NONE', #128, 0.06250000000000005551 ) ;
#358 = PRESENTATION_LAYER_ASSIGNMENT (  '', '', ( #292 ) ) ;
#359 = LENGTH_MEASURE_WITH_UNIT ( LENGTH_MEASURE( 0.02539999999999999897 ), #352 );
#360 = PRODUCT_DEFINITION_SHAPE ( 'NONE', 'NONE',  #202 ) ;
#361 = EDGE_CURVE ( 'NONE', #105, #248, #240, .T. ) ;
#362 = VERTEX_POINT ( 'NONE', #29 ) ;
#363 =( LENGTH_UNIT ( ) NAMED_UNIT ( * ) SI_UNIT ( $, .METRE. ) );
#364 = ORIENTED_EDGE ( 'NONE', *, *, #208, .F. ) ;
#365 = ORIENTED_EDGE ( 'NONE', *, *, #159, .T. ) ;
#366 = DIRECTION ( 'NONE',  ( -1.000000000000000000, 0.000000000000000000, 0.000000000000000000 ) ) ;
#367 = DIRECTION ( 'NONE',  ( -1.224646799147352961E-16, 1.000000000000000000, -0.000000000000000000 ) ) ;
#368 = ORIENTED_EDGE ( 'NONE', *, *, #166, .T. ) ;
#369 = STYLED_ITEM ( 'NONE', ( #92 ), #157 ) ;
#370 = ORIENTED_EDGE ( 'NONE', *, *, #159, .F. ) ;
#371 = CARTESIAN_POINT ( 'NONE',  ( 0.000000000000000000, 0.06250000000000005551, 0.000000000000000000 ) ) ;
#372 = FACE_OUTER_BOUND ( 'NONE', #220, .T. ) ;
#373 = CARTESIAN_POINT ( 'NONE',  ( -0.06249999999999967387, 0.3749999999999999445, 0.000000000000000000 ) ) ;
ENDSEC;
END-ISO-10303-21;
