ISO-10303-21;
HEADER;
FILE_DESCRIPTION (( 'STEP AP214' ),
    '1' );
FILE_NAME ('03450.STEP',
    '2023-06-22T15:19:01',
    ( '' ),
    ( '' ),
    'SwSTEP 2.0',
    'SolidWorks 2023',
    '' );
FILE_SCHEMA (( 'AUTOMOTIVE_DESIGN' ));
ENDSEC;

DATA;
#1 = PLANE ( 'NONE',  #300 ) ;
#2 = DIRECTION ( 'NONE',  ( -0.000000000000000000, -1.000000000000000000, -0.000000000000000000 ) ) ;
#3 = AXIS2_PLACEMENT_3D ( 'NONE', #183, #92, #265 ) ;
#4 = AXIS2_PLACEMENT_3D ( 'NONE', #202, #304, #126 ) ;
#5 = CARTESIAN_POINT ( 'NONE',  ( 0.2500000000000000000, 1.000000000000000000, 3.061616997868383634E-17 ) ) ;
#6 = DIRECTION ( 'NONE',  ( 3.061616997868386099E-17, -1.000000000000000000, 0.000000000000000000 ) ) ;
#7 =( LENGTH_UNIT ( ) NAMED_UNIT ( * ) SI_UNIT ( $, .METRE. ) );
#8 = EDGE_CURVE ( 'NONE', #119, #243, #174, .T. ) ;
#9 = PRODUCT_CONTEXT ( 'NONE', #292, 'mechanical' ) ;
#10 = COLOUR_RGB ( '',1.000000000000000000, 0.000000000000000000, 0.000000000000000000 ) ;
#11 = DIRECTION ( 'NONE',  ( -1.000000000000000000, 0.000000000000000000, 0.000000000000000000 ) ) ;
#12 = CARTESIAN_POINT ( 'NONE',  ( 0.2500000000000000000, 3.000000000000000444, 3.061616997868383634E-17 ) ) ;
#13 = SURFACE_STYLE_FILL_AREA ( #87 ) ;
#14 = MECHANICAL_DESIGN_GEOMETRIC_PRESENTATION_REPRESENTATION (  '', ( #94 ), #181 ) ;
#15 = COLOUR_RGB ( '',1.000000000000000000, 0.000000000000000000, 0.000000000000000000 ) ;
#16 =( NAMED_UNIT ( * ) SI_UNIT ( $, .STERADIAN. ) SOLID_ANGLE_UNIT ( ) );
#17 = ORIENTED_EDGE ( 'NONE', *, *, #8, .F. ) ;
#18 =( NAMED_UNIT ( * ) SI_UNIT ( $, .STERADIAN. ) SOLID_ANGLE_UNIT ( ) );
#19 = LENGTH_MEASURE_WITH_UNIT ( LENGTH_MEASURE( 0.02539999999999999897 ), #177 );
#20 = CIRCLE ( 'NONE', #89, 0.2500000000000000000 ) ;
#21 = PRESENTATION_LAYER_ASSIGNMENT (  '', '', ( #137 ) ) ;
#22 = FILL_AREA_STYLE ('',( #210 ) ) ;
#23 = DIMENSIONAL_EXPONENTS ( 1.000000000000000000, 0.000000000000000000, 0.000000000000000000, 0.000000000000000000, 0.000000000000000000, 0.000000000000000000, 0.000000000000000000 ) ;
#24 = EDGE_LOOP ( 'NONE', ( #232, #218 ) ) ;
#25 = VECTOR ( 'NONE', #201, 39.37007874015748143 ) ;
#26 = CIRCLE ( 'NONE', #83, 0.2500000000000000000 ) ;
#27 = DIRECTION ( 'NONE',  ( 0.000000000000000000, 0.000000000000000000, -1.000000000000000000 ) ) ;
#28 = EDGE_CURVE ( 'NONE', #134, #207, #220, .T. ) ;
#29 = DIRECTION ( 'NONE',  ( -0.000000000000000000, -1.000000000000000000, -0.000000000000000000 ) ) ;
#30 = CARTESIAN_POINT ( 'NONE',  ( 3.061616997868383018E-17, 0.000000000000000000, 0.2500000000000000000 ) ) ;
#31 = EDGE_LOOP ( 'NONE', ( #50, #167, #17, #267 ) ) ;
#32 = UNCERTAINTY_MEASURE_WITH_UNIT (LENGTH_MEASURE( 1.000000000000000082E-05 ), #290, 'distance_accuracy_value', 'NONE');
#33 = STYLED_ITEM ( 'NONE', ( #76 ), #228 ) ;
#34 = ADVANCED_FACE ( 'NONE', ( #214 ), #99, .T. ) ;
#35 = FILL_AREA_STYLE_COLOUR ( '', #165 ) ;
#36 =( CONVERSION_BASED_UNIT ( 'INCH', #38 ) LENGTH_UNIT ( ) NAMED_UNIT ( #211 ) );
#37 =( LENGTH_UNIT ( ) NAMED_UNIT ( * ) SI_UNIT ( $, .METRE. ) );
#38 = LENGTH_MEASURE_WITH_UNIT ( LENGTH_MEASURE( 0.02539999999999999897 ), #198 );
#39 = SURFACE_STYLE_USAGE ( .BOTH. , #249 ) ;
#40 = FACE_OUTER_BOUND ( 'NONE', #283, .T. ) ;
#41 = CARTESIAN_POINT ( 'NONE',  ( 7.582401355855259480E-33, 1.000000000000000000, 0.000000000000000000 ) ) ;
#42 = AXIS2_PLACEMENT_3D ( 'NONE', #192, #105, #295 ) ;
#43 = MECHANICAL_DESIGN_GEOMETRIC_PRESENTATION_REPRESENTATION (  '', ( #137 ), #170 ) ;
#44 = UNCERTAINTY_MEASURE_WITH_UNIT (LENGTH_MEASURE( 1.000000000000000082E-05 ), #258, 'distance_accuracy_value', 'NONE');
#45 = PRODUCT_RELATED_PRODUCT_CATEGORY ( 'part', '', ( #135 ) ) ;
#46 = SURFACE_STYLE_USAGE ( .BOTH. , #70 ) ;
#47 = CARTESIAN_POINT ( 'NONE',  ( -6.123233995736772199E-17, 3.000000000000000444, 0.000000000000000000 ) ) ;
#48 =( LENGTH_UNIT ( ) NAMED_UNIT ( * ) SI_UNIT ( $, .METRE. ) );
#49 = MECHANICAL_DESIGN_GEOMETRIC_PRESENTATION_REPRESENTATION (  '', ( #33 ), #215 ) ;
#50 = ORIENTED_EDGE ( 'NONE', *, *, #77, .T. ) ;
#51 = VECTOR ( 'NONE', #93, 39.37007874015748143 ) ;
#52 = ORIENTED_EDGE ( 'NONE', *, *, #188, .F. ) ;
#53 = DIMENSIONAL_EXPONENTS ( 1.000000000000000000, 0.000000000000000000, 0.000000000000000000, 0.000000000000000000, 0.000000000000000000, 0.000000000000000000, 0.000000000000000000 ) ;
#54 = CARTESIAN_POINT ( 'NONE',  ( 0.000000000000000000, 1.000000000000000000, 0.000000000000000000 ) ) ;
#55 = AXIS2_PLACEMENT_3D ( 'NONE', #223, #247, #98 ) ;
#56 = MECHANICAL_DESIGN_GEOMETRIC_PRESENTATION_REPRESENTATION (  '', ( #288 ), #125 ) ;
#57 = CARTESIAN_POINT ( 'NONE',  ( 0.000000000000000000, 1.000000000000000000, -0.2500000000000000000 ) ) ;
#58 = PRODUCT_DEFINITION_SHAPE ( 'NONE', 'NONE',  #279 ) ;
#59 = PRODUCT_DEFINITION_FORMATION_WITH_SPECIFIED_SOURCE ( 'ANY', '', #135, .NOT_KNOWN. ) ;
#60 = VERTEX_POINT ( 'NONE', #5 ) ;
#61 = PRESENTATION_LAYER_ASSIGNMENT (  '', '', ( #141 ) ) ;
#62 = ORIENTED_EDGE ( 'NONE', *, *, #178, .F. ) ;
#63 = UNCERTAINTY_MEASURE_WITH_UNIT (LENGTH_MEASURE( 1.000000000000000082E-05 ), #36, 'distance_accuracy_value', 'NONE');
#64 = ORIENTED_EDGE ( 'NONE', *, *, #90, .T. ) ;
#65 = PRESENTATION_LAYER_ASSIGNMENT (  '', '', ( #94 ) ) ;
#66 = AXIS2_PLACEMENT_3D ( 'NONE', #69, #149, #252 ) ;
#67 = APPLICATION_PROTOCOL_DEFINITION ( 'draft international standard', 'automotive_design', 1998, #292 ) ;
#68 =( LENGTH_UNIT ( ) NAMED_UNIT ( * ) SI_UNIT ( $, .METRE. ) );
#69 = CARTESIAN_POINT ( 'NONE',  ( 0.000000000000000000, 1.000000000000000000, 0.000000000000000000 ) ) ;
#70 = SURFACE_SIDE_STYLE ('',( #13 ) ) ;
#71 = EDGE_LOOP ( 'NONE', ( #73, #261 ) ) ;
#72 = CARTESIAN_POINT ( 'NONE',  ( 0.000000000000000000, 0.000000000000000000, -0.2500000000000000000 ) ) ;
#73 = ORIENTED_EDGE ( 'NONE', *, *, #8, .T. ) ;
#74 = FACE_OUTER_BOUND ( 'NONE', #244, .T. ) ;
#75 = SURFACE_SIDE_STYLE ('',( #161 ) ) ;
#76 = PRESENTATION_STYLE_ASSIGNMENT (( #186 ) ) ;
#77 = EDGE_CURVE ( 'NONE', #114, #60, #26, .T. ) ;
#78 = CARTESIAN_POINT ( 'NONE',  ( 0.000000000000000000, 0.000000000000000000, 0.000000000000000000 ) ) ;
#79 = AXIS2_PLACEMENT_3D ( 'NONE', #136, #101, #146 ) ;
#80 = SURFACE_STYLE_USAGE ( .BOTH. , #122 ) ;
#81 = MANIFOLD_SOLID_BREP ( 'Revolve - Tool Body (Straight Shanked)', #191 ) ;
#82 = CARTESIAN_POINT ( 'NONE',  ( 0.000000000000000000, 0.000000000000000000, 0.000000000000000000 ) ) ;
#83 = AXIS2_PLACEMENT_3D ( 'NONE', #293, #144, #11 ) ;
#84 = LENGTH_MEASURE_WITH_UNIT ( LENGTH_MEASURE( 0.02539999999999999897 ), #68 );
#85 = DIRECTION ( 'NONE',  ( -0.000000000000000000, -1.000000000000000000, -0.000000000000000000 ) ) ;
#86 = FACE_OUTER_BOUND ( 'NONE', #24, .T. ) ;
#87 = FILL_AREA_STYLE ('',( #224 ) ) ;
#88 = DIRECTION ( 'NONE',  ( 0.000000000000000000, 0.000000000000000000, -1.000000000000000000 ) ) ;
#89 = AXIS2_PLACEMENT_3D ( 'NONE', #41, #152, #256 ) ;
#90 = EDGE_CURVE ( 'NONE', #207, #134, #147, .T. ) ;
#91 = EDGE_LOOP ( 'NONE', ( #64, #236, #254, #281 ) ) ;
#92 = DIRECTION ( 'NONE',  ( -3.061616997868386099E-17, 1.000000000000000000, -0.000000000000000000 ) ) ;
#93 = DIRECTION ( 'NONE',  ( -0.000000000000000000, -1.000000000000000000, -0.000000000000000000 ) ) ;
#94 = STYLED_ITEM ( 'NONE', ( #127 ), #81 ) ;
#95 = FACE_OUTER_BOUND ( 'NONE', #71, .T. ) ;
#96 = SURFACE_STYLE_FILL_AREA ( #219 ) ;
#97 = FACE_OUTER_BOUND ( 'NONE', #131, .T. ) ;
#98 = DIRECTION ( 'NONE',  ( -1.000000000000000000, 0.000000000000000000, 0.000000000000000000 ) ) ;
#99 = CYLINDRICAL_SURFACE ( 'NONE', #79, 0.2500000000000000555 ) ;
#100 = COLOUR_RGB ( '',0.7921568627450980005, 0.8196078431372548767, 0.9333333333333333481 ) ;
#101 = DIRECTION ( 'NONE',  ( -3.061616997868386099E-17, 1.000000000000000000, -0.000000000000000000 ) ) ;
#102 = UNCERTAINTY_MEASURE_WITH_UNIT (LENGTH_MEASURE( 1.000000000000000082E-05 ), #270, 'distance_accuracy_value', 'NONE');
#103 = SHAPE_DEFINITION_REPRESENTATION ( #58, #245 ) ;
#104 = FILL_AREA_STYLE_COLOUR ( '', #15 ) ;
#105 = DIRECTION ( 'NONE',  ( -0.000000000000000000, -1.000000000000000000, -0.000000000000000000 ) ) ;
#106 = EDGE_CURVE ( 'NONE', #182, #179, #111, .T. ) ;
#107 = APPLICATION_PROTOCOL_DEFINITION ( 'draft international standard', 'automotive_design', 1998, #272 ) ;
#108 = CARTESIAN_POINT ( 'NONE',  ( -0.2500000000000001110, 3.000000000000000444, 0.000000000000000000 ) ) ;
#109 = PLANE ( 'NONE',  #4 ) ;
#110 = ORIENTED_EDGE ( 'NONE', *, *, #309, .F. ) ;
#111 = CIRCLE ( 'NONE', #42, 0.2500000000000000000 ) ;
#112 = LENGTH_MEASURE_WITH_UNIT ( LENGTH_MEASURE( 0.02539999999999999897 ), #48 );
#113 = SURFACE_STYLE_USAGE ( .BOTH. , #308 ) ;
#114 = VERTEX_POINT ( 'NONE', #195 ) ;
#115 = EDGE_CURVE ( 'NONE', #179, #182, #248, .T. ) ;
#116 = DIRECTION ( 'NONE',  ( -1.000000000000000000, 0.000000000000000000, 0.000000000000000000 ) ) ;
#117 = DIRECTION ( 'NONE',  ( 0.000000000000000000, 0.000000000000000000, -1.000000000000000000 ) ) ;
#118 = CYLINDRICAL_SURFACE ( 'NONE', #242, 0.2500000000000000000 ) ;
#119 = VERTEX_POINT ( 'NONE', #108 ) ;
#120 =( GEOMETRIC_REPRESENTATION_CONTEXT ( 3 ) GLOBAL_UNCERTAINTY_ASSIGNED_CONTEXT ( ( #150 ) ) GLOBAL_UNIT_ASSIGNED_CONTEXT ( ( #153, #234, #298 ) ) REPRESENTATION_CONTEXT ( 'NONE', 'WORKASPACE' ) );
#121 = FILL_AREA_STYLE_COLOUR ( '', #209 ) ;
#122 = SURFACE_SIDE_STYLE ('',( #96 ) ) ;
#123 =( NAMED_UNIT ( * ) SI_UNIT ( $, .STERADIAN. ) SOLID_ANGLE_UNIT ( ) );
#124 = DIRECTION ( 'NONE',  ( 0.000000000000000000, 0.000000000000000000, -1.000000000000000000 ) ) ;
#125 =( GEOMETRIC_REPRESENTATION_CONTEXT ( 3 ) GLOBAL_UNCERTAINTY_ASSIGNED_CONTEXT ( ( #44 ) ) GLOBAL_UNIT_ASSIGNED_CONTEXT ( ( #258, #156, #18 ) ) REPRESENTATION_CONTEXT ( 'NONE', 'WORKASPACE' ) );
#126 = DIRECTION ( 'NONE',  ( -1.000000000000000000, -3.061616997868386099E-17, 0.000000000000000000 ) ) ;
#127 = PRESENTATION_STYLE_ASSIGNMENT (( #80 ) ) ;
#128 = LINE ( 'NONE', #199, #266 ) ;
#129 = DIRECTION ( 'NONE',  ( -3.061616997868386099E-17, 1.000000000000000000, -0.000000000000000000 ) ) ;
#130 = DIRECTION ( 'NONE',  ( -3.061616997868386099E-17, 1.000000000000000000, -0.000000000000000000 ) ) ;
#131 = EDGE_LOOP ( 'NONE', ( #110, #271, #205, #189 ) ) ;
#132 = FILL_AREA_STYLE_COLOUR ( '', #100 ) ;
#133 = PRESENTATION_LAYER_ASSIGNMENT (  '', '', ( #288 ) ) ;
#134 = VERTEX_POINT ( 'NONE', #278 ) ;
#135 = PRODUCT ( '03450', '03450', '', ( #9 ) ) ;
#136 = CARTESIAN_POINT ( 'NONE',  ( -6.123233995736772199E-17, 3.000000000000000444, 0.000000000000000000 ) ) ;
#137 = STYLED_ITEM ( 'NONE', ( #196 ), #260 ) ;
#138 = CARTESIAN_POINT ( 'NONE',  ( 0.000000000000000000, 0.000000000000000000, -0.2500000000000000000 ) ) ;
#139 = FACE_OUTER_BOUND ( 'NONE', #190, .T. ) ;
#140 = ORIENTED_EDGE ( 'NONE', *, *, #115, .T. ) ;
#141 = STYLED_ITEM ( 'NONE', ( #273 ), #259 ) ;
#142 = VECTOR ( 'NONE', #129, 39.37007874015748143 ) ;
#143 =( NAMED_UNIT ( * ) PLANE_ANGLE_UNIT ( ) SI_UNIT ( $, .RADIAN. ) );
#144 = DIRECTION ( 'NONE',  ( -3.061616997868386099E-17, 1.000000000000000000, -0.000000000000000000 ) ) ;
#145 =( NAMED_UNIT ( * ) PLANE_ANGLE_UNIT ( ) SI_UNIT ( $, .RADIAN. ) );
#146 = DIRECTION ( 'NONE',  ( -1.000000000000000000, 0.000000000000000000, 0.000000000000000000 ) ) ;
#147 = CIRCLE ( 'NONE', #235, 0.2500000000000000000 ) ;
#148 = CYLINDRICAL_SURFACE ( 'NONE', #227, 0.2500000000000000000 ) ;
#149 = DIRECTION ( 'NONE',  ( 0.000000000000000000, 1.000000000000000000, 0.000000000000000000 ) ) ;
#150 = UNCERTAINTY_MEASURE_WITH_UNIT (LENGTH_MEASURE( 1.000000000000000082E-05 ), #153, 'distance_accuracy_value', 'NONE');
#151 = SURFACE_SIDE_STYLE ('',( #229 ) ) ;
#152 = DIRECTION ( 'NONE',  ( -3.061616997868386099E-17, 1.000000000000000000, -0.000000000000000000 ) ) ;
#153 =( CONVERSION_BASED_UNIT ( 'INCH', #19 ) LENGTH_UNIT ( ) NAMED_UNIT ( #23 ) );
#154 = CARTESIAN_POINT ( 'NONE',  ( 0.000000000000000000, 0.000000000000000000, 0.000000000000000000 ) ) ;
#155 = ORIENTED_EDGE ( 'NONE', *, *, #251, .T. ) ;
#156 =( NAMED_UNIT ( * ) PLANE_ANGLE_UNIT ( ) SI_UNIT ( $, .RADIAN. ) );
#157 = DIMENSIONAL_EXPONENTS ( 1.000000000000000000, 0.000000000000000000, 0.000000000000000000, 0.000000000000000000, 0.000000000000000000, 0.000000000000000000, 0.000000000000000000 ) ;
#158 = ORIENTED_EDGE ( 'NONE', *, *, #164, .T. ) ;
#159 = DIRECTION ( 'NONE',  ( 0.000000000000000000, -1.000000000000000000, -0.000000000000000000 ) ) ;
#160 = DIRECTION ( 'NONE',  ( 0.000000000000000000, 0.000000000000000000, -1.000000000000000000 ) ) ;
#161 = SURFACE_STYLE_FILL_AREA ( #286 ) ;
#162 = LENGTH_MEASURE_WITH_UNIT ( LENGTH_MEASURE( 0.02539999999999999897 ), #7 );
#163 = LINE ( 'NONE', #138, #25 ) ;
#164 = EDGE_CURVE ( 'NONE', #60, #114, #20, .T. ) ;
#165 = COLOUR_RGB ( '',0.7921568627450980005, 0.8196078431372548767, 0.9333333333333333481 ) ;
#166 = UNCERTAINTY_MEASURE_WITH_UNIT (LENGTH_MEASURE( 1.000000000000000082E-05 ), #289, 'distance_accuracy_value', 'NONE');
#167 = ORIENTED_EDGE ( 'NONE', *, *, #178, .T. ) ;
#168 =( NAMED_UNIT ( * ) SI_UNIT ( $, .STERADIAN. ) SOLID_ANGLE_UNIT ( ) );
#169 = PRESENTATION_LAYER_ASSIGNMENT (  '', '', ( #33 ) ) ;
#170 =( GEOMETRIC_REPRESENTATION_CONTEXT ( 3 ) GLOBAL_UNCERTAINTY_ASSIGNED_CONTEXT ( ( #221 ) ) GLOBAL_UNIT_ASSIGNED_CONTEXT ( ( #173, #274, #16 ) ) REPRESENTATION_CONTEXT ( 'NONE', 'WORKASPACE' ) );
#171 = CARTESIAN_POINT ( 'NONE',  ( 0.000000000000000000, 0.000000000000000000, 0.000000000000000000 ) ) ;
#172 = CARTESIAN_POINT ( 'NONE',  ( 0.000000000000000000, 0.000000000000000000, 0.000000000000000000 ) ) ;
#173 =( CONVERSION_BASED_UNIT ( 'INCH', #84 ) LENGTH_UNIT ( ) NAMED_UNIT ( #208 ) );
#174 = CIRCLE ( 'NONE', #55, 0.2500000000000000555 ) ;
#175 =( GEOMETRIC_REPRESENTATION_CONTEXT ( 3 ) GLOBAL_UNCERTAINTY_ASSIGNED_CONTEXT ( ( #63 ) ) GLOBAL_UNIT_ASSIGNED_CONTEXT ( ( #36, #302, #168 ) ) REPRESENTATION_CONTEXT ( 'NONE', 'WORKASPACE' ) );
#176 = AXIS2_PLACEMENT_3D ( 'NONE', #172, #277, #301 ) ;
#177 =( LENGTH_UNIT ( ) NAMED_UNIT ( * ) SI_UNIT ( $, .METRE. ) );
#178 = EDGE_CURVE ( 'NONE', #60, #243, #128, .T. ) ;
#179 = VERTEX_POINT ( 'NONE', #250 ) ;
#180 = MANIFOLD_SOLID_BREP ( 'Revolve - Cutting Edge', #307 ) ;
#181 =( GEOMETRIC_REPRESENTATION_CONTEXT ( 3 ) GLOBAL_UNCERTAINTY_ASSIGNED_CONTEXT ( ( #32 ) ) GLOBAL_UNIT_ASSIGNED_CONTEXT ( ( #290, #143, #123 ) ) REPRESENTATION_CONTEXT ( 'NONE', 'WORKASPACE' ) );
#182 = VERTEX_POINT ( 'NONE', #72 ) ;
#183 = CARTESIAN_POINT ( 'NONE',  ( -6.123233995736772199E-17, 3.000000000000000444, 0.000000000000000000 ) ) ;
#184 = STYLED_ITEM ( 'NONE', ( #225 ), #180 ) ;
#185 = LENGTH_MEASURE_WITH_UNIT ( LENGTH_MEASURE( 0.02539999999999999897 ), #263 );
#186 = SURFACE_STYLE_USAGE ( .BOTH. , #75 ) ;
#187 = LINE ( 'NONE', #30, #51 ) ;
#188 = EDGE_CURVE ( 'NONE', #243, #119, #238, .T. ) ;
#189 = ORIENTED_EDGE ( 'NONE', *, *, #115, .F. ) ;
#190 = EDGE_LOOP ( 'NONE', ( #62, #158, #155, #52 ) ) ;
#191 = CLOSED_SHELL ( 'NONE', ( #34, #299, #200, #216 ) ) ;
#192 = CARTESIAN_POINT ( 'NONE',  ( 0.000000000000000000, 0.000000000000000000, 0.000000000000000000 ) ) ;
#193 = ADVANCED_FACE ( 'NONE', ( #74 ), #282, .T. ) ;
#194 = FILL_AREA_STYLE ('',( #104 ) ) ;
#195 = CARTESIAN_POINT ( 'NONE',  ( -0.2500000000000000000, 1.000000000000000000, 0.000000000000000000 ) ) ;
#196 = PRESENTATION_STYLE_ASSIGNMENT (( #46 ) ) ;
#197 =( NAMED_UNIT ( * ) SI_UNIT ( $, .STERADIAN. ) SOLID_ANGLE_UNIT ( ) );
#198 =( LENGTH_UNIT ( ) NAMED_UNIT ( * ) SI_UNIT ( $, .METRE. ) );
#199 = CARTESIAN_POINT ( 'NONE',  ( 0.2499999999999999722, 3.000000000000000444, 3.061616997868383634E-17 ) ) ;
#200 = ADVANCED_FACE ( 'NONE', ( #139 ), #239, .T. ) ;
#201 = DIRECTION ( 'NONE',  ( -0.000000000000000000, -1.000000000000000000, -0.000000000000000000 ) ) ;
#202 = CARTESIAN_POINT ( 'NONE',  ( 1.171687330204578608E-34, 1.000000000000000000, 0.000000000000000000 ) ) ;
#203 = ORIENTED_EDGE ( 'NONE', *, *, #164, .F. ) ;
#204 = AXIS2_PLACEMENT_3D ( 'NONE', #47, #237, #116 ) ;
#205 = ORIENTED_EDGE ( 'NONE', *, *, #240, .T. ) ;
#206 = PRESENTATION_STYLE_ASSIGNMENT (( #113 ) ) ;
#207 = VERTEX_POINT ( 'NONE', #57 ) ;
#208 = DIMENSIONAL_EXPONENTS ( 1.000000000000000000, 0.000000000000000000, 0.000000000000000000, 0.000000000000000000, 0.000000000000000000, 0.000000000000000000, 0.000000000000000000 ) ;
#209 = COLOUR_RGB ( '',1.000000000000000000, 0.000000000000000000, 0.000000000000000000 ) ;
#210 = FILL_AREA_STYLE_COLOUR ( '', #10 ) ;
#211 = DIMENSIONAL_EXPONENTS ( 1.000000000000000000, 0.000000000000000000, 0.000000000000000000, 0.000000000000000000, 0.000000000000000000, 0.000000000000000000, 0.000000000000000000 ) ;
#212 = DIMENSIONAL_EXPONENTS ( 1.000000000000000000, 0.000000000000000000, 0.000000000000000000, 0.000000000000000000, 0.000000000000000000, 0.000000000000000000, 0.000000000000000000 ) ;
#213 =( NAMED_UNIT ( * ) SI_UNIT ( $, .STERADIAN. ) SOLID_ANGLE_UNIT ( ) );
#214 = FACE_OUTER_BOUND ( 'NONE', #31, .T. ) ;
#215 =( GEOMETRIC_REPRESENTATION_CONTEXT ( 3 ) GLOBAL_UNCERTAINTY_ASSIGNED_CONTEXT ( ( #166 ) ) GLOBAL_UNIT_ASSIGNED_CONTEXT ( ( #289, #217, #213 ) ) REPRESENTATION_CONTEXT ( 'NONE', 'WORKASPACE' ) );
#216 = ADVANCED_FACE ( 'NONE', ( #95 ), #1, .F. ) ;
#217 =( NAMED_UNIT ( * ) PLANE_ANGLE_UNIT ( ) SI_UNIT ( $, .RADIAN. ) );
#218 = ORIENTED_EDGE ( 'NONE', *, *, #28, .F. ) ;
#219 = FILL_AREA_STYLE ('',( #35 ) ) ;
#220 = CIRCLE ( 'NONE', #287, 0.2500000000000000000 ) ;
#221 = UNCERTAINTY_MEASURE_WITH_UNIT (LENGTH_MEASURE( 1.000000000000000082E-05 ), #173, 'distance_accuracy_value', 'NONE');
#222 = DIRECTION ( 'NONE',  ( 0.000000000000000000, 0.000000000000000000, -1.000000000000000000 ) ) ;
#223 = CARTESIAN_POINT ( 'NONE',  ( -6.123233995736772199E-17, 3.000000000000000444, 0.000000000000000000 ) ) ;
#224 = FILL_AREA_STYLE_COLOUR ( '', #268 ) ;
#225 = PRESENTATION_STYLE_ASSIGNMENT (( #39 ) ) ;
#226 = MECHANICAL_DESIGN_GEOMETRIC_PRESENTATION_REPRESENTATION (  '', ( #141 ), #175 ) ;
#227 = AXIS2_PLACEMENT_3D ( 'NONE', #171, #85, #222 ) ;
#228 = ADVANCED_FACE ( 'NONE', ( #97 ), #118, .T. ) ;
#229 = SURFACE_STYLE_FILL_AREA ( #194 ) ;
#230 = FACE_OUTER_BOUND ( 'NONE', #91, .T. ) ;
#231 = FILL_AREA_STYLE ('',( #132 ) ) ;
#232 = ORIENTED_EDGE ( 'NONE', *, *, #90, .F. ) ;
#233 = SURFACE_STYLE_FILL_AREA ( #22 ) ;
#234 =( NAMED_UNIT ( * ) PLANE_ANGLE_UNIT ( ) SI_UNIT ( $, .RADIAN. ) );
#235 = AXIS2_PLACEMENT_3D ( 'NONE', #269, #29, #124 ) ;
#236 = ORIENTED_EDGE ( 'NONE', *, *, #309, .T. ) ;
#237 = DIRECTION ( 'NONE',  ( -3.061616997868386099E-17, 1.000000000000000000, -0.000000000000000000 ) ) ;
#238 = CIRCLE ( 'NONE', #204, 0.2500000000000000555 ) ;
#239 = CYLINDRICAL_SURFACE ( 'NONE', #3, 0.2500000000000000555 ) ;
#240 = EDGE_CURVE ( 'NONE', #207, #182, #163, .T. ) ;
#241 = ORIENTED_EDGE ( 'NONE', *, *, #77, .F. ) ;
#242 = AXIS2_PLACEMENT_3D ( 'NONE', #78, #2, #117 ) ;
#243 = VERTEX_POINT ( 'NONE', #12 ) ;
#244 = EDGE_LOOP ( 'NONE', ( #257, #140 ) ) ;
#245 = ADVANCED_BREP_SHAPE_REPRESENTATION ( '03450', ( #180, #81, #176 ), #255 ) ;
#246 = LINE ( 'NONE', #280, #142 ) ;
#247 = DIRECTION ( 'NONE',  ( -3.061616997868386099E-17, 1.000000000000000000, -0.000000000000000000 ) ) ;
#248 = CIRCLE ( 'NONE', #253, 0.2500000000000000000 ) ;
#249 = SURFACE_SIDE_STYLE ('',( #275 ) ) ;
#250 = CARTESIAN_POINT ( 'NONE',  ( 3.061616997868383018E-17, 0.000000000000000000, 0.2500000000000000000 ) ) ;
#251 = EDGE_CURVE ( 'NONE', #114, #119, #246, .T. ) ;
#252 = DIRECTION ( 'NONE',  ( 0.000000000000000000, -0.000000000000000000, 1.000000000000000000 ) ) ;
#253 = AXIS2_PLACEMENT_3D ( 'NONE', #82, #305, #88 ) ;
#254 = ORIENTED_EDGE ( 'NONE', *, *, #106, .F. ) ;
#255 =( GEOMETRIC_REPRESENTATION_CONTEXT ( 3 ) GLOBAL_UNCERTAINTY_ASSIGNED_CONTEXT ( ( #102 ) ) GLOBAL_UNIT_ASSIGNED_CONTEXT ( ( #270, #145, #197 ) ) REPRESENTATION_CONTEXT ( 'NONE', 'WORKASPACE' ) );
#256 = DIRECTION ( 'NONE',  ( -1.000000000000000000, 0.000000000000000000, 0.000000000000000000 ) ) ;
#257 = ORIENTED_EDGE ( 'NONE', *, *, #106, .T. ) ;
#258 =( CONVERSION_BASED_UNIT ( 'INCH', #112 ) LENGTH_UNIT ( ) NAMED_UNIT ( #53 ) );
#259 = ADVANCED_FACE ( 'NONE', ( #230 ), #148, .T. ) ;
#260 = ADVANCED_FACE ( 'NONE', ( #86 ), #276, .T. ) ;
#261 = ORIENTED_EDGE ( 'NONE', *, *, #188, .T. ) ;
#262 = CARTESIAN_POINT ( 'NONE',  ( 0.2500000000000000000, 3.000000000000000444, 0.000000000000000000 ) ) ;
#263 =( LENGTH_UNIT ( ) NAMED_UNIT ( * ) SI_UNIT ( $, .METRE. ) );
#264 = DIRECTION ( 'NONE',  ( -0.000000000000000000, -1.000000000000000000, -0.000000000000000000 ) ) ;
#265 = DIRECTION ( 'NONE',  ( -1.000000000000000000, 0.000000000000000000, 0.000000000000000000 ) ) ;
#266 = VECTOR ( 'NONE', #130, 39.37007874015748143 ) ;
#267 = ORIENTED_EDGE ( 'NONE', *, *, #251, .F. ) ;
#268 = COLOUR_RGB ( '',1.000000000000000000, 0.000000000000000000, 0.000000000000000000 ) ;
#269 = CARTESIAN_POINT ( 'NONE',  ( 0.000000000000000000, 1.000000000000000000, 0.000000000000000000 ) ) ;
#270 =( CONVERSION_BASED_UNIT ( 'INCH', #297 ) LENGTH_UNIT ( ) NAMED_UNIT ( #285 ) );
#271 = ORIENTED_EDGE ( 'NONE', *, *, #28, .T. ) ;
#272 = APPLICATION_CONTEXT ( 'automotive_design' ) ;
#273 = PRESENTATION_STYLE_ASSIGNMENT (( #303 ) ) ;
#274 =( NAMED_UNIT ( * ) PLANE_ANGLE_UNIT ( ) SI_UNIT ( $, .RADIAN. ) );
#275 = SURFACE_STYLE_FILL_AREA ( #231 ) ;
#276 = PLANE ( 'NONE',  #66 ) ;
#277 = DIRECTION ( 'NONE',  ( 0.000000000000000000, 0.000000000000000000, 1.000000000000000000 ) ) ;
#278 = CARTESIAN_POINT ( 'NONE',  ( 3.061616997868383018E-17, 1.000000000000000000, 0.2500000000000000000 ) ) ;
#279 = PRODUCT_DEFINITION ( 'UNKNOWN', '', #59, #296 ) ;
#280 = CARTESIAN_POINT ( 'NONE',  ( -0.2500000000000001110, 3.000000000000000444, 0.000000000000000000 ) ) ;
#281 = ORIENTED_EDGE ( 'NONE', *, *, #240, .F. ) ;
#282 = PLANE ( 'NONE',  #306 ) ;
#283 = EDGE_LOOP ( 'NONE', ( #241, #203 ) ) ;
#284 = MECHANICAL_DESIGN_GEOMETRIC_PRESENTATION_REPRESENTATION (  '', ( #184 ), #120 ) ;
#285 = DIMENSIONAL_EXPONENTS ( 1.000000000000000000, 0.000000000000000000, 0.000000000000000000, 0.000000000000000000, 0.000000000000000000, 0.000000000000000000, 0.000000000000000000 ) ;
#286 = FILL_AREA_STYLE ('',( #121 ) ) ;
#287 = AXIS2_PLACEMENT_3D ( 'NONE', #54, #264, #27 ) ;
#288 = STYLED_ITEM ( 'NONE', ( #206 ), #193 ) ;
#289 =( CONVERSION_BASED_UNIT ( 'INCH', #185 ) LENGTH_UNIT ( ) NAMED_UNIT ( #157 ) );
#290 =( CONVERSION_BASED_UNIT ( 'INCH', #162 ) LENGTH_UNIT ( ) NAMED_UNIT ( #212 ) );
#291 = DIRECTION ( 'NONE',  ( 1.000000000000000000, 3.061616997868386099E-17, 0.000000000000000000 ) ) ;
#292 = APPLICATION_CONTEXT ( 'automotive_design' ) ;
#293 = CARTESIAN_POINT ( 'NONE',  ( 7.582401355855259480E-33, 1.000000000000000000, 0.000000000000000000 ) ) ;
#294 = PRESENTATION_LAYER_ASSIGNMENT (  '', '', ( #184 ) ) ;
#295 = DIRECTION ( 'NONE',  ( 0.000000000000000000, 0.000000000000000000, -1.000000000000000000 ) ) ;
#296 = PRODUCT_DEFINITION_CONTEXT ( 'detailed design', #272, 'design' ) ;
#297 = LENGTH_MEASURE_WITH_UNIT ( LENGTH_MEASURE( 0.02539999999999999897 ), #37 );
#298 =( NAMED_UNIT ( * ) SI_UNIT ( $, .STERADIAN. ) SOLID_ANGLE_UNIT ( ) );
#299 = ADVANCED_FACE ( 'NONE', ( #40 ), #109, .F. ) ;
#300 = AXIS2_PLACEMENT_3D ( 'NONE', #262, #6, #291 ) ;
#301 = DIRECTION ( 'NONE',  ( 1.000000000000000000, 0.000000000000000000, 0.000000000000000000 ) ) ;
#302 =( NAMED_UNIT ( * ) PLANE_ANGLE_UNIT ( ) SI_UNIT ( $, .RADIAN. ) );
#303 = SURFACE_STYLE_USAGE ( .BOTH. , #151 ) ;
#304 = DIRECTION ( 'NONE',  ( -3.061616997868386099E-17, 1.000000000000000000, 0.000000000000000000 ) ) ;
#305 = DIRECTION ( 'NONE',  ( -0.000000000000000000, -1.000000000000000000, -0.000000000000000000 ) ) ;
#306 = AXIS2_PLACEMENT_3D ( 'NONE', #154, #159, #160 ) ;
#307 = CLOSED_SHELL ( 'NONE', ( #259, #260, #228, #193 ) ) ;
#308 = SURFACE_SIDE_STYLE ('',( #233 ) ) ;
#309 = EDGE_CURVE ( 'NONE', #134, #179, #187, .T. ) ;
ENDSEC;
END-ISO-10303-21;
