ISO-10303-21;
HEADER;
FILE_DESCRIPTION (( 'STEP AP214' ),
    '1' );
FILE_NAME ('Micro_RME-014-2X.STEP',
    '2021-09-01T22:31:35',
    ( '' ),
    ( '' ),
    'SwSTEP 2.0',
    'SolidWorks 2020',
    '' );
FILE_SCHEMA (( 'AUTOMOTIVE_DESIGN' ));
ENDSEC;

DATA;
#1 = EDGE_CURVE ( 'NONE', #77, #119, #142, .T. ) ;
#2 = FILL_AREA_STYLE ('',( #75 ) ) ;
#3 = ORIENTED_EDGE ( 'NONE', *, *, #259, .T. ) ;
#4 = CONICAL_SURFACE ( 'NONE', #88, 0.04750000000000064587, 0.7853981633974466137 ) ;
#5 = ORIENTED_EDGE ( 'NONE', *, *, #42, .T. ) ;
#6 = SURFACE_STYLE_USAGE ( .BOTH. , #143 ) ;
#7 = EDGE_LOOP ( 'NONE', ( #30, #263 ) ) ;
#8 = ORIENTED_EDGE ( 'NONE', *, *, #159, .F. ) ;
#9 = CIRCLE ( 'NONE', #193, 0.06250000000000002776 ) ;
#10 = CARTESIAN_POINT ( 'NONE',  ( 0.0000000000000000000, 0.0000000000000000000, 1.500000000000000222 ) ) ;
#11 = CARTESIAN_POINT ( 'NONE',  ( 5.143516556418885177E-18, 0.0000000000000000000, 0.04200000000000000955 ) ) ;
#12 = ADVANCED_FACE ( 'NONE', ( #83 ), #211, .T. ) ;
#13 = ADVANCED_FACE ( 'NONE', ( #16 ), #202, .T. ) ;
#14 = CARTESIAN_POINT ( 'NONE',  ( -0.006992999999999998349, 0.0000000000000000000, 1.712791013287488164E-18 ) ) ;
#15 = DIRECTION ( 'NONE',  ( -1.224646799147353454E-16, -0.0000000000000000000, -1.000000000000000000 ) ) ;
#16 = FACE_OUTER_BOUND ( 'NONE', #25, .T. ) ;
#17 = DIRECTION ( 'NONE',  ( 0.0000000000000000000, 0.0000000000000000000, -1.000000000000000000 ) ) ;
#18 = DIRECTION ( 'NONE',  ( 1.000000000000000000, 0.0000000000000000000, 0.0000000000000000000 ) ) ;
#19 = AXIS2_PLACEMENT_3D ( 'NONE', #181, #227, #18 ) ;
#20 = CARTESIAN_POINT ( 'NONE',  ( 0.0000000000000000000, 0.0000000000000000000, 1.500000000000000222 ) ) ;
#21 = ADVANCED_FACE ( 'NONE', ( #62 ), #287, .T. ) ;
#22 = DIRECTION ( 'NONE',  ( -1.000000000000000000, 0.0000000000000000000, 1.224646799147353454E-16 ) ) ;
#23 = CARTESIAN_POINT ( 'NONE',  ( 1.048782016015437310E-34, 0.0000000000000000000, 8.563955066437440820E-19 ) ) ;
#24 = EDGE_CURVE ( 'NONE', #123, #280, #195, .T. ) ;
#25 = EDGE_LOOP ( 'NONE', ( #242, #192, #279, #72 ) ) ;
#26 = LENGTH_MEASURE_WITH_UNIT ( LENGTH_MEASURE( 0.02539999999999999897 ), #117 );
#27 = ORIENTED_EDGE ( 'NONE', *, *, #219, .F. ) ;
#28 = VERTEX_POINT ( 'NONE', #292 ) ;
#29 = ORIENTED_EDGE ( 'NONE', *, *, #257, .T. ) ;
#30 = ORIENTED_EDGE ( 'NONE', *, *, #165, .T. ) ;
#31 =( GEOMETRIC_REPRESENTATION_CONTEXT ( 3 ) GLOBAL_UNCERTAINTY_ASSIGNED_CONTEXT ( ( #96 ) ) GLOBAL_UNIT_ASSIGNED_CONTEXT ( ( #189, #281, #191 ) ) REPRESENTATION_CONTEXT ( 'NONE', 'WORKASPACE' ) );
#32 = CARTESIAN_POINT ( 'NONE',  ( -0.04750000000000064587, 0.0000000000000000000, 1.500000000000000222 ) ) ;
#33 = EDGE_CURVE ( 'NONE', #77, #144, #173, .T. ) ;
#34 = DIRECTION ( 'NONE',  ( 0.7071067811865462405, 8.659560562354916834E-17, -0.7071067811865486830 ) ) ;
#35 = DIRECTION ( 'NONE',  ( -1.000000000000000000, 0.0000000000000000000, 0.0000000000000000000 ) ) ;
#36 = AXIS2_PLACEMENT_3D ( 'NONE', #20, #108, #38 ) ;
#37 = CARTESIAN_POINT ( 'NONE',  ( 0.0000000000000000000, 0.0000000000000000000, 1.500000000000000222 ) ) ;
#38 = DIRECTION ( 'NONE',  ( 1.000000000000000000, 0.0000000000000000000, -0.0000000000000000000 ) ) ;
#39 = DIRECTION ( 'NONE',  ( 0.1736481776669313581, 0.0000000000000000000, 0.9848077530122077983 ) ) ;
#40 = LINE ( 'NONE', #230, #208 ) ;
#41 = AXIS2_PLACEMENT_3D ( 'NONE', #37, #106, #35 ) ;
#42 = EDGE_CURVE ( 'NONE', #284, #28, #146, .T. ) ;
#43 = DIRECTION ( 'NONE',  ( 1.000000000000000000, 0.0000000000000000000, 0.0000000000000000000 ) ) ;
#44 = DIMENSIONAL_EXPONENTS ( 1.000000000000000000, 0.0000000000000000000, 0.0000000000000000000, 0.0000000000000000000, 0.0000000000000000000, 0.0000000000000000000, 0.0000000000000000000 ) ;
#45 = VERTEX_POINT ( 'NONE', #131 ) ;
#46 = AXIS2_PLACEMENT_3D ( 'NONE', #114, #273, #249 ) ;
#47 = ADVANCED_BREP_SHAPE_REPRESENTATION ( 'Micro_RME-014-2X', ( #172, #60 ), #31 ) ;
#48 = PRODUCT_DEFINITION_CONTEXT ( 'detailed design', #276, 'design' ) ;
#49 = VERTEX_POINT ( 'NONE', #155 ) ;
#50 = SURFACE_STYLE_FILL_AREA ( #2 ) ;
#51 = ORIENTED_EDGE ( 'NONE', *, *, #289, .F. ) ;
#52 = EDGE_LOOP ( 'NONE', ( #79, #232, #118, #27 ) ) ;
#53 = AXIS2_PLACEMENT_3D ( 'NONE', #231, #65, #67 ) ;
#54 = EDGE_CURVE ( 'NONE', #45, #280, #9, .T. ) ;
#55 = CARTESIAN_POINT ( 'NONE',  ( 0.0000000000000000000, 0.0000000000000000000, 0.0000000000000000000 ) ) ;
#56 = CARTESIAN_POINT ( 'NONE',  ( 5.143516556418885177E-18, 0.0000000000000000000, 0.04200000000000000955 ) ) ;
#57 = ADVANCED_FACE ( 'NONE', ( #179 ), #269, .T. ) ;
#58 = CARTESIAN_POINT ( 'NONE',  ( 0.0000000000000000000, 0.0000000000000000000, 1.500000000000000222 ) ) ;
#59 = VECTOR ( 'NONE', #125, 39.37007874015748143 ) ;
#60 = AXIS2_PLACEMENT_3D ( 'NONE', #55, #93, #186 ) ;
#61 = DIRECTION ( 'NONE',  ( 1.000000000000000000, 0.0000000000000000000, 0.0000000000000000000 ) ) ;
#62 = FACE_OUTER_BOUND ( 'NONE', #282, .T. ) ;
#63 = DIRECTION ( 'NONE',  ( -0.0000000000000000000, -0.0000000000000000000, -1.000000000000000000 ) ) ;
#64 = STYLED_ITEM ( 'NONE', ( #204 ), #172 ) ;
#65 = DIRECTION ( 'NONE',  ( 0.0000000000000000000, 0.0000000000000000000, 1.000000000000000000 ) ) ;
#66 = DIRECTION ( 'NONE',  ( 1.000000000000000000, 0.0000000000000000000, 0.0000000000000000000 ) ) ;
#67 = DIRECTION ( 'NONE',  ( 1.000000000000000000, 0.0000000000000000000, 0.0000000000000000000 ) ) ;
#68 = EDGE_CURVE ( 'NONE', #119, #77, #84, .T. ) ;
#69 = DIRECTION ( 'NONE',  ( -1.000000000000000000, 0.0000000000000000000, 1.224646799147353454E-16 ) ) ;
#70 = DIRECTION ( 'NONE',  ( 0.0000000000000000000, 0.0000000000000000000, 1.000000000000000000 ) ) ;
#71 = APPLICATION_PROTOCOL_DEFINITION ( 'draft international standard', 'automotive_design', 1998, #272 ) ;
#72 = ORIENTED_EDGE ( 'NONE', *, *, #259, .F. ) ;
#73 = EDGE_LOOP ( 'NONE', ( #215, #100, #5, #233 ) ) ;
#74 = MECHANICAL_DESIGN_GEOMETRIC_PRESENTATION_REPRESENTATION (  '', ( #295 ), #229 ) ;
#75 = FILL_AREA_STYLE_COLOUR ( '', #126 ) ;
#76 = VERTEX_POINT ( 'NONE', #81 ) ;
#77 = VERTEX_POINT ( 'NONE', #102 ) ;
#78 = DIRECTION ( 'NONE',  ( -1.224646799147353454E-16, -0.0000000000000000000, -1.000000000000000000 ) ) ;
#79 = ORIENTED_EDGE ( 'NONE', *, *, #24, .F. ) ;
#80 = VECTOR ( 'NONE', #288, 39.37007874015748854 ) ;
#81 = CARTESIAN_POINT ( 'NONE',  ( 0.006992999999999998349, 8.563955066437440820E-19, 1.184750211852384294E-34 ) ) ;
#82 = LINE ( 'NONE', #265, #250 ) ;
#83 = FACE_OUTER_BOUND ( 'NONE', #73, .T. ) ;
#84 = CIRCLE ( 'NONE', #188, 0.006993000000000001819 ) ;
#85 = DIRECTION ( 'NONE',  ( 1.000000000000000000, 0.0000000000000000000, 0.0000000000000000000 ) ) ;
#86 = DIRECTION ( 'NONE',  ( 0.0000000000000000000, 0.0000000000000000000, -1.000000000000000000 ) ) ;
#87 = FILL_AREA_STYLE ('',( #115 ) ) ;
#88 = AXIS2_PLACEMENT_3D ( 'NONE', #10, #104, #153 ) ;
#89 = SURFACE_STYLE_FILL_AREA ( #87 ) ;
#90 = LINE ( 'NONE', #247, #112 ) ;
#91 = AXIS2_PLACEMENT_3D ( 'NONE', #178, #174, #85 ) ;
#92 =( CONVERSION_BASED_UNIT ( 'INCH', #161 ) LENGTH_UNIT ( ) NAMED_UNIT ( #160 ) );
#93 = DIRECTION ( 'NONE',  ( 0.0000000000000000000, 0.0000000000000000000, 1.000000000000000000 ) ) ;
#94 = ORIENTED_EDGE ( 'NONE', *, *, #1, .T. ) ;
#95 = AXIS2_PLACEMENT_3D ( 'NONE', #220, #133, #61 ) ;
#96 = UNCERTAINTY_MEASURE_WITH_UNIT (LENGTH_MEASURE( 1.000000000000000082E-05 ), #189, 'distance_accuracy_value', 'NONE');
#97 = EDGE_LOOP ( 'NONE', ( #261, #124, #258, #237 ) ) ;
#98 =( LENGTH_UNIT ( ) NAMED_UNIT ( * ) SI_UNIT ( $, .METRE. ) );
#99 = EDGE_LOOP ( 'NONE', ( #236, #255, #148, #216 ) ) ;
#100 = ORIENTED_EDGE ( 'NONE', *, *, #111, .T. ) ;
#101 = MECHANICAL_DESIGN_GEOMETRIC_PRESENTATION_REPRESENTATION (  '', ( #64 ), #157 ) ;
#102 = CARTESIAN_POINT ( 'NONE',  ( -0.006992999999999996615, 4.255219000657352499E-18, 0.04200000000000000955 ) ) ;
#103 = DIRECTION ( 'NONE',  ( -1.224646799147353454E-16, -0.0000000000000000000, -1.000000000000000000 ) ) ;
#104 = DIRECTION ( 'NONE',  ( 0.0000000000000000000, 0.0000000000000000000, -1.000000000000000000 ) ) ;
#105 = VECTOR ( 'NONE', #291, 39.37007874015748143 ) ;
#106 = DIRECTION ( 'NONE',  ( -0.0000000000000000000, -0.0000000000000000000, -1.000000000000000000 ) ) ;
#107 = EDGE_CURVE ( 'NONE', #280, #28, #264, .T. ) ;
#108 = DIRECTION ( 'NONE',  ( 0.0000000000000000000, 0.0000000000000000000, 1.000000000000000000 ) ) ;
#109 = FACE_OUTER_BOUND ( 'NONE', #97, .T. ) ;
#110 = ADVANCED_FACE ( 'NONE', ( #217 ), #4, .T. ) ;
#111 = EDGE_CURVE ( 'NONE', #77, #284, #82, .T. ) ;
#112 = VECTOR ( 'NONE', #39, 39.37007874015748143 ) ;
#113 = PLANE ( 'NONE',  #36 ) ;
#114 = CARTESIAN_POINT ( 'NONE',  ( 0.0000000000000000000, 0.0000000000000000000, 1.500000000000000222 ) ) ;
#115 = FILL_AREA_STYLE_COLOUR ( '', #200 ) ;
#116 = CIRCLE ( 'NONE', #53, 0.04750000000000064587 ) ;
#117 =( LENGTH_UNIT ( ) NAMED_UNIT ( * ) SI_UNIT ( $, .METRE. ) );
#118 = ORIENTED_EDGE ( 'NONE', *, *, #120, .T. ) ;
#119 = VERTEX_POINT ( 'NONE', #129 ) ;
#120 = EDGE_CURVE ( 'NONE', #49, #45, #150, .T. ) ;
#121 = LENGTH_MEASURE_WITH_UNIT ( LENGTH_MEASURE( 0.02539999999999999897 ), #98 );
#122 = DIRECTION ( 'NONE',  ( -0.0000000000000000000, -0.0000000000000000000, -1.000000000000000000 ) ) ;
#123 = VERTEX_POINT ( 'NONE', #175 ) ;
#124 = ORIENTED_EDGE ( 'NONE', *, *, #24, .T. ) ;
#125 = DIRECTION ( 'NONE',  ( -0.0000000000000000000, -0.0000000000000000000, -1.000000000000000000 ) ) ;
#126 = COLOUR_RGB ( '',0.7921568627450980005, 0.8196078431372548767, 0.9333333333333333481 ) ;
#127 = DIRECTION ( 'NONE',  ( -1.224646799147353454E-16, -0.0000000000000000000, -1.000000000000000000 ) ) ;
#128 = PRODUCT ( 'Micro_RME-014-2X', 'Micro_RME-014-2X', '', ( #260 ) ) ;
#129 = CARTESIAN_POINT ( 'NONE',  ( 0.006993000000000007023, 0.0000000000000000000, 0.04200000000000000955 ) ) ;
#130 = EDGE_CURVE ( 'NONE', #119, #76, #267, .T. ) ;
#131 = CARTESIAN_POINT ( 'NONE',  ( -0.06250000000000002776, 0.0000000000000000000, 1.485000000000000764 ) ) ;
#132 = CONICAL_SURFACE ( 'NONE', #171, 0.006993000000000001819, 0.1745329251994338637 ) ;
#133 = DIRECTION ( 'NONE',  ( -1.224646799147353454E-16, -0.0000000000000000000, -1.000000000000000000 ) ) ;
#134 = DIRECTION ( 'NONE',  ( -1.224646799147353454E-16, -0.0000000000000000000, -1.000000000000000000 ) ) ;
#135 = PLANE ( 'NONE',  #285 ) ;
#136 = VECTOR ( 'NONE', #34, 39.37007874015748854 ) ;
#137 = DIRECTION ( 'NONE',  ( 1.000000000000000000, 0.0000000000000000000, 0.0000000000000000000 ) ) ;
#138 = FACE_OUTER_BOUND ( 'NONE', #141, .T. ) ;
#139 =( NAMED_UNIT ( * ) SI_UNIT ( $, .STERADIAN. ) SOLID_ANGLE_UNIT ( ) );
#140 = CONICAL_SURFACE ( 'NONE', #46, 0.04750000000000064587, 0.7853981633974466137 ) ;
#141 = EDGE_LOOP ( 'NONE', ( #94, #299, #51, #166 ) ) ;
#142 = CIRCLE ( 'NONE', #222, 0.006993000000000001819 ) ;
#143 = SURFACE_SIDE_STYLE ('',( #50 ) ) ;
#144 = VERTEX_POINT ( 'NONE', #14 ) ;
#145 = CARTESIAN_POINT ( 'NONE',  ( 0.06250000000000002776, 7.654042494670959086E-18, 1.485000000000000764 ) ) ;
#146 = CIRCLE ( 'NONE', #95, 0.06250000000000002776 ) ;
#147 =( NAMED_UNIT ( * ) SI_UNIT ( $, .STERADIAN. ) SOLID_ANGLE_UNIT ( ) );
#148 = ORIENTED_EDGE ( 'NONE', *, *, #42, .F. ) ;
#149 = DIRECTION ( 'NONE',  ( 1.000000000000000000, 0.0000000000000000000, 0.0000000000000000000 ) ) ;
#150 = LINE ( 'NONE', #32, #80 ) ;
#151 = CIRCLE ( 'NONE', #201, 0.04750000000000064587 ) ;
#152 = DIMENSIONAL_EXPONENTS ( 1.000000000000000000, 0.0000000000000000000, 0.0000000000000000000, 0.0000000000000000000, 0.0000000000000000000, 0.0000000000000000000, 0.0000000000000000000 ) ;
#153 = DIRECTION ( 'NONE',  ( -1.000000000000000000, 0.0000000000000000000, 0.0000000000000000000 ) ) ;
#154 = CARTESIAN_POINT ( 'NONE',  ( -0.006993000000000000951, 0.0000000000000000000, 8.563955066437444671E-19 ) ) ;
#155 = CARTESIAN_POINT ( 'NONE',  ( -0.04750000000000064587, 0.0000000000000000000, 1.500000000000000222 ) ) ;
#156 = DIRECTION ( 'NONE',  ( 0.0000000000000000000, 0.0000000000000000000, 1.000000000000000000 ) ) ;
#157 =( GEOMETRIC_REPRESENTATION_CONTEXT ( 3 ) GLOBAL_UNCERTAINTY_ASSIGNED_CONTEXT ( ( #164 ) ) GLOBAL_UNIT_ASSIGNED_CONTEXT ( ( #92, #274, #139 ) ) REPRESENTATION_CONTEXT ( 'NONE', 'WORKASPACE' ) );
#158 = SURFACE_SIDE_STYLE ('',( #89 ) ) ;
#159 = EDGE_CURVE ( 'NONE', #76, #144, #185, .T. ) ;
#160 = DIMENSIONAL_EXPONENTS ( 1.000000000000000000, 0.0000000000000000000, 0.0000000000000000000, 0.0000000000000000000, 0.0000000000000000000, 0.0000000000000000000, 0.0000000000000000000 ) ;
#161 = LENGTH_MEASURE_WITH_UNIT ( LENGTH_MEASURE( 0.02539999999999999897 ), #207 );
#162 = ORIENTED_EDGE ( 'NONE', *, *, #289, .T. ) ;
#163 = CIRCLE ( 'NONE', #245, 0.006992999999999998349 ) ;
#164 = UNCERTAINTY_MEASURE_WITH_UNIT (LENGTH_MEASURE( 1.000000000000000082E-05 ), #92, 'distance_accuracy_value', 'NONE');
#165 = EDGE_CURVE ( 'NONE', #49, #123, #116, .T. ) ;
#166 = ORIENTED_EDGE ( 'NONE', *, *, #33, .F. ) ;
#167 = DIRECTION ( 'NONE',  ( -1.000000000000000000, 0.0000000000000000000, 1.224646799147353454E-16 ) ) ;
#168 = ORIENTED_EDGE ( 'NONE', *, *, #33, .T. ) ;
#169 = ORIENTED_EDGE ( 'NONE', *, *, #159, .T. ) ;
#170 = PRESENTATION_STYLE_ASSIGNMENT (( #6 ) ) ;
#171 = AXIS2_PLACEMENT_3D ( 'NONE', #294, #180, #66 ) ;
#172 = MANIFOLD_SOLID_BREP ( 'Cut-Revolve1', #196 ) ;
#173 = LINE ( 'NONE', #154, #275 ) ;
#174 = DIRECTION ( 'NONE',  ( 1.224646799147353454E-16, 0.0000000000000000000, 1.000000000000000000 ) ) ;
#175 = CARTESIAN_POINT ( 'NONE',  ( 0.04750000000000064587, 6.735557395310483192E-18, 1.500000000000000222 ) ) ;
#176 = PRODUCT_DEFINITION ( 'UNKNOWN', '', #213, #48 ) ;
#177 = AXIS2_PLACEMENT_3D ( 'NONE', #58, #63, #238 ) ;
#178 = CARTESIAN_POINT ( 'NONE',  ( 5.143516556418885177E-18, 0.0000000000000000000, 0.04200000000000000955 ) ) ;
#179 = FACE_OUTER_BOUND ( 'NONE', #99, .T. ) ;
#180 = DIRECTION ( 'NONE',  ( 1.224646799147353454E-16, 0.0000000000000000000, 1.000000000000000000 ) ) ;
#181 = CARTESIAN_POINT ( 'NONE',  ( 4.369488833579652901E-17, 0.0000000000000000000, 0.3567958399615186460 ) ) ;
#182 = CYLINDRICAL_SURFACE ( 'NONE', #224, 0.006993000000000000951 ) ;
#183 = EDGE_CURVE ( 'NONE', #123, #49, #151, .T. ) ;
#184 = ADVANCED_FACE ( 'NONE', ( #251 ), #113, .T. ) ;
#185 = CIRCLE ( 'NONE', #290, 0.006992999999999998349 ) ;
#186 = DIRECTION ( 'NONE',  ( 1.000000000000000000, 0.0000000000000000000, 0.0000000000000000000 ) ) ;
#187 = SHAPE_DEFINITION_REPRESENTATION ( #239, #47 ) ;
#188 = AXIS2_PLACEMENT_3D ( 'NONE', #11, #225, #194 ) ;
#189 =( CONVERSION_BASED_UNIT ( 'INCH', #26 ) LENGTH_UNIT ( ) NAMED_UNIT ( #44 ) );
#190 = EDGE_LOOP ( 'NONE', ( #162, #169 ) ) ;
#191 =( NAMED_UNIT ( * ) SI_UNIT ( $, .STERADIAN. ) SOLID_ANGLE_UNIT ( ) );
#192 = ORIENTED_EDGE ( 'NONE', *, *, #219, .T. ) ;
#193 = AXIS2_PLACEMENT_3D ( 'NONE', #223, #86, #149 ) ;
#194 = DIRECTION ( 'NONE',  ( -1.000000000000000000, 0.0000000000000000000, 0.0000000000000000000 ) ) ;
#195 = LINE ( 'NONE', #268, #136 ) ;
#196 = CLOSED_SHELL ( 'NONE', ( #197, #12, #234, #57, #13, #184, #110, #235, #21, #218 ) ) ;
#197 = ADVANCED_FACE ( 'NONE', ( #138 ), #182, .T. ) ;
#198 = DIRECTION ( 'NONE',  ( -0.1736481776669311639, 2.126576849575783008E-17, 0.9848077530122080203 ) ) ;
#199 = CARTESIAN_POINT ( 'NONE',  ( 1.048782016015437310E-34, 0.0000000000000000000, 8.563955066437440820E-19 ) ) ;
#200 = COLOUR_RGB ( '',0.7921568627450980005, 0.8196078431372548767, 0.9333333333333333481 ) ;
#201 = AXIS2_PLACEMENT_3D ( 'NONE', #296, #156, #137 ) ;
#202 = CYLINDRICAL_SURFACE ( 'NONE', #41, 0.06250000000000002776 ) ;
#203 = DIRECTION ( 'NONE',  ( 1.000000000000000000, 0.0000000000000000000, -0.0000000000000000000 ) ) ;
#204 = PRESENTATION_STYLE_ASSIGNMENT (( #293 ) ) ;
#205 = PRESENTATION_LAYER_ASSIGNMENT (  '', '', ( #295 ) ) ;
#206 = DIRECTION ( 'NONE',  ( -1.224646799147353454E-16, -0.0000000000000000000, -1.000000000000000000 ) ) ;
#207 =( LENGTH_UNIT ( ) NAMED_UNIT ( * ) SI_UNIT ( $, .METRE. ) );
#208 = VECTOR ( 'NONE', #122, 39.37007874015748143 ) ;
#209 = ORIENTED_EDGE ( 'NONE', *, *, #68, .F. ) ;
#210 = EDGE_LOOP ( 'NONE', ( #214, #209, #29, #3 ) ) ;
#211 = CONICAL_SURFACE ( 'NONE', #91, 0.006993000000000001819, 0.1745329251994338637 ) ;
#212 =( NAMED_UNIT ( * ) PLANE_ANGLE_UNIT ( ) SI_UNIT ( $, .RADIAN. ) );
#213 = PRODUCT_DEFINITION_FORMATION_WITH_SPECIFIED_SOURCE ( 'ANY', '', #128, .NOT_KNOWN. ) ;
#214 = ORIENTED_EDGE ( 'NONE', *, *, #111, .F. ) ;
#215 = ORIENTED_EDGE ( 'NONE', *, *, #1, .F. ) ;
#216 = ORIENTED_EDGE ( 'NONE', *, *, #271, .F. ) ;
#217 = FACE_OUTER_BOUND ( 'NONE', #52, .T. ) ;
#218 = ADVANCED_FACE ( 'NONE', ( #246 ), #135, .F. ) ;
#219 = EDGE_CURVE ( 'NONE', #280, #45, #266, .T. ) ;
#220 = CARTESIAN_POINT ( 'NONE',  ( 4.369488833579652901E-17, 0.0000000000000000000, 0.3567958399615186460 ) ) ;
#221 = CARTESIAN_POINT ( 'NONE',  ( 0.006993000000000000951, 8.563955066437441783E-19, -8.563955066437444671E-19 ) ) ;
#222 = AXIS2_PLACEMENT_3D ( 'NONE', #56, #127, #244 ) ;
#223 = CARTESIAN_POINT ( 'NONE',  ( 0.0000000000000000000, 0.0000000000000000000, 1.485000000000000764 ) ) ;
#224 = AXIS2_PLACEMENT_3D ( 'NONE', #277, #134, #22 ) ;
#225 = DIRECTION ( 'NONE',  ( -1.224646799147353454E-16, -0.0000000000000000000, -1.000000000000000000 ) ) ;
#226 = CARTESIAN_POINT ( 'NONE',  ( 0.0000000000000000000, 0.0000000000000000000, 1.485000000000000764 ) ) ;
#227 = DIRECTION ( 'NONE',  ( -1.224646799147353454E-16, -0.0000000000000000000, -1.000000000000000000 ) ) ;
#228 = PRESENTATION_LAYER_ASSIGNMENT (  '', '', ( #64 ) ) ;
#229 =( GEOMETRIC_REPRESENTATION_CONTEXT ( 3 ) GLOBAL_UNCERTAINTY_ASSIGNED_CONTEXT ( ( #253 ) ) GLOBAL_UNIT_ASSIGNED_CONTEXT ( ( #278, #212, #147 ) ) REPRESENTATION_CONTEXT ( 'NONE', 'WORKASPACE' ) );
#230 = CARTESIAN_POINT ( 'NONE',  ( -0.06250000000000002776, 0.0000000000000000000, 1.500000000000000222 ) ) ;
#231 = CARTESIAN_POINT ( 'NONE',  ( 0.0000000000000000000, 0.0000000000000000000, 1.500000000000000222 ) ) ;
#232 = ORIENTED_EDGE ( 'NONE', *, *, #165, .F. ) ;
#233 = ORIENTED_EDGE ( 'NONE', *, *, #257, .F. ) ;
#234 = ADVANCED_FACE ( 'NONE', ( #109 ), #140, .T. ) ;
#235 = ADVANCED_FACE ( 'NONE', ( #297 ), #132, .T. ) ;
#236 = ORIENTED_EDGE ( 'NONE', *, *, #54, .T. ) ;
#237 = ORIENTED_EDGE ( 'NONE', *, *, #120, .F. ) ;
#238 = DIRECTION ( 'NONE',  ( -1.000000000000000000, 0.0000000000000000000, 0.0000000000000000000 ) ) ;
#239 = PRODUCT_DEFINITION_SHAPE ( 'NONE', 'NONE',  #176 ) ;
#240 = AXIS2_PLACEMENT_3D ( 'NONE', #241, #15, #243 ) ;
#241 = CARTESIAN_POINT ( 'NONE',  ( 0.0000000000000000000, 0.0000000000000000000, 0.0000000000000000000 ) ) ;
#242 = ORIENTED_EDGE ( 'NONE', *, *, #107, .F. ) ;
#243 = DIRECTION ( 'NONE',  ( -1.000000000000000000, 0.0000000000000000000, 1.224646799147353454E-16 ) ) ;
#244 = DIRECTION ( 'NONE',  ( -1.000000000000000000, 0.0000000000000000000, 0.0000000000000000000 ) ) ;
#245 = AXIS2_PLACEMENT_3D ( 'NONE', #23, #78, #167 ) ;
#246 = FACE_OUTER_BOUND ( 'NONE', #190, .T. ) ;
#247 = CARTESIAN_POINT ( 'NONE',  ( 0.006993000000000007023, 0.0000000000000000000, 0.04200000000000000955 ) ) ;
#248 = PRODUCT_RELATED_PRODUCT_CATEGORY ( 'part', '', ( #128 ) ) ;
#249 = DIRECTION ( 'NONE',  ( -1.000000000000000000, 0.0000000000000000000, 0.0000000000000000000 ) ) ;
#250 = VECTOR ( 'NONE', #198, 39.37007874015747433 ) ;
#251 = FACE_OUTER_BOUND ( 'NONE', #7, .T. ) ;
#252 = APPLICATION_PROTOCOL_DEFINITION ( 'draft international standard', 'automotive_design', 1998, #276 ) ;
#253 = UNCERTAINTY_MEASURE_WITH_UNIT (LENGTH_MEASURE( 1.000000000000000082E-05 ), #278, 'distance_accuracy_value', 'NONE');
#254 = ORIENTED_EDGE ( 'NONE', *, *, #130, .F. ) ;
#255 = ORIENTED_EDGE ( 'NONE', *, *, #107, .T. ) ;
#256 = CARTESIAN_POINT ( 'NONE',  ( -0.06249999999999997918, 0.0000000000000000000, 0.3567958399615186460 ) ) ;
#257 = EDGE_CURVE ( 'NONE', #119, #28, #90, .T. ) ;
#258 = ORIENTED_EDGE ( 'NONE', *, *, #54, .F. ) ;
#259 = EDGE_CURVE ( 'NONE', #28, #284, #262, .T. ) ;
#260 = PRODUCT_CONTEXT ( 'NONE', #272, 'mechanical' ) ;
#261 = ORIENTED_EDGE ( 'NONE', *, *, #183, .F. ) ;
#262 = CIRCLE ( 'NONE', #19, 0.06250000000000002776 ) ;
#263 = ORIENTED_EDGE ( 'NONE', *, *, #183, .T. ) ;
#264 = LINE ( 'NONE', #286, #59 ) ;
#265 = CARTESIAN_POINT ( 'NONE',  ( -0.006992999999999996615, 8.563955066437442745E-19, 0.04200000000000000955 ) ) ;
#266 = CIRCLE ( 'NONE', #298, 0.06250000000000002776 ) ;
#267 = LINE ( 'NONE', #221, #105 ) ;
#268 = CARTESIAN_POINT ( 'NONE',  ( 0.04750000000000064587, 5.817072295950006528E-18, 1.500000000000000222 ) ) ;
#269 = CYLINDRICAL_SURFACE ( 'NONE', #177, 0.06250000000000002776 ) ;
#270 = CARTESIAN_POINT ( 'NONE',  ( 0.0000000000000000000, 0.0000000000000000000, 0.0000000000000000000 ) ) ;
#271 = EDGE_CURVE ( 'NONE', #45, #284, #40, .T. ) ;
#272 = APPLICATION_CONTEXT ( 'automotive_design' ) ;
#273 = DIRECTION ( 'NONE',  ( 0.0000000000000000000, 0.0000000000000000000, -1.000000000000000000 ) ) ;
#274 =( NAMED_UNIT ( * ) PLANE_ANGLE_UNIT ( ) SI_UNIT ( $, .RADIAN. ) );
#275 = VECTOR ( 'NONE', #103, 39.37007874015748143 ) ;
#276 = APPLICATION_CONTEXT ( 'automotive_design' ) ;
#277 = CARTESIAN_POINT ( 'NONE',  ( 0.0000000000000000000, 0.0000000000000000000, 0.0000000000000000000 ) ) ;
#278 =( CONVERSION_BASED_UNIT ( 'INCH', #121 ) LENGTH_UNIT ( ) NAMED_UNIT ( #152 ) );
#279 = ORIENTED_EDGE ( 'NONE', *, *, #271, .T. ) ;
#280 = VERTEX_POINT ( 'NONE', #145 ) ;
#281 =( NAMED_UNIT ( * ) PLANE_ANGLE_UNIT ( ) SI_UNIT ( $, .RADIAN. ) );
#282 = EDGE_LOOP ( 'NONE', ( #254, #283, #168, #8 ) ) ;
#283 = ORIENTED_EDGE ( 'NONE', *, *, #68, .T. ) ;
#284 = VERTEX_POINT ( 'NONE', #256 ) ;
#285 = AXIS2_PLACEMENT_3D ( 'NONE', #270, #70, #203 ) ;
#286 = CARTESIAN_POINT ( 'NONE',  ( 0.06250000000000002776, 7.654042494670959086E-18, 1.500000000000000222 ) ) ;
#287 = CYLINDRICAL_SURFACE ( 'NONE', #240, 0.006993000000000000951 ) ;
#288 = DIRECTION ( 'NONE',  ( -0.7071067811865462405, 0.0000000000000000000, -0.7071067811865486830 ) ) ;
#289 = EDGE_CURVE ( 'NONE', #144, #76, #163, .T. ) ;
#290 = AXIS2_PLACEMENT_3D ( 'NONE', #199, #206, #69 ) ;
#291 = DIRECTION ( 'NONE',  ( -1.224646799147353454E-16, -0.0000000000000000000, -1.000000000000000000 ) ) ;
#292 = CARTESIAN_POINT ( 'NONE',  ( 0.06250000000000006939, 7.654042494670963708E-18, 0.3567958399615186460 ) ) ;
#293 = SURFACE_STYLE_USAGE ( .BOTH. , #158 ) ;
#294 = CARTESIAN_POINT ( 'NONE',  ( 5.143516556418885177E-18, 0.0000000000000000000, 0.04200000000000000955 ) ) ;
#295 = STYLED_ITEM ( 'NONE', ( #170 ), #47 ) ;
#296 = CARTESIAN_POINT ( 'NONE',  ( 0.0000000000000000000, 0.0000000000000000000, 1.500000000000000222 ) ) ;
#297 = FACE_OUTER_BOUND ( 'NONE', #210, .T. ) ;
#298 = AXIS2_PLACEMENT_3D ( 'NONE', #226, #17, #43 ) ;
#299 = ORIENTED_EDGE ( 'NONE', *, *, #130, .T. ) ;
ENDSEC;
END-ISO-10303-21;
