ISO-10303-21;
HEADER;
FILE_DESCRIPTION (( 'STEP AP214' ),
    '1' );
FILE_NAME ('81559.STEP',
    '2023-06-23T01:54:59',
    ( '' ),
    ( '' ),
    'SwSTEP 2.0',
    'SolidWorks 2023',
    '' );
FILE_SCHEMA (( 'AUTOMOTIVE_DESIGN' ));
ENDSEC;

DATA;
#1 = PRODUCT ( '81559', '81559', '', ( #207 ) ) ;
#2 = CYLINDRICAL_SURFACE ( 'NONE', #240, 0.1874999999999999722 ) ;
#3 = AXIS2_PLACEMENT_3D ( 'NONE', #45, #13, #86 ) ;
#4 = COLOUR_RGB ( '',0.7921568627450980005, 0.8196078431372548767, 0.9333333333333333481 ) ;
#5 = CARTESIAN_POINT ( 'NONE',  ( 0.1875000000000000278, 0.7499999999999998890, 2.296212748401287109E-17 ) ) ;
#6 = SURFACE_STYLE_FILL_AREA ( #251 ) ;
#7 = DIRECTION ( 'NONE',  ( 0.000000000000000000, 0.000000000000000000, -1.000000000000000000 ) ) ;
#8 = ADVANCED_FACE ( 'NONE', ( #145 ), #243, .T. ) ;
#9 = PRESENTATION_LAYER_ASSIGNMENT (  '', '', ( #137 ) ) ;
#10 = CARTESIAN_POINT ( 'NONE',  ( 0.000000000000000000, 0.000000000000000000, 0.000000000000000000 ) ) ;
#11 = DIMENSIONAL_EXPONENTS ( 1.000000000000000000, 0.000000000000000000, 0.000000000000000000, 0.000000000000000000, 0.000000000000000000, 0.000000000000000000, 0.000000000000000000 ) ;
#12 = LINE ( 'NONE', #42, #113 ) ;
#13 = DIRECTION ( 'NONE',  ( 3.498990854706726443E-17, 1.000000000000000000, -0.000000000000000000 ) ) ;
#14 = ADVANCED_FACE ( 'NONE', ( #237 ), #47, .F. ) ;
#15 =( LENGTH_UNIT ( ) NAMED_UNIT ( * ) SI_UNIT ( $, .METRE. ) );
#16 = STYLED_ITEM ( 'NONE', ( #93 ), #139 ) ;
#17 = SURFACE_STYLE_USAGE ( .BOTH. , #174 ) ;
#18 = AXIS2_PLACEMENT_3D ( 'NONE', #227, #181, #203 ) ;
#19 = AXIS2_PLACEMENT_3D ( 'NONE', #10, #32, #228 ) ;
#20 = DIRECTION ( 'NONE',  ( 3.498990854706726443E-17, 1.000000000000000000, -0.000000000000000000 ) ) ;
#21 = ORIENTED_EDGE ( 'NONE', *, *, #162, .T. ) ;
#22 = DIRECTION ( 'NONE',  ( 0.000000000000000000, 0.000000000000000000, -1.000000000000000000 ) ) ;
#23 = ORIENTED_EDGE ( 'NONE', *, *, #182, .F. ) ;
#24 = LINE ( 'NONE', #122, #66 ) ;
#25 = CARTESIAN_POINT ( 'NONE',  ( 6.123233995736772199E-17, 2.500000000000000000, 0.000000000000000000 ) ) ;
#26 = DIRECTION ( 'NONE',  ( 3.498990854706726443E-17, 1.000000000000000000, -0.000000000000000000 ) ) ;
#27 = CIRCLE ( 'NONE', #208, 0.1875000000000000278 ) ;
#28 = MECHANICAL_DESIGN_GEOMETRIC_PRESENTATION_REPRESENTATION (  '', ( #167 ), #248 ) ;
#29 =( LENGTH_UNIT ( ) NAMED_UNIT ( * ) SI_UNIT ( $, .METRE. ) );
#30 = DIMENSIONAL_EXPONENTS ( 1.000000000000000000, 0.000000000000000000, 0.000000000000000000, 0.000000000000000000, 0.000000000000000000, 0.000000000000000000, 0.000000000000000000 ) ;
#31 = CARTESIAN_POINT ( 'NONE',  ( 6.123233995736772199E-17, 2.500000000000000000, 0.000000000000000000 ) ) ;
#32 = DIRECTION ( 'NONE',  ( -0.000000000000000000, -1.000000000000000000, -0.000000000000000000 ) ) ;
#33 = PRESENTATION_LAYER_ASSIGNMENT (  '', '', ( #115 ) ) ;
#34 = LENGTH_MEASURE_WITH_UNIT ( LENGTH_MEASURE( 0.02539999999999999897 ), #229 );
#35 = FACE_OUTER_BOUND ( 'NONE', #281, .T. ) ;
#36 = FILL_AREA_STYLE_COLOUR ( '', #61 ) ;
#37 = EDGE_CURVE ( 'NONE', #308, #215, #155, .T. ) ;
#38 = DIMENSIONAL_EXPONENTS ( 1.000000000000000000, 0.000000000000000000, 0.000000000000000000, 0.000000000000000000, 0.000000000000000000, 0.000000000000000000, 0.000000000000000000 ) ;
#39 = FILL_AREA_STYLE_COLOUR ( '', #292 ) ;
#40 = FILL_AREA_STYLE ('',( #39 ) ) ;
#41 = DIRECTION ( 'NONE',  ( 3.498990854706726443E-17, 1.000000000000000000, -0.000000000000000000 ) ) ;
#42 = CARTESIAN_POINT ( 'NONE',  ( -0.1874999999999999167, 2.500000000000000000, 0.000000000000000000 ) ) ;
#43 = PRESENTATION_LAYER_ASSIGNMENT (  '', '', ( #266 ) ) ;
#44 = CARTESIAN_POINT ( 'NONE',  ( 0.1875000000000000555, 2.500000000000000000, 2.296212748401286801E-17 ) ) ;
#45 = CARTESIAN_POINT ( 'NONE',  ( 1.147775343873872857E-34, 0.7500000000000001110, 0.000000000000000000 ) ) ;
#46 = EDGE_CURVE ( 'NONE', #194, #219, #226, .T. ) ;
#47 = PLANE ( 'NONE',  #3 ) ;
#48 = ORIENTED_EDGE ( 'NONE', *, *, #103, .F. ) ;
#49 =( LENGTH_UNIT ( ) NAMED_UNIT ( * ) SI_UNIT ( $, .METRE. ) );
#50 = ORIENTED_EDGE ( 'NONE', *, *, #51, .F. ) ;
#51 = EDGE_CURVE ( 'NONE', #217, #94, #12, .T. ) ;
#52 = SURFACE_SIDE_STYLE ('',( #213 ) ) ;
#53 = PRESENTATION_LAYER_ASSIGNMENT (  '', '', ( #100 ) ) ;
#54 = SHAPE_DEFINITION_REPRESENTATION ( #119, #176 ) ;
#55 = DIRECTION ( 'NONE',  ( -1.000000000000000000, 0.000000000000000000, 0.000000000000000000 ) ) ;
#56 = DIRECTION ( 'NONE',  ( 3.498990854706726443E-17, 1.000000000000000000, -0.000000000000000000 ) ) ;
#57 = DIMENSIONAL_EXPONENTS ( 1.000000000000000000, 0.000000000000000000, 0.000000000000000000, 0.000000000000000000, 0.000000000000000000, 0.000000000000000000, 0.000000000000000000 ) ;
#58 = APPLICATION_PROTOCOL_DEFINITION ( 'draft international standard', 'automotive_design', 1998, #195 ) ;
#59 = SURFACE_SIDE_STYLE ('',( #204 ) ) ;
#60 = UNCERTAINTY_MEASURE_WITH_UNIT (LENGTH_MEASURE( 1.000000000000000082E-05 ), #199, 'distance_accuracy_value', 'NONE');
#61 = COLOUR_RGB ( '',1.000000000000000000, 0.000000000000000000, 0.000000000000000000 ) ;
#62 =( CONVERSION_BASED_UNIT ( 'INCH', #210 ) LENGTH_UNIT ( ) NAMED_UNIT ( #183 ) );
#63 = DIMENSIONAL_EXPONENTS ( 1.000000000000000000, 0.000000000000000000, 0.000000000000000000, 0.000000000000000000, 0.000000000000000000, 0.000000000000000000, 0.000000000000000000 ) ;
#64 = SURFACE_STYLE_USAGE ( .BOTH. , #102 ) ;
#65 = CARTESIAN_POINT ( 'NONE',  ( 0.000000000000000000, 0.000000000000000000, 0.000000000000000000 ) ) ;
#66 = VECTOR ( 'NONE', #127, 39.37007874015748143 ) ;
#67 = DIRECTION ( 'NONE',  ( -1.000000000000000000, 0.000000000000000000, 0.000000000000000000 ) ) ;
#68 = PRESENTATION_LAYER_ASSIGNMENT (  '', '', ( #16 ) ) ;
#69 = EDGE_CURVE ( 'NONE', #219, #73, #302, .T. ) ;
#70 = CARTESIAN_POINT ( 'NONE',  ( 0.000000000000000000, 0.7500000000000001110, 0.000000000000000000 ) ) ;
#71 = CARTESIAN_POINT ( 'NONE',  ( 0.000000000000000000, 0.000000000000000000, -0.1875000000000000278 ) ) ;
#72 = ORIENTED_EDGE ( 'NONE', *, *, #238, .F. ) ;
#73 = VERTEX_POINT ( 'NONE', #71 ) ;
#74 = SURFACE_SIDE_STYLE ('',( #225 ) ) ;
#75 = ORIENTED_EDGE ( 'NONE', *, *, #182, .T. ) ;
#76 = PRESENTATION_STYLE_ASSIGNMENT (( #17 ) ) ;
#77 =( NAMED_UNIT ( * ) PLANE_ANGLE_UNIT ( ) SI_UNIT ( $, .RADIAN. ) );
#78 = DIRECTION ( 'NONE',  ( 0.000000000000000000, -1.000000000000000000, -0.000000000000000000 ) ) ;
#79 = UNCERTAINTY_MEASURE_WITH_UNIT (LENGTH_MEASURE( 1.000000000000000082E-05 ), #236, 'distance_accuracy_value', 'NONE');
#80 = PRESENTATION_STYLE_ASSIGNMENT (( #205 ) ) ;
#81 = PRESENTATION_STYLE_ASSIGNMENT (( #64 ) ) ;
#82 = UNCERTAINTY_MEASURE_WITH_UNIT (LENGTH_MEASURE( 1.000000000000000082E-05 ), #98, 'distance_accuracy_value', 'NONE');
#83 = MANIFOLD_SOLID_BREP ( 'Revolve - Cutting Edge', #136 ) ;
#84 = PLANE ( 'NONE',  #18 ) ;
#85 = DIRECTION ( 'NONE',  ( 3.498990854706726443E-17, 1.000000000000000000, -0.000000000000000000 ) ) ;
#86 = DIRECTION ( 'NONE',  ( -1.000000000000000000, 3.498990854706726443E-17, 0.000000000000000000 ) ) ;
#87 = EDGE_CURVE ( 'NONE', #219, #194, #303, .T. ) ;
#88 = CARTESIAN_POINT ( 'NONE',  ( -0.1874999999999998890, 2.500000000000000000, 0.000000000000000000 ) ) ;
#89 = CIRCLE ( 'NONE', #19, 0.1875000000000000278 ) ;
#90 = DIRECTION ( 'NONE',  ( -0.000000000000000000, -1.000000000000000000, -0.000000000000000000 ) ) ;
#91 = ORIENTED_EDGE ( 'NONE', *, *, #231, .T. ) ;
#92 = LENGTH_MEASURE_WITH_UNIT ( LENGTH_MEASURE( 0.02539999999999999897 ), #29 );
#93 = PRESENTATION_STYLE_ASSIGNMENT (( #284 ) ) ;
#94 = VERTEX_POINT ( 'NONE', #88 ) ;
#95 = ORIENTED_EDGE ( 'NONE', *, *, #238, .T. ) ;
#96 = ORIENTED_EDGE ( 'NONE', *, *, #87, .T. ) ;
#97 =( LENGTH_UNIT ( ) NAMED_UNIT ( * ) SI_UNIT ( $, .METRE. ) );
#98 =( CONVERSION_BASED_UNIT ( 'INCH', #172 ) LENGTH_UNIT ( ) NAMED_UNIT ( #38 ) );
#99 = CARTESIAN_POINT ( 'NONE',  ( 0.1875000000000000278, 2.500000000000000000, 2.296212748401287109E-17 ) ) ;
#100 = STYLED_ITEM ( 'NONE', ( #80 ), #206 ) ;
#101 =( LENGTH_UNIT ( ) NAMED_UNIT ( * ) SI_UNIT ( $, .METRE. ) );
#102 = SURFACE_SIDE_STYLE ('',( #6 ) ) ;
#103 = EDGE_CURVE ( 'NONE', #242, #73, #27, .T. ) ;
#104 = CARTESIAN_POINT ( 'NONE',  ( 0.000000000000000000, 0.000000000000000000, 0.000000000000000000 ) ) ;
#105 = CARTESIAN_POINT ( 'NONE',  ( 0.000000000000000000, 0.7499999999999998890, 0.000000000000000000 ) ) ;
#106 = CLOSED_SHELL ( 'NONE', ( #8, #14, #289, #128 ) ) ;
#107 = UNCERTAINTY_MEASURE_WITH_UNIT (LENGTH_MEASURE( 1.000000000000000082E-05 ), #282, 'distance_accuracy_value', 'NONE');
#108 =( NAMED_UNIT ( * ) PLANE_ANGLE_UNIT ( ) SI_UNIT ( $, .RADIAN. ) );
#109 =( GEOMETRIC_REPRESENTATION_CONTEXT ( 3 ) GLOBAL_UNCERTAINTY_ASSIGNED_CONTEXT ( ( #60 ) ) GLOBAL_UNIT_ASSIGNED_CONTEXT ( ( #199, #287, #168 ) ) REPRESENTATION_CONTEXT ( 'NONE', 'WORKASPACE' ) );
#110 = LENGTH_MEASURE_WITH_UNIT ( LENGTH_MEASURE( 0.02539999999999999897 ), #15 );
#111 = DIRECTION ( 'NONE',  ( -0.000000000000000000, -1.000000000000000000, -0.000000000000000000 ) ) ;
#112 = FILL_AREA_STYLE ('',( #239 ) ) ;
#113 = VECTOR ( 'NONE', #41, 39.37007874015748143 ) ;
#114 = ORIENTED_EDGE ( 'NONE', *, *, #37, .T. ) ;
#115 = STYLED_ITEM ( 'NONE', ( #224 ), #193 ) ;
#116 = PLANE ( 'NONE',  #290 ) ;
#117 = EDGE_LOOP ( 'NONE', ( #96, #75, #72, #260 ) ) ;
#118 = EDGE_CURVE ( 'NONE', #215, #94, #173, .T. ) ;
#119 = PRODUCT_DEFINITION_SHAPE ( 'NONE', 'NONE',  #297 ) ;
#120 = CARTESIAN_POINT ( 'NONE',  ( 0.000000000000000000, 0.7499999999999998890, 0.000000000000000000 ) ) ;
#121 = ORIENTED_EDGE ( 'NONE', *, *, #69, .T. ) ;
#122 = CARTESIAN_POINT ( 'NONE',  ( 2.296212748401287726E-17, 0.000000000000000000, 0.1875000000000000278 ) ) ;
#123 = DIRECTION ( 'NONE',  ( 3.498990854706726443E-17, 1.000000000000000000, -0.000000000000000000 ) ) ;
#124 = AXIS2_PLACEMENT_3D ( 'NONE', #70, #111, #258 ) ;
#125 = FILL_AREA_STYLE ('',( #279 ) ) ;
#126 = MECHANICAL_DESIGN_GEOMETRIC_PRESENTATION_REPRESENTATION (  '', ( #115 ), #223 ) ;
#127 = DIRECTION ( 'NONE',  ( -0.000000000000000000, -1.000000000000000000, -0.000000000000000000 ) ) ;
#128 = ADVANCED_FACE ( 'NONE', ( #300 ), #116, .F. ) ;
#129 =( NAMED_UNIT ( * ) PLANE_ANGLE_UNIT ( ) SI_UNIT ( $, .RADIAN. ) );
#130 =( NAMED_UNIT ( * ) PLANE_ANGLE_UNIT ( ) SI_UNIT ( $, .RADIAN. ) );
#131 =( CONVERSION_BASED_UNIT ( 'INCH', #293 ) LENGTH_UNIT ( ) NAMED_UNIT ( #30 ) );
#132 = CARTESIAN_POINT ( 'NONE',  ( 0.000000000000000000, 0.000000000000000000, 0.000000000000000000 ) ) ;
#133 = MECHANICAL_DESIGN_GEOMETRIC_PRESENTATION_REPRESENTATION (  '', ( #16 ), #109 ) ;
#134 = SURFACE_STYLE_USAGE ( .BOTH. , #159 ) ;
#135 = DIRECTION ( 'NONE',  ( -0.000000000000000000, -1.000000000000000000, -0.000000000000000000 ) ) ;
#136 = CLOSED_SHELL ( 'NONE', ( #220, #271, #139, #206 ) ) ;
#137 = STYLED_ITEM ( 'NONE', ( #81 ), #220 ) ;
#138 = FILL_AREA_STYLE ('',( #141 ) ) ;
#139 = ADVANCED_FACE ( 'NONE', ( #259 ), #140, .T. ) ;
#140 = CYLINDRICAL_SURFACE ( 'NONE', #285, 0.1875000000000000278 ) ;
#141 = FILL_AREA_STYLE_COLOUR ( '', #298 ) ;
#142 = EDGE_LOOP ( 'NONE', ( #196, #264 ) ) ;
#143 = ORIENTED_EDGE ( 'NONE', *, *, #103, .T. ) ;
#144 = CARTESIAN_POINT ( 'NONE',  ( 0.000000000000000000, 0.000000000000000000, 0.000000000000000000 ) ) ;
#145 = FACE_OUTER_BOUND ( 'NONE', #286, .T. ) ;
#146 = AXIS2_PLACEMENT_3D ( 'NONE', #25, #123, #67 ) ;
#147 =( GEOMETRIC_REPRESENTATION_CONTEXT ( 3 ) GLOBAL_UNCERTAINTY_ASSIGNED_CONTEXT ( ( #178 ) ) GLOBAL_UNIT_ASSIGNED_CONTEXT ( ( #131, #129, #177 ) ) REPRESENTATION_CONTEXT ( 'NONE', 'WORKASPACE' ) );
#148 =( NAMED_UNIT ( * ) PLANE_ANGLE_UNIT ( ) SI_UNIT ( $, .RADIAN. ) );
#149 = APPLICATION_PROTOCOL_DEFINITION ( 'draft international standard', 'automotive_design', 1998, #154 ) ;
#150 = CARTESIAN_POINT ( 'NONE',  ( -0.1875000000000000278, 0.7499999999999998890, 0.000000000000000000 ) ) ;
#151 =( CONVERSION_BASED_UNIT ( 'INCH', #34 ) LENGTH_UNIT ( ) NAMED_UNIT ( #234 ) );
#152 = COLOUR_RGB ( '',1.000000000000000000, 0.000000000000000000, 0.000000000000000000 ) ;
#153 = AXIS2_PLACEMENT_3D ( 'NONE', #160, #85, #190 ) ;
#154 = APPLICATION_CONTEXT ( 'automotive_design' ) ;
#155 = LINE ( 'NONE', #44, #276 ) ;
#156 = DIRECTION ( 'NONE',  ( -3.498990854706726443E-17, -1.000000000000000000, 0.000000000000000000 ) ) ;
#157 =( NAMED_UNIT ( * ) SI_UNIT ( $, .STERADIAN. ) SOLID_ANGLE_UNIT ( ) );
#158 = COLOUR_RGB ( '',1.000000000000000000, 0.000000000000000000, 0.000000000000000000 ) ;
#159 = SURFACE_SIDE_STYLE ('',( #253 ) ) ;
#160 = CARTESIAN_POINT ( 'NONE',  ( 6.123233995736772199E-17, 2.500000000000000000, 0.000000000000000000 ) ) ;
#161 = DIRECTION ( 'NONE',  ( 0.000000000000000000, 0.000000000000000000, -1.000000000000000000 ) ) ;
#162 = EDGE_CURVE ( 'NONE', #308, #217, #270, .T. ) ;
#163 = ORIENTED_EDGE ( 'NONE', *, *, #162, .F. ) ;
#164 =( NAMED_UNIT ( * ) SI_UNIT ( $, .STERADIAN. ) SOLID_ANGLE_UNIT ( ) );
#165 = LENGTH_MEASURE_WITH_UNIT ( LENGTH_MEASURE( 0.02539999999999999897 ), #49 );
#166 = ORIENTED_EDGE ( 'NONE', *, *, #231, .F. ) ;
#167 = STYLED_ITEM ( 'NONE', ( #76 ), #271 ) ;
#168 =( NAMED_UNIT ( * ) SI_UNIT ( $, .STERADIAN. ) SOLID_ANGLE_UNIT ( ) );
#169 = ORIENTED_EDGE ( 'NONE', *, *, #37, .F. ) ;
#170 = FILL_AREA_STYLE ('',( #309 ) ) ;
#171 = ORIENTED_EDGE ( 'NONE', *, *, #46, .F. ) ;
#172 = LENGTH_MEASURE_WITH_UNIT ( LENGTH_MEASURE( 0.02539999999999999897 ), #97 );
#173 = CIRCLE ( 'NONE', #214, 0.1874999999999999445 ) ;
#174 = SURFACE_SIDE_STYLE ('',( #306 ) ) ;
#175 =( NAMED_UNIT ( * ) SI_UNIT ( $, .STERADIAN. ) SOLID_ANGLE_UNIT ( ) );
#176 = ADVANCED_BREP_SHAPE_REPRESENTATION ( '81559', ( #83, #193, #198 ), #147 ) ;
#177 =( NAMED_UNIT ( * ) SI_UNIT ( $, .STERADIAN. ) SOLID_ANGLE_UNIT ( ) );
#178 = UNCERTAINTY_MEASURE_WITH_UNIT (LENGTH_MEASURE( 1.000000000000000082E-05 ), #131, 'distance_accuracy_value', 'NONE');
#179 = DIRECTION ( 'NONE',  ( 3.498990854706726443E-17, 1.000000000000000000, -0.000000000000000000 ) ) ;
#180 = CIRCLE ( 'NONE', #184, 0.1875000000000000278 ) ;
#181 = DIRECTION ( 'NONE',  ( 0.000000000000000000, 1.000000000000000000, 0.000000000000000000 ) ) ;
#182 = EDGE_CURVE ( 'NONE', #194, #242, #24, .T. ) ;
#183 = DIMENSIONAL_EXPONENTS ( 1.000000000000000000, 0.000000000000000000, 0.000000000000000000, 0.000000000000000000, 0.000000000000000000, 0.000000000000000000, 0.000000000000000000 ) ;
#184 = AXIS2_PLACEMENT_3D ( 'NONE', #105, #56, #232 ) ;
#185 = DIRECTION ( 'NONE',  ( 3.498990854706726443E-17, 1.000000000000000000, -0.000000000000000000 ) ) ;
#186 = PRESENTATION_STYLE_ASSIGNMENT (( #134 ) ) ;
#187 = DIRECTION ( 'NONE',  ( 0.000000000000000000, 0.000000000000000000, -1.000000000000000000 ) ) ;
#188 = DIRECTION ( 'NONE',  ( -1.000000000000000000, 0.000000000000000000, 0.000000000000000000 ) ) ;
#189 = MECHANICAL_DESIGN_GEOMETRIC_PRESENTATION_REPRESENTATION (  '', ( #137 ), #262 ) ;
#190 = DIRECTION ( 'NONE',  ( -1.000000000000000000, 0.000000000000000000, 0.000000000000000000 ) ) ;
#191 = PRODUCT_RELATED_PRODUCT_CATEGORY ( 'part', '', ( #1 ) ) ;
#192 = CARTESIAN_POINT ( 'NONE',  ( 0.000000000000000000, 0.000000000000000000, 0.000000000000000000 ) ) ;
#193 = MANIFOLD_SOLID_BREP ( 'Revolve - Tool Body (Straight Shanked)', #106 ) ;
#194 = VERTEX_POINT ( 'NONE', #249 ) ;
#195 = APPLICATION_CONTEXT ( 'automotive_design' ) ;
#196 = ORIENTED_EDGE ( 'NONE', *, *, #246, .T. ) ;
#197 = ORIENTED_EDGE ( 'NONE', *, *, #46, .T. ) ;
#198 = AXIS2_PLACEMENT_3D ( 'NONE', #104, #247, #267 ) ;
#199 =( CONVERSION_BASED_UNIT ( 'INCH', #165 ) LENGTH_UNIT ( ) NAMED_UNIT ( #11 ) );
#200 = EDGE_LOOP ( 'NONE', ( #95, #143 ) ) ;
#201 =( NAMED_UNIT ( * ) PLANE_ANGLE_UNIT ( ) SI_UNIT ( $, .RADIAN. ) );
#202 = UNCERTAINTY_MEASURE_WITH_UNIT (LENGTH_MEASURE( 1.000000000000000082E-05 ), #62, 'distance_accuracy_value', 'NONE');
#203 = DIRECTION ( 'NONE',  ( 0.000000000000000000, -0.000000000000000000, 1.000000000000000000 ) ) ;
#204 = SURFACE_STYLE_FILL_AREA ( #40 ) ;
#205 = SURFACE_STYLE_USAGE ( .BOTH. , #59 ) ;
#206 = ADVANCED_FACE ( 'NONE', ( #252 ), #307, .T. ) ;
#207 = PRODUCT_CONTEXT ( 'NONE', #154, 'mechanical' ) ;
#208 = AXIS2_PLACEMENT_3D ( 'NONE', #192, #280, #161 ) ;
#209 = FACE_OUTER_BOUND ( 'NONE', #117, .T. ) ;
#210 = LENGTH_MEASURE_WITH_UNIT ( LENGTH_MEASURE( 0.02539999999999999897 ), #272 );
#211 = AXIS2_PLACEMENT_3D ( 'NONE', #120, #26, #218 ) ;
#212 = CARTESIAN_POINT ( 'NONE',  ( 6.123233995736772199E-17, 2.500000000000000000, 0.000000000000000000 ) ) ;
#213 = SURFACE_STYLE_FILL_AREA ( #112 ) ;
#214 = AXIS2_PLACEMENT_3D ( 'NONE', #212, #20, #188 ) ;
#215 = VERTEX_POINT ( 'NONE', #99 ) ;
#216 = CARTESIAN_POINT ( 'NONE',  ( 0.1875000000000000278, 2.500000000000000000, 0.000000000000000000 ) ) ;
#217 = VERTEX_POINT ( 'NONE', #150 ) ;
#218 = DIRECTION ( 'NONE',  ( -1.000000000000000000, 0.000000000000000000, 0.000000000000000000 ) ) ;
#219 = VERTEX_POINT ( 'NONE', #273 ) ;
#220 = ADVANCED_FACE ( 'NONE', ( #209 ), #230, .T. ) ;
#221 = MECHANICAL_DESIGN_GEOMETRIC_PRESENTATION_REPRESENTATION (  '', ( #266 ), #255 ) ;
#222 = EDGE_LOOP ( 'NONE', ( #166, #163 ) ) ;
#223 =( GEOMETRIC_REPRESENTATION_CONTEXT ( 3 ) GLOBAL_UNCERTAINTY_ASSIGNED_CONTEXT ( ( #82 ) ) GLOBAL_UNIT_ASSIGNED_CONTEXT ( ( #98, #77, #175 ) ) REPRESENTATION_CONTEXT ( 'NONE', 'WORKASPACE' ) );
#224 = PRESENTATION_STYLE_ASSIGNMENT (( #265 ) ) ;
#225 = SURFACE_STYLE_FILL_AREA ( #170 ) ;
#226 = CIRCLE ( 'NONE', #291, 0.1875000000000000278 ) ;
#227 = CARTESIAN_POINT ( 'NONE',  ( 0.000000000000000000, 0.7500000000000001110, 0.000000000000000000 ) ) ;
#228 = DIRECTION ( 'NONE',  ( 0.000000000000000000, 0.000000000000000000, -1.000000000000000000 ) ) ;
#229 =( LENGTH_UNIT ( ) NAMED_UNIT ( * ) SI_UNIT ( $, .METRE. ) );
#230 = CYLINDRICAL_SURFACE ( 'NONE', #296, 0.1875000000000000278 ) ;
#231 = EDGE_CURVE ( 'NONE', #217, #308, #180, .T. ) ;
#232 = DIRECTION ( 'NONE',  ( -1.000000000000000000, 0.000000000000000000, 0.000000000000000000 ) ) ;
#233 = MECHANICAL_DESIGN_GEOMETRIC_PRESENTATION_REPRESENTATION (  '', ( #100 ), #299 ) ;
#234 = DIMENSIONAL_EXPONENTS ( 1.000000000000000000, 0.000000000000000000, 0.000000000000000000, 0.000000000000000000, 0.000000000000000000, 0.000000000000000000, 0.000000000000000000 ) ;
#235 = PRODUCT_DEFINITION_FORMATION_WITH_SPECIFIED_SOURCE ( 'ANY', '', #1, .NOT_KNOWN. ) ;
#236 =( CONVERSION_BASED_UNIT ( 'INCH', #110 ) LENGTH_UNIT ( ) NAMED_UNIT ( #57 ) );
#237 = FACE_OUTER_BOUND ( 'NONE', #222, .T. ) ;
#238 = EDGE_CURVE ( 'NONE', #73, #242, #89, .T. ) ;
#239 = FILL_AREA_STYLE_COLOUR ( '', #152 ) ;
#240 = AXIS2_PLACEMENT_3D ( 'NONE', #31, #179, #55 ) ;
#241 = ORIENTED_EDGE ( 'NONE', *, *, #246, .F. ) ;
#242 = VERTEX_POINT ( 'NONE', #275 ) ;
#243 = CYLINDRICAL_SURFACE ( 'NONE', #146, 0.1874999999999999722 ) ;
#244 = DIRECTION ( 'NONE',  ( -0.000000000000000000, -1.000000000000000000, -0.000000000000000000 ) ) ;
#245 = AXIS2_PLACEMENT_3D ( 'NONE', #65, #78, #250 ) ;
#246 = EDGE_CURVE ( 'NONE', #94, #215, #256, .T. ) ;
#247 = DIRECTION ( 'NONE',  ( 0.000000000000000000, 0.000000000000000000, 1.000000000000000000 ) ) ;
#248 =( GEOMETRIC_REPRESENTATION_CONTEXT ( 3 ) GLOBAL_UNCERTAINTY_ASSIGNED_CONTEXT ( ( #107 ) ) GLOBAL_UNIT_ASSIGNED_CONTEXT ( ( #282, #201, #164 ) ) REPRESENTATION_CONTEXT ( 'NONE', 'WORKASPACE' ) );
#249 = CARTESIAN_POINT ( 'NONE',  ( 2.296212748401287726E-17, 0.7500000000000001110, 0.1875000000000000278 ) ) ;
#250 = DIRECTION ( 'NONE',  ( 0.000000000000000000, 0.000000000000000000, -1.000000000000000000 ) ) ;
#251 = FILL_AREA_STYLE ('',( #36 ) ) ;
#252 = FACE_OUTER_BOUND ( 'NONE', #200, .T. ) ;
#253 = SURFACE_STYLE_FILL_AREA ( #138 ) ;
#254 = CARTESIAN_POINT ( 'NONE',  ( 0.000000000000000000, 0.7500000000000001110, 0.000000000000000000 ) ) ;
#255 =( GEOMETRIC_REPRESENTATION_CONTEXT ( 3 ) GLOBAL_UNCERTAINTY_ASSIGNED_CONTEXT ( ( #79 ) ) GLOBAL_UNIT_ASSIGNED_CONTEXT ( ( #236, #108, #157 ) ) REPRESENTATION_CONTEXT ( 'NONE', 'WORKASPACE' ) );
#256 = CIRCLE ( 'NONE', #153, 0.1874999999999999445 ) ;
#257 = UNCERTAINTY_MEASURE_WITH_UNIT (LENGTH_MEASURE( 1.000000000000000082E-05 ), #151, 'distance_accuracy_value', 'NONE');
#258 = DIRECTION ( 'NONE',  ( 0.000000000000000000, 0.000000000000000000, -1.000000000000000000 ) ) ;
#259 = FACE_OUTER_BOUND ( 'NONE', #305, .T. ) ;
#260 = ORIENTED_EDGE ( 'NONE', *, *, #69, .F. ) ;
#261 = VECTOR ( 'NONE', #135, 39.37007874015748143 ) ;
#262 =( GEOMETRIC_REPRESENTATION_CONTEXT ( 3 ) GLOBAL_UNCERTAINTY_ASSIGNED_CONTEXT ( ( #202 ) ) GLOBAL_UNIT_ASSIGNED_CONTEXT ( ( #62, #148, #294 ) ) REPRESENTATION_CONTEXT ( 'NONE', 'WORKASPACE' ) );
#263 = ORIENTED_EDGE ( 'NONE', *, *, #118, .F. ) ;
#264 = ORIENTED_EDGE ( 'NONE', *, *, #118, .T. ) ;
#265 = SURFACE_STYLE_USAGE ( .BOTH. , #74 ) ;
#266 = STYLED_ITEM ( 'NONE', ( #186 ), #83 ) ;
#267 = DIRECTION ( 'NONE',  ( 1.000000000000000000, 0.000000000000000000, 0.000000000000000000 ) ) ;
#268 = DIRECTION ( 'NONE',  ( -0.000000000000000000, -1.000000000000000000, -0.000000000000000000 ) ) ;
#269 = PRODUCT_DEFINITION_CONTEXT ( 'detailed design', #195, 'design' ) ;
#270 = CIRCLE ( 'NONE', #211, 0.1875000000000000278 ) ;
#271 = ADVANCED_FACE ( 'NONE', ( #301 ), #84, .T. ) ;
#272 =( LENGTH_UNIT ( ) NAMED_UNIT ( * ) SI_UNIT ( $, .METRE. ) );
#273 = CARTESIAN_POINT ( 'NONE',  ( 0.000000000000000000, 0.7500000000000001110, -0.1875000000000000278 ) ) ;
#274 = CARTESIAN_POINT ( 'NONE',  ( 0.000000000000000000, 0.000000000000000000, -0.1875000000000000278 ) ) ;
#275 = CARTESIAN_POINT ( 'NONE',  ( 2.296212748401287726E-17, 0.000000000000000000, 0.1875000000000000278 ) ) ;
#276 = VECTOR ( 'NONE', #185, 39.37007874015748143 ) ;
#277 = PRESENTATION_LAYER_ASSIGNMENT (  '', '', ( #167 ) ) ;
#278 = DIRECTION ( 'NONE',  ( 1.000000000000000000, -3.498990854706726443E-17, 0.000000000000000000 ) ) ;
#279 = FILL_AREA_STYLE_COLOUR ( '', #158 ) ;
#280 = DIRECTION ( 'NONE',  ( -0.000000000000000000, -1.000000000000000000, -0.000000000000000000 ) ) ;
#281 = EDGE_LOOP ( 'NONE', ( #169, #21, #283, #263 ) ) ;
#282 =( CONVERSION_BASED_UNIT ( 'INCH', #92 ) LENGTH_UNIT ( ) NAMED_UNIT ( #63 ) );
#283 = ORIENTED_EDGE ( 'NONE', *, *, #51, .T. ) ;
#284 = SURFACE_STYLE_USAGE ( .BOTH. , #52 ) ;
#285 = AXIS2_PLACEMENT_3D ( 'NONE', #144, #244, #22 ) ;
#286 = EDGE_LOOP ( 'NONE', ( #91, #114, #241, #50 ) ) ;
#287 =( NAMED_UNIT ( * ) PLANE_ANGLE_UNIT ( ) SI_UNIT ( $, .RADIAN. ) );
#288 = ORIENTED_EDGE ( 'NONE', *, *, #87, .F. ) ;
#289 = ADVANCED_FACE ( 'NONE', ( #35 ), #2, .T. ) ;
#290 = AXIS2_PLACEMENT_3D ( 'NONE', #216, #156, #278 ) ;
#291 = AXIS2_PLACEMENT_3D ( 'NONE', #254, #90, #187 ) ;
#292 = COLOUR_RGB ( '',1.000000000000000000, 0.000000000000000000, 0.000000000000000000 ) ;
#293 = LENGTH_MEASURE_WITH_UNIT ( LENGTH_MEASURE( 0.02539999999999999897 ), #101 );
#294 =( NAMED_UNIT ( * ) SI_UNIT ( $, .STERADIAN. ) SOLID_ANGLE_UNIT ( ) );
#295 =( NAMED_UNIT ( * ) SI_UNIT ( $, .STERADIAN. ) SOLID_ANGLE_UNIT ( ) );
#296 = AXIS2_PLACEMENT_3D ( 'NONE', #132, #268, #7 ) ;
#297 = PRODUCT_DEFINITION ( 'UNKNOWN', '', #235, #269 ) ;
#298 = COLOUR_RGB ( '',0.7921568627450980005, 0.8196078431372548767, 0.9333333333333333481 ) ;
#299 =( GEOMETRIC_REPRESENTATION_CONTEXT ( 3 ) GLOBAL_UNCERTAINTY_ASSIGNED_CONTEXT ( ( #257 ) ) GLOBAL_UNIT_ASSIGNED_CONTEXT ( ( #151, #130, #295 ) ) REPRESENTATION_CONTEXT ( 'NONE', 'WORKASPACE' ) );
#300 = FACE_OUTER_BOUND ( 'NONE', #142, .T. ) ;
#301 = FACE_OUTER_BOUND ( 'NONE', #304, .T. ) ;
#302 = LINE ( 'NONE', #274, #261 ) ;
#303 = CIRCLE ( 'NONE', #124, 0.1875000000000000278 ) ;
#304 = EDGE_LOOP ( 'NONE', ( #288, #171 ) ) ;
#305 = EDGE_LOOP ( 'NONE', ( #23, #197, #121, #48 ) ) ;
#306 = SURFACE_STYLE_FILL_AREA ( #125 ) ;
#307 = PLANE ( 'NONE',  #245 ) ;
#308 = VERTEX_POINT ( 'NONE', #5 ) ;
#309 = FILL_AREA_STYLE_COLOUR ( '', #4 ) ;
ENDSEC;
END-ISO-10303-21;
