ISO-10303-21;
HEADER;
FILE_DESCRIPTION (( 'STEP AP214' ),
    '1' );
FILE_NAME ('Micro_RMEM-003-2.STEP',
    '2021-09-01T23:31:51',
    ( '' ),
    ( '' ),
    'SwSTEP 2.0',
    'SolidWorks 2020',
    '' );
FILE_SCHEMA (( 'AUTOMOTIVE_DESIGN' ));
ENDSEC;

DATA;
#1 =( NAMED_UNIT ( * ) PLANE_ANGLE_UNIT ( ) SI_UNIT ( $, .RADIAN. ) );
#2 = DIRECTION ( 'NONE',  ( 0.0000000000000000000, 0.0000000000000000000, -1.000000000000000000 ) ) ;
#3 = UNCERTAINTY_MEASURE_WITH_UNIT (LENGTH_MEASURE( 1.000000000000000082E-05 ), #194, 'distance_accuracy_value', 'NONE');
#4 = MECHANICAL_DESIGN_GEOMETRIC_PRESENTATION_REPRESENTATION (  '', ( #28 ), #18 ) ;
#5 = CARTESIAN_POINT ( 'NONE',  ( 0.0000000000000000000, 0.0000000000000000000, 1.496062999999999921 ) ) ;
#6 = DIRECTION ( 'NONE',  ( 1.000000000000000000, 0.0000000000000000000, 0.0000000000000000000 ) ) ;
#7 = ADVANCED_FACE ( 'NONE', ( #62 ), #131, .T. ) ;
#8 = EDGE_CURVE ( 'NONE', #223, #57, #231, .T. ) ;
#9 =( NAMED_UNIT ( * ) SI_UNIT ( $, .STERADIAN. ) SOLID_ANGLE_UNIT ( ) );
#10 = VERTEX_POINT ( 'NONE', #139 ) ;
#11 = FILL_AREA_STYLE ('',( #285 ) ) ;
#12 = ORIENTED_EDGE ( 'NONE', *, *, #193, .T. ) ;
#13 = SURFACE_STYLE_USAGE ( .BOTH. , #77 ) ;
#14 = VERTEX_POINT ( 'NONE', #160 ) ;
#15 = ORIENTED_EDGE ( 'NONE', *, *, #67, .F. ) ;
#16 = ORIENTED_EDGE ( 'NONE', *, *, #293, .T. ) ;
#17 = CARTESIAN_POINT ( 'NONE',  ( 8.847974565113086337E-35, 0.0000000000000000000, 7.224919520692325644E-19 ) ) ;
#18 =( GEOMETRIC_REPRESENTATION_CONTEXT ( 3 ) GLOBAL_UNCERTAINTY_ASSIGNED_CONTEXT ( ( #3 ) ) GLOBAL_UNIT_ASSIGNED_CONTEXT ( ( #194, #174, #263 ) ) REPRESENTATION_CONTEXT ( 'NONE', 'WORKASPACE' ) );
#19 = SURFACE_STYLE_USAGE ( .BOTH. , #228 ) ;
#20 = CARTESIAN_POINT ( 'NONE',  ( 0.04405499999999973326, 6.313666573004162521E-18, 1.496062999999999921 ) ) ;
#21 = DIRECTION ( 'NONE',  ( -1.000000000000000000, 0.0000000000000000000, 1.224646799147352961E-16 ) ) ;
#22 = DIRECTION ( 'NONE',  ( 1.000000000000000000, 0.0000000000000000000, -0.0000000000000000000 ) ) ;
#23 = DIRECTION ( 'NONE',  ( 1.000000000000000000, 0.0000000000000000000, 0.0000000000000000000 ) ) ;
#24 = AXIS2_PLACEMENT_3D ( 'NONE', #120, #235, #252 ) ;
#25 = CYLINDRICAL_SURFACE ( 'NONE', #70, 0.05905500000000000332 ) ;
#26 = ADVANCED_BREP_SHAPE_REPRESENTATION ( 'Micro_RMEM-003-2', ( #127, #134 ), #216 ) ;
#27 = ORIENTED_EDGE ( 'NONE', *, *, #103, .T. ) ;
#28 = STYLED_ITEM ( 'NONE', ( #261 ), #26 ) ;
#29 = DIRECTION ( 'NONE',  ( 1.000000000000000000, 0.0000000000000000000, 0.0000000000000000000 ) ) ;
#30 = EDGE_LOOP ( 'NONE', ( #221, #32, #12, #85 ) ) ;
#31 = ORIENTED_EDGE ( 'NONE', *, *, #193, .F. ) ;
#32 = ORIENTED_EDGE ( 'NONE', *, *, #103, .F. ) ;
#33 = ORIENTED_EDGE ( 'NONE', *, *, #67, .T. ) ;
#34 = PRODUCT ( 'Micro_RMEM-003-2', 'Micro_RMEM-003-2', '', ( #192 ) ) ;
#35 = CYLINDRICAL_SURFACE ( 'NONE', #209, 0.005899594499999998194 ) ;
#36 = DIRECTION ( 'NONE',  ( -0.0000000000000000000, -0.0000000000000000000, -1.000000000000000000 ) ) ;
#37 = ADVANCED_FACE ( 'NONE', ( #292 ), #251, .F. ) ;
#38 = VECTOR ( 'NONE', #202, 39.37007874015747433 ) ;
#39 = FACE_OUTER_BOUND ( 'NONE', #60, .T. ) ;
#40 = AXIS2_PLACEMENT_3D ( 'NONE', #72, #94, #49 ) ;
#41 = PRODUCT_DEFINITION_CONTEXT ( 'detailed design', #270, 'design' ) ;
#42 = FILL_AREA_STYLE_COLOUR ( '', #129 ) ;
#43 = CARTESIAN_POINT ( 'NONE',  ( -0.05905500000000000332, 0.0000000000000000000, 1.496062999999999921 ) ) ;
#44 = DIRECTION ( 'NONE',  ( -1.224646799147353207E-16, -0.0000000000000000000, -1.000000000000000000 ) ) ;
#45 = AXIS2_PLACEMENT_3D ( 'NONE', #90, #203, #88 ) ;
#46 = ADVANCED_FACE ( 'NONE', ( #177 ), #259, .T. ) ;
#47 = CARTESIAN_POINT ( 'NONE',  ( 0.005899594499999998194, 7.224919520692327570E-19, -7.224919520692327570E-19 ) ) ;
#48 = DIRECTION ( 'NONE',  ( 0.7071067811865482389, 8.659560562354941486E-17, -0.7071067811865469066 ) ) ;
#49 = DIRECTION ( 'NONE',  ( 1.000000000000000000, 0.0000000000000000000, 0.0000000000000000000 ) ) ;
#50 = EDGE_CURVE ( 'NONE', #10, #266, #66, .T. ) ;
#51 = VECTOR ( 'NONE', #295, 39.37007874015748143 ) ;
#52 = PLANE ( 'NONE',  #278 ) ;
#53 =( LENGTH_UNIT ( ) NAMED_UNIT ( * ) SI_UNIT ( $, .METRE. ) );
#54 = VERTEX_POINT ( 'NONE', #20 ) ;
#55 = ADVANCED_FACE ( 'NONE', ( #113 ), #35, .T. ) ;
#56 = AXIS2_PLACEMENT_3D ( 'NONE', #117, #2, #148 ) ;
#57 = VERTEX_POINT ( 'NONE', #178 ) ;
#58 = ORIENTED_EDGE ( 'NONE', *, *, #280, .F. ) ;
#59 =( NAMED_UNIT ( * ) PLANE_ANGLE_UNIT ( ) SI_UNIT ( $, .RADIAN. ) );
#60 = EDGE_LOOP ( 'NONE', ( #286, #262, #268, #219 ) ) ;
#61 = DIRECTION ( 'NONE',  ( -1.000000000000000000, 0.0000000000000000000, 1.224646799147352961E-16 ) ) ;
#62 = FACE_OUTER_BOUND ( 'NONE', #198, .T. ) ;
#63 = LINE ( 'NONE', #212, #215 ) ;
#64 = AXIS2_PLACEMENT_3D ( 'NONE', #214, #220, #237 ) ;
#65 = CARTESIAN_POINT ( 'NONE',  ( 4.339291003418816329E-18, 0.0000000000000000000, 0.03543299999999999922 ) ) ;
#66 = LINE ( 'NONE', #43, #119 ) ;
#67 = EDGE_CURVE ( 'NONE', #57, #223, #246, .T. ) ;
#68 = COLOUR_RGB ( '',0.7921568627450980005, 0.8196078431372548767, 0.9333333333333333481 ) ;
#69 = CARTESIAN_POINT ( 'NONE',  ( 0.0000000000000000000, 0.0000000000000000000, 1.496062999999999921 ) ) ;
#70 = AXIS2_PLACEMENT_3D ( 'NONE', #5, #118, #165 ) ;
#71 = CARTESIAN_POINT ( 'NONE',  ( 0.005899594499999997327, 7.224919520692327570E-19, 0.0000000000000000000 ) ) ;
#72 = CARTESIAN_POINT ( 'NONE',  ( 0.0000000000000000000, 0.0000000000000000000, 1.496062999999999921 ) ) ;
#73 = FACE_OUTER_BOUND ( 'NONE', #153, .T. ) ;
#74 = UNCERTAINTY_MEASURE_WITH_UNIT (LENGTH_MEASURE( 1.000000000000000082E-05 ), #210, 'distance_accuracy_value', 'NONE');
#75 = SHAPE_DEFINITION_REPRESENTATION ( #225, #26 ) ;
#76 = ORIENTED_EDGE ( 'NONE', *, *, #239, .T. ) ;
#77 = SURFACE_SIDE_STYLE ('',( #104 ) ) ;
#78 = ORIENTED_EDGE ( 'NONE', *, *, #82, .T. ) ;
#79 = EDGE_CURVE ( 'NONE', #243, #266, #158, .T. ) ;
#80 = ORIENTED_EDGE ( 'NONE', *, *, #244, .T. ) ;
#81 = AXIS2_PLACEMENT_3D ( 'NONE', #163, #144, #6 ) ;
#82 = EDGE_CURVE ( 'NONE', #175, #238, #91, .T. ) ;
#83 = AXIS2_PLACEMENT_3D ( 'NONE', #17, #111, #61 ) ;
#84 = LINE ( 'NONE', #218, #273 ) ;
#85 = ORIENTED_EDGE ( 'NONE', *, *, #211, .T. ) ;
#86 = LINE ( 'NONE', #291, #51 ) ;
#87 = VECTOR ( 'NONE', #236, 39.37007874015748143 ) ;
#88 = DIRECTION ( 'NONE',  ( 1.000000000000000000, 0.0000000000000000000, -0.0000000000000000000 ) ) ;
#89 = DIMENSIONAL_EXPONENTS ( 1.000000000000000000, 0.0000000000000000000, 0.0000000000000000000, 0.0000000000000000000, 0.0000000000000000000, 0.0000000000000000000, 0.0000000000000000000 ) ;
#90 = CARTESIAN_POINT ( 'NONE',  ( 0.0000000000000000000, 0.0000000000000000000, 0.0000000000000000000 ) ) ;
#91 = LINE ( 'NONE', #230, #249 ) ;
#92 = CONICAL_SURFACE ( 'NONE', #99, 0.04405499999999973326, 0.7853981633974491672 ) ;
#93 = CARTESIAN_POINT ( 'NONE',  ( 0.05905500000000000332, 7.232151672364695422E-18, 1.481062999999999574 ) ) ;
#94 = DIRECTION ( 'NONE',  ( 0.0000000000000000000, 0.0000000000000000000, 1.000000000000000000 ) ) ;
#95 = CARTESIAN_POINT ( 'NONE',  ( -0.05905499999999996169, 0.0000000000000000000, 0.3368922848265556436 ) ) ;
#96 = LINE ( 'NONE', #47, #213 ) ;
#97 = CARTESIAN_POINT ( 'NONE',  ( 4.339291003418816329E-18, 0.0000000000000000000, 0.03543299999999999922 ) ) ;
#98 = DIRECTION ( 'NONE',  ( 0.0000000000000000000, 0.0000000000000000000, 1.000000000000000000 ) ) ;
#99 = AXIS2_PLACEMENT_3D ( 'NONE', #271, #250, #176 ) ;
#100 =( GEOMETRIC_REPRESENTATION_CONTEXT ( 3 ) GLOBAL_UNCERTAINTY_ASSIGNED_CONTEXT ( ( #74 ) ) GLOBAL_UNIT_ASSIGNED_CONTEXT ( ( #210, #1, #282 ) ) REPRESENTATION_CONTEXT ( 'NONE', 'WORKASPACE' ) );
#101 = UNCERTAINTY_MEASURE_WITH_UNIT (LENGTH_MEASURE( 1.000000000000000082E-05 ), #106, 'distance_accuracy_value', 'NONE');
#102 =( LENGTH_UNIT ( ) NAMED_UNIT ( * ) SI_UNIT ( $, .METRE. ) );
#103 = EDGE_CURVE ( 'NONE', #150, #243, #146, .T. ) ;
#104 = SURFACE_STYLE_FILL_AREA ( #11 ) ;
#105 = ORIENTED_EDGE ( 'NONE', *, *, #164, .T. ) ;
#106 =( CONVERSION_BASED_UNIT ( 'INCH', #222 ) LENGTH_UNIT ( ) NAMED_UNIT ( #166 ) );
#107 = ORIENTED_EDGE ( 'NONE', *, *, #79, .T. ) ;
#108 = EDGE_LOOP ( 'NONE', ( #33, #242 ) ) ;
#109 = ORIENTED_EDGE ( 'NONE', *, *, #280, .T. ) ;
#110 = PRESENTATION_LAYER_ASSIGNMENT (  '', '', ( #28 ) ) ;
#111 = DIRECTION ( 'NONE',  ( -1.224646799147353207E-16, -0.0000000000000000000, -1.000000000000000000 ) ) ;
#112 = CARTESIAN_POINT ( 'NONE',  ( 8.847974565113086337E-35, 0.0000000000000000000, 7.224919520692325644E-19 ) ) ;
#113 = FACE_OUTER_BOUND ( 'NONE', #217, .T. ) ;
#114 = EDGE_CURVE ( 'NONE', #14, #10, #86, .T. ) ;
#115 = PRESENTATION_LAYER_ASSIGNMENT (  '', '', ( #298 ) ) ;
#116 = CARTESIAN_POINT ( 'NONE',  ( 0.0000000000000000000, 0.0000000000000000000, 1.496062999999999921 ) ) ;
#117 = CARTESIAN_POINT ( 'NONE',  ( 0.0000000000000000000, 0.0000000000000000000, 1.481062999999999574 ) ) ;
#118 = DIRECTION ( 'NONE',  ( -0.0000000000000000000, -0.0000000000000000000, -1.000000000000000000 ) ) ;
#119 = VECTOR ( 'NONE', #36, 39.37007874015748143 ) ;
#120 = CARTESIAN_POINT ( 'NONE',  ( 0.0000000000000000000, 0.0000000000000000000, 1.481062999999999574 ) ) ;
#121 = CLOSED_SHELL ( 'NONE', ( #167, #232, #125, #7, #156, #184, #288, #46, #55, #37 ) ) ;
#122 = EDGE_LOOP ( 'NONE', ( #154, #107, #109, #31 ) ) ;
#123 = MECHANICAL_DESIGN_GEOMETRIC_PRESENTATION_REPRESENTATION (  '', ( #298 ), #100 ) ;
#124 = CIRCLE ( 'NONE', #208, 0.05905500000000000332 ) ;
#125 = ADVANCED_FACE ( 'NONE', ( #39 ), #92, .T. ) ;
#126 = ORIENTED_EDGE ( 'NONE', *, *, #82, .F. ) ;
#127 = MANIFOLD_SOLID_BREP ( 'Cut-Revolve1', #121 ) ;
#128 = ORIENTED_EDGE ( 'NONE', *, *, #199, .T. ) ;
#129 = COLOUR_RGB ( '',0.7921568627450980005, 0.8196078431372548767, 0.9333333333333333481 ) ;
#130 = ORIENTED_EDGE ( 'NONE', *, *, #274, .T. ) ;
#131 = CYLINDRICAL_SURFACE ( 'NONE', #254, 0.05905500000000000332 ) ;
#132 = EDGE_CURVE ( 'NONE', #54, #175, #63, .T. ) ;
#133 = CARTESIAN_POINT ( 'NONE',  ( 4.339291003418816329E-18, 0.0000000000000000000, 0.03543299999999999922 ) ) ;
#134 = AXIS2_PLACEMENT_3D ( 'NONE', #240, #98, #29 ) ;
#135 = AXIS2_PLACEMENT_3D ( 'NONE', #112, #229, #21 ) ;
#136 = CONICAL_SURFACE ( 'NONE', #81, 0.005899594499999999062, 0.1745329251994338637 ) ;
#137 = PRODUCT_RELATED_PRODUCT_CATEGORY ( 'part', '', ( #34 ) ) ;
#138 = SURFACE_STYLE_FILL_AREA ( #297 ) ;
#139 = CARTESIAN_POINT ( 'NONE',  ( -0.05905500000000000332, 0.0000000000000000000, 1.481062999999999574 ) ) ;
#140 = CARTESIAN_POINT ( 'NONE',  ( 0.0000000000000000000, 0.0000000000000000000, 0.0000000000000000000 ) ) ;
#141 = DIRECTION ( 'NONE',  ( -1.000000000000000000, 0.0000000000000000000, 0.0000000000000000000 ) ) ;
#142 = DIMENSIONAL_EXPONENTS ( 1.000000000000000000, 0.0000000000000000000, 0.0000000000000000000, 0.0000000000000000000, 0.0000000000000000000, 0.0000000000000000000, 0.0000000000000000000 ) ;
#143 = CARTESIAN_POINT ( 'NONE',  ( -0.005899594499999994725, 3.977321812216963656E-18, 0.03543299999999999922 ) ) ;
#144 = DIRECTION ( 'NONE',  ( 1.224646799147353207E-16, 0.0000000000000000000, 1.000000000000000000 ) ) ;
#145 = DIRECTION ( 'NONE',  ( -1.224646799147353207E-16, -0.0000000000000000000, -1.000000000000000000 ) ) ;
#146 = CIRCLE ( 'NONE', #180, 0.005899594499999999062 ) ;
#147 = LINE ( 'NONE', #168, #87 ) ;
#148 = DIRECTION ( 'NONE',  ( 1.000000000000000000, 0.0000000000000000000, 0.0000000000000000000 ) ) ;
#149 = ORIENTED_EDGE ( 'NONE', *, *, #283, .F. ) ;
#150 = VERTEX_POINT ( 'NONE', #281 ) ;
#151 = CIRCLE ( 'NONE', #56, 0.05905500000000000332 ) ;
#152 = EDGE_LOOP ( 'NONE', ( #126, #157, #245, #284 ) ) ;
#153 = EDGE_LOOP ( 'NONE', ( #130, #76, #15, #290 ) ) ;
#154 = ORIENTED_EDGE ( 'NONE', *, *, #274, .F. ) ;
#155 = DIRECTION ( 'NONE',  ( -0.0000000000000000000, -0.0000000000000000000, -1.000000000000000000 ) ) ;
#156 = ADVANCED_FACE ( 'NONE', ( #207 ), #25, .T. ) ;
#157 = ORIENTED_EDGE ( 'NONE', *, *, #283, .T. ) ;
#158 = LINE ( 'NONE', #296, #38 ) ;
#159 = DIRECTION ( 'NONE',  ( -1.224646799147353207E-16, -0.0000000000000000000, -1.000000000000000000 ) ) ;
#160 = CARTESIAN_POINT ( 'NONE',  ( -0.04405499999999973326, 0.0000000000000000000, 1.496062999999999921 ) ) ;
#161 = DIRECTION ( 'NONE',  ( 0.0000000000000000000, 0.0000000000000000000, 1.000000000000000000 ) ) ;
#162 = CIRCLE ( 'NONE', #294, 0.04405499999999973326 ) ;
#163 = CARTESIAN_POINT ( 'NONE',  ( 4.339291003418816329E-18, 0.0000000000000000000, 0.03543299999999999922 ) ) ;
#164 = EDGE_CURVE ( 'NONE', #54, #14, #162, .T. ) ;
#165 = DIRECTION ( 'NONE',  ( -1.000000000000000000, 0.0000000000000000000, 0.0000000000000000000 ) ) ;
#166 = DIMENSIONAL_EXPONENTS ( 1.000000000000000000, 0.0000000000000000000, 0.0000000000000000000, 0.0000000000000000000, 0.0000000000000000000, 0.0000000000000000000, 0.0000000000000000000 ) ;
#167 = ADVANCED_FACE ( 'NONE', ( #73 ), #205, .T. ) ;
#168 = CARTESIAN_POINT ( 'NONE',  ( 0.005899594500000003398, 0.0000000000000000000, 0.03543299999999999922 ) ) ;
#169 = LENGTH_MEASURE_WITH_UNIT ( LENGTH_MEASURE( 0.02539999999999999897 ), #53 );
#170 = ORIENTED_EDGE ( 'NONE', *, *, #132, .F. ) ;
#171 = EDGE_LOOP ( 'NONE', ( #170, #287, #196, #149 ) ) ;
#172 = CIRCLE ( 'NONE', #195, 0.005899594499999999062 ) ;
#173 = ORIENTED_EDGE ( 'NONE', *, *, #8, .F. ) ;
#174 =( NAMED_UNIT ( * ) PLANE_ANGLE_UNIT ( ) SI_UNIT ( $, .RADIAN. ) );
#175 = VERTEX_POINT ( 'NONE', #93 ) ;
#176 = DIRECTION ( 'NONE',  ( -1.000000000000000000, 0.0000000000000000000, 0.0000000000000000000 ) ) ;
#177 = FACE_OUTER_BOUND ( 'NONE', #30, .T. ) ;
#178 = CARTESIAN_POINT ( 'NONE',  ( -0.005899594499999997327, 0.0000000000000000000, 1.444983904138465129E-18 ) ) ;
#179 = DIRECTION ( 'NONE',  ( 1.224646799147353207E-16, 0.0000000000000000000, 1.000000000000000000 ) ) ;
#180 = AXIS2_PLACEMENT_3D ( 'NONE', #65, #159, #200 ) ;
#181 =( LENGTH_UNIT ( ) NAMED_UNIT ( * ) SI_UNIT ( $, .METRE. ) );
#182 = DIRECTION ( 'NONE',  ( 1.000000000000000000, 0.0000000000000000000, 0.0000000000000000000 ) ) ;
#183 = DIRECTION ( 'NONE',  ( -1.000000000000000000, 0.0000000000000000000, 1.224646799147353207E-16 ) ) ;
#184 = ADVANCED_FACE ( 'NONE', ( #206 ), #52, .T. ) ;
#185 = AXIS2_PLACEMENT_3D ( 'NONE', #299, #187, #183 ) ;
#186 = PRODUCT_DEFINITION_FORMATION_WITH_SPECIFIED_SOURCE ( 'ANY', '', #34, .NOT_KNOWN. ) ;
#187 = DIRECTION ( 'NONE',  ( -1.224646799147353207E-16, -0.0000000000000000000, -1.000000000000000000 ) ) ;
#188 = PRODUCT_DEFINITION ( 'UNKNOWN', '', #186, #41 ) ;
#189 = LENGTH_MEASURE_WITH_UNIT ( LENGTH_MEASURE( 0.02539999999999999897 ), #181 );
#190 = APPLICATION_PROTOCOL_DEFINITION ( 'draft international standard', 'automotive_design', 1998, #197 ) ;
#191 = DIRECTION ( 'NONE',  ( -1.224646799147353207E-16, -0.0000000000000000000, -1.000000000000000000 ) ) ;
#192 = PRODUCT_CONTEXT ( 'NONE', #197, 'mechanical' ) ;
#193 = EDGE_CURVE ( 'NONE', #150, #238, #147, .T. ) ;
#194 =( CONVERSION_BASED_UNIT ( 'INCH', #169 ) LENGTH_UNIT ( ) NAMED_UNIT ( #142 ) );
#195 = AXIS2_PLACEMENT_3D ( 'NONE', #97, #44, #141 ) ;
#196 = ORIENTED_EDGE ( 'NONE', *, *, #114, .T. ) ;
#197 = APPLICATION_CONTEXT ( 'automotive_design' ) ;
#198 = EDGE_LOOP ( 'NONE', ( #80, #78, #58, #275 ) ) ;
#199 = EDGE_CURVE ( 'NONE', #14, #54, #265, .T. ) ;
#200 = DIRECTION ( 'NONE',  ( -1.000000000000000000, 0.0000000000000000000, 0.0000000000000000000 ) ) ;
#201 = CARTESIAN_POINT ( 'NONE',  ( 0.0000000000000000000, 0.0000000000000000000, 1.496062999999999921 ) ) ;
#202 = DIRECTION ( 'NONE',  ( -0.1736481776669311639, 2.126576849575783008E-17, 0.9848077530122080203 ) ) ;
#203 = DIRECTION ( 'NONE',  ( 0.0000000000000000000, 0.0000000000000000000, 1.000000000000000000 ) ) ;
#204 = PRESENTATION_STYLE_ASSIGNMENT (( #19 ) ) ;
#205 = CYLINDRICAL_SURFACE ( 'NONE', #185, 0.005899594499999998194 ) ;
#206 = FACE_OUTER_BOUND ( 'NONE', #224, .T. ) ;
#207 = FACE_OUTER_BOUND ( 'NONE', #152, .T. ) ;
#208 = AXIS2_PLACEMENT_3D ( 'NONE', #258, #257, #182 ) ;
#209 = AXIS2_PLACEMENT_3D ( 'NONE', #140, #269, #272 ) ;
#210 =( CONVERSION_BASED_UNIT ( 'INCH', #189 ) LENGTH_UNIT ( ) NAMED_UNIT ( #89 ) );
#211 = EDGE_CURVE ( 'NONE', #238, #266, #124, .T. ) ;
#212 = CARTESIAN_POINT ( 'NONE',  ( 0.04405499999999973326, 5.395181473643630390E-18, 1.496062999999999921 ) ) ;
#213 = VECTOR ( 'NONE', #145, 39.37007874015748143 ) ;
#214 = CARTESIAN_POINT ( 'NONE',  ( 0.0000000000000000000, 0.0000000000000000000, 1.496062999999999921 ) ) ;
#215 = VECTOR ( 'NONE', #48, 39.37007874015748143 ) ;
#216 =( GEOMETRIC_REPRESENTATION_CONTEXT ( 3 ) GLOBAL_UNCERTAINTY_ASSIGNED_CONTEXT ( ( #101 ) ) GLOBAL_UNIT_ASSIGNED_CONTEXT ( ( #106, #59, #9 ) ) REPRESENTATION_CONTEXT ( 'NONE', 'WORKASPACE' ) );
#217 = EDGE_LOOP ( 'NONE', ( #264, #27, #16, #173 ) ) ;
#218 = CARTESIAN_POINT ( 'NONE',  ( -0.005899594499999998194, 0.0000000000000000000, 7.224919520692327570E-19 ) ) ;
#219 = ORIENTED_EDGE ( 'NONE', *, *, #114, .F. ) ;
#220 = DIRECTION ( 'NONE',  ( 0.0000000000000000000, 0.0000000000000000000, -1.000000000000000000 ) ) ;
#221 = ORIENTED_EDGE ( 'NONE', *, *, #79, .F. ) ;
#222 = LENGTH_MEASURE_WITH_UNIT ( LENGTH_MEASURE( 0.02539999999999999897 ), #102 );
#223 = VERTEX_POINT ( 'NONE', #71 ) ;
#224 = EDGE_LOOP ( 'NONE', ( #128, #105 ) ) ;
#225 = PRODUCT_DEFINITION_SHAPE ( 'NONE', 'NONE',  #188 ) ;
#226 = DIRECTION ( 'NONE',  ( 1.000000000000000000, 0.0000000000000000000, 0.0000000000000000000 ) ) ;
#227 = CIRCLE ( 'NONE', #253, 0.05905500000000000332 ) ;
#228 = SURFACE_SIDE_STYLE ('',( #138 ) ) ;
#229 = DIRECTION ( 'NONE',  ( -1.224646799147353207E-16, -0.0000000000000000000, -1.000000000000000000 ) ) ;
#230 = CARTESIAN_POINT ( 'NONE',  ( 0.05905500000000000332, 7.232151672364695422E-18, 1.496062999999999921 ) ) ;
#231 = CIRCLE ( 'NONE', #135, 0.005899594499999997327 ) ;
#232 = ADVANCED_FACE ( 'NONE', ( #276 ), #136, .T. ) ;
#233 = DIRECTION ( 'NONE',  ( -1.224646799147353207E-16, -0.0000000000000000000, -1.000000000000000000 ) ) ;
#234 = CARTESIAN_POINT ( 'NONE',  ( 4.125740582702797681E-17, 0.0000000000000000000, 0.3368922848265556436 ) ) ;
#235 = DIRECTION ( 'NONE',  ( 0.0000000000000000000, 0.0000000000000000000, -1.000000000000000000 ) ) ;
#236 = DIRECTION ( 'NONE',  ( 0.1736481776669313581, 0.0000000000000000000, 0.9848077530122077983 ) ) ;
#237 = DIRECTION ( 'NONE',  ( -1.000000000000000000, 0.0000000000000000000, 0.0000000000000000000 ) ) ;
#238 = VERTEX_POINT ( 'NONE', #256 ) ;
#239 = EDGE_CURVE ( 'NONE', #150, #223, #96, .T. ) ;
#240 = CARTESIAN_POINT ( 'NONE',  ( 0.0000000000000000000, 0.0000000000000000000, 0.0000000000000000000 ) ) ;
#241 = CIRCLE ( 'NONE', #24, 0.05905500000000000332 ) ;
#242 = ORIENTED_EDGE ( 'NONE', *, *, #8, .T. ) ;
#243 = VERTEX_POINT ( 'NONE', #143 ) ;
#244 = EDGE_CURVE ( 'NONE', #10, #175, #241, .T. ) ;
#245 = ORIENTED_EDGE ( 'NONE', *, *, #50, .T. ) ;
#246 = CIRCLE ( 'NONE', #83, 0.005899594499999997327 ) ;
#247 = DIRECTION ( 'NONE',  ( -1.000000000000000000, 0.0000000000000000000, 0.0000000000000000000 ) ) ;
#248 = DIRECTION ( 'NONE',  ( -0.0000000000000000000, -0.0000000000000000000, -1.000000000000000000 ) ) ;
#249 = VECTOR ( 'NONE', #248, 39.37007874015748143 ) ;
#250 = DIRECTION ( 'NONE',  ( 0.0000000000000000000, 0.0000000000000000000, -1.000000000000000000 ) ) ;
#251 = PLANE ( 'NONE',  #45 ) ;
#252 = DIRECTION ( 'NONE',  ( 1.000000000000000000, 0.0000000000000000000, 0.0000000000000000000 ) ) ;
#253 = AXIS2_PLACEMENT_3D ( 'NONE', #234, #233, #23 ) ;
#254 = AXIS2_PLACEMENT_3D ( 'NONE', #201, #155, #247 ) ;
#255 = CONICAL_SURFACE ( 'NONE', #64, 0.04405499999999973326, 0.7853981633974491672 ) ;
#256 = CARTESIAN_POINT ( 'NONE',  ( 0.05905500000000004496, 7.232151672364700045E-18, 0.3368922848265556436 ) ) ;
#257 = DIRECTION ( 'NONE',  ( -1.224646799147353207E-16, -0.0000000000000000000, -1.000000000000000000 ) ) ;
#258 = CARTESIAN_POINT ( 'NONE',  ( 4.125740582702797681E-17, 0.0000000000000000000, 0.3368922848265556436 ) ) ;
#259 = CONICAL_SURFACE ( 'NONE', #277, 0.005899594499999999062, 0.1745329251994338637 ) ;
#260 = DIRECTION ( 'NONE',  ( 1.000000000000000000, 0.0000000000000000000, 0.0000000000000000000 ) ) ;
#261 = PRESENTATION_STYLE_ASSIGNMENT (( #13 ) ) ;
#262 = ORIENTED_EDGE ( 'NONE', *, *, #132, .T. ) ;
#263 =( NAMED_UNIT ( * ) SI_UNIT ( $, .STERADIAN. ) SOLID_ANGLE_UNIT ( ) );
#264 = ORIENTED_EDGE ( 'NONE', *, *, #239, .F. ) ;
#265 = CIRCLE ( 'NONE', #40, 0.04405499999999973326 ) ;
#266 = VERTEX_POINT ( 'NONE', #95 ) ;
#267 = FACE_OUTER_BOUND ( 'NONE', #171, .T. ) ;
#268 = ORIENTED_EDGE ( 'NONE', *, *, #244, .F. ) ;
#269 = DIRECTION ( 'NONE',  ( -1.224646799147353207E-16, -0.0000000000000000000, -1.000000000000000000 ) ) ;
#270 = APPLICATION_CONTEXT ( 'automotive_design' ) ;
#271 = CARTESIAN_POINT ( 'NONE',  ( 0.0000000000000000000, 0.0000000000000000000, 1.496062999999999921 ) ) ;
#272 = DIRECTION ( 'NONE',  ( -1.000000000000000000, 0.0000000000000000000, 1.224646799147353207E-16 ) ) ;
#273 = VECTOR ( 'NONE', #191, 39.37007874015748143 ) ;
#274 = EDGE_CURVE ( 'NONE', #243, #150, #172, .T. ) ;
#275 = ORIENTED_EDGE ( 'NONE', *, *, #50, .F. ) ;
#276 = FACE_OUTER_BOUND ( 'NONE', #122, .T. ) ;
#277 = AXIS2_PLACEMENT_3D ( 'NONE', #133, #179, #226 ) ;
#278 = AXIS2_PLACEMENT_3D ( 'NONE', #69, #279, #22 ) ;
#279 = DIRECTION ( 'NONE',  ( 0.0000000000000000000, 0.0000000000000000000, 1.000000000000000000 ) ) ;
#280 = EDGE_CURVE ( 'NONE', #266, #238, #227, .T. ) ;
#281 = CARTESIAN_POINT ( 'NONE',  ( 0.005899594500000003398, 0.0000000000000000000, 0.03543299999999999922 ) ) ;
#282 =( NAMED_UNIT ( * ) SI_UNIT ( $, .STERADIAN. ) SOLID_ANGLE_UNIT ( ) );
#283 = EDGE_CURVE ( 'NONE', #175, #10, #151, .T. ) ;
#284 = ORIENTED_EDGE ( 'NONE', *, *, #211, .F. ) ;
#285 = FILL_AREA_STYLE_COLOUR ( '', #68 ) ;
#286 = ORIENTED_EDGE ( 'NONE', *, *, #164, .F. ) ;
#287 = ORIENTED_EDGE ( 'NONE', *, *, #199, .F. ) ;
#288 = ADVANCED_FACE ( 'NONE', ( #267 ), #255, .T. ) ;
#289 = APPLICATION_PROTOCOL_DEFINITION ( 'draft international standard', 'automotive_design', 1998, #270 ) ;
#290 = ORIENTED_EDGE ( 'NONE', *, *, #293, .F. ) ;
#291 = CARTESIAN_POINT ( 'NONE',  ( -0.04405499999999973326, 0.0000000000000000000, 1.496062999999999921 ) ) ;
#292 = FACE_OUTER_BOUND ( 'NONE', #108, .T. ) ;
#293 = EDGE_CURVE ( 'NONE', #243, #57, #84, .T. ) ;
#294 = AXIS2_PLACEMENT_3D ( 'NONE', #116, #161, #260 ) ;
#295 = DIRECTION ( 'NONE',  ( -0.7071067811865482389, 0.0000000000000000000, -0.7071067811865469066 ) ) ;
#296 = CARTESIAN_POINT ( 'NONE',  ( -0.005899594499999994725, 7.224919520692329496E-19, 0.03543299999999999922 ) ) ;
#297 = FILL_AREA_STYLE ('',( #42 ) ) ;
#298 = STYLED_ITEM ( 'NONE', ( #204 ), #127 ) ;
#299 = CARTESIAN_POINT ( 'NONE',  ( 0.0000000000000000000, 0.0000000000000000000, 0.0000000000000000000 ) ) ;
ENDSEC;
END-ISO-10303-21;
