ISO-10303-21;
HEADER;
FILE_DESCRIPTION (( 'STEP AP214' ),
    '1' );
FILE_NAME ('49066.STEP',
    '2023-06-30T21:56:56',
    ( '' ),
    ( '' ),
    'SwSTEP 2.0',
    'SolidWorks 2023',
    '' );
FILE_SCHEMA (( 'AUTOMOTIVE_DESIGN' ));
ENDSEC;

DATA;
#1 =( NAMED_UNIT ( * ) SI_UNIT ( $, .STERADIAN. ) SOLID_ANGLE_UNIT ( ) );
#2 =( GEOMETRIC_REPRESENTATION_CONTEXT ( 3 ) GLOBAL_UNCERTAINTY_ASSIGNED_CONTEXT ( ( #42 ) ) GLOBAL_UNIT_ASSIGNED_CONTEXT ( ( #28, #201, #313 ) ) REPRESENTATION_CONTEXT ( 'NONE', 'WORKASPACE' ) );
#3 =( CONVERSION_BASED_UNIT ( 'INCH', #205 ) LENGTH_UNIT ( ) NAMED_UNIT ( #116 ) );
#4 = ORIENTED_EDGE ( 'NONE', *, *, #80, .F. ) ;
#5 = DIRECTION ( 'NONE',  ( -1.000000000000000000, -1.224646799147353700E-16, 0.000000000000000000 ) ) ;
#6 = DIRECTION ( 'NONE',  ( -1.224646799147353700E-16, 1.000000000000000000, -0.000000000000000000 ) ) ;
#7 = APPLICATION_CONTEXT ( 'automotive_design' ) ;
#8 = MECHANICAL_DESIGN_GEOMETRIC_PRESENTATION_REPRESENTATION (  '', ( #206 ), #93 ) ;
#9 =( NAMED_UNIT ( * ) SI_UNIT ( $, .STERADIAN. ) SOLID_ANGLE_UNIT ( ) );
#10 = CARTESIAN_POINT ( 'NONE',  ( 0.000000000000000000, 0.000000000000000000, 0.000000000000000000 ) ) ;
#11 = EDGE_CURVE ( 'NONE', #268, #295, #65, .T. ) ;
#12 = CARTESIAN_POINT ( 'NONE',  ( 0.09374999999999988898, 3.000000000000000444, 1.148106374200642168E-17 ) ) ;
#13 = COLOUR_RGB ( '',1.000000000000000000, 0.000000000000000000, 0.000000000000000000 ) ;
#14 = EDGE_LOOP ( 'NONE', ( #4, #218 ) ) ;
#15 = UNCERTAINTY_MEASURE_WITH_UNIT (LENGTH_MEASURE( 1.000000000000000082E-05 ), #199, 'distance_accuracy_value', 'NONE');
#16 = DIRECTION ( 'NONE',  ( 0.000000000000000000, 0.000000000000000000, -1.000000000000000000 ) ) ;
#17 = SURFACE_STYLE_USAGE ( .BOTH. , #75 ) ;
#18 = UNCERTAINTY_MEASURE_WITH_UNIT (LENGTH_MEASURE( 1.000000000000000082E-05 ), #188, 'distance_accuracy_value', 'NONE');
#19 = CLOSED_SHELL ( 'NONE', ( #227, #29, #322, #88, #202 ) ) ;
#20 = AXIS2_PLACEMENT_3D ( 'NONE', #260, #352, #41 ) ;
#21 = FILL_AREA_STYLE ('',( #103 ) ) ;
#22 = ORIENTED_EDGE ( 'NONE', *, *, #128, .T. ) ;
#23 = DIRECTION ( 'NONE',  ( 1.000000000000000000, 1.224646799147353700E-16, 0.000000000000000000 ) ) ;
#24 = LENGTH_MEASURE_WITH_UNIT ( LENGTH_MEASURE( 0.02539999999999999897 ), #304 );
#25 = CARTESIAN_POINT ( 'NONE',  ( 1.836970198721030427E-16, 1.000000000000000000, 0.000000000000000000 ) ) ;
#26 = CARTESIAN_POINT ( 'NONE',  ( 1.836970198721030427E-16, 1.000000000000000000, 0.000000000000000000 ) ) ;
#27 = CIRCLE ( 'NONE', #20, 0.09374999999999998612 ) ;
#28 =( CONVERSION_BASED_UNIT ( 'INCH', #278 ) LENGTH_UNIT ( ) NAMED_UNIT ( #284 ) );
#29 = ADVANCED_FACE ( 'NONE', ( #73 ), #43, .T. ) ;
#30 =( GEOMETRIC_REPRESENTATION_CONTEXT ( 3 ) GLOBAL_UNCERTAINTY_ASSIGNED_CONTEXT ( ( #273 ) ) GLOBAL_UNIT_ASSIGNED_CONTEXT ( ( #110, #272, #346 ) ) REPRESENTATION_CONTEXT ( 'NONE', 'WORKASPACE' ) );
#31 = CARTESIAN_POINT ( 'NONE',  ( 0.000000000000000000, 0.09375000000000004163, 0.000000000000000000 ) ) ;
#32 = DIMENSIONAL_EXPONENTS ( 1.000000000000000000, 0.000000000000000000, 0.000000000000000000, 0.000000000000000000, 0.000000000000000000, 0.000000000000000000, 0.000000000000000000 ) ;
#33 = ORIENTED_EDGE ( 'NONE', *, *, #217, .F. ) ;
#34 = DIRECTION ( 'NONE',  ( 1.000000000000000000, 0.000000000000000000, 0.000000000000000000 ) ) ;
#35 = CARTESIAN_POINT ( 'NONE',  ( -6.123233995736772199E-17, 3.000000000000000444, 0.000000000000000000 ) ) ;
#36 = CARTESIAN_POINT ( 'NONE',  ( -1.148106374200644017E-17, 0.09375000000000002776, 0.000000000000000000 ) ) ;
#37 = DIRECTION ( 'NONE',  ( -1.224646799147353700E-16, 1.000000000000000000, -0.000000000000000000 ) ) ;
#38 = EDGE_CURVE ( 'NONE', #226, #368, #223, .T. ) ;
#39 = COLOUR_RGB ( '',1.000000000000000000, 0.000000000000000000, 0.000000000000000000 ) ;
#40 = CIRCLE ( 'NONE', #354, 0.09374999999999998612 ) ;
#41 = DIRECTION ( 'NONE',  ( 0.000000000000000000, 0.000000000000000000, -1.000000000000000000 ) ) ;
#42 = UNCERTAINTY_MEASURE_WITH_UNIT (LENGTH_MEASURE( 1.000000000000000082E-05 ), #28, 'distance_accuracy_value', 'NONE');
#43 = CYLINDRICAL_SURFACE ( 'NONE', #365, 0.09374999999999994449 ) ;
#44 = PRESENTATION_LAYER_ASSIGNMENT (  '', '', ( #206 ) ) ;
#45 = MANIFOLD_SOLID_BREP ( 'Revolve - Tool Body (Straight Shanked)', #231 ) ;
#46 = LENGTH_MEASURE_WITH_UNIT ( LENGTH_MEASURE( 0.02539999999999999897 ), #282 );
#47 = AXIS2_PLACEMENT_3D ( 'NONE', #345, #112, #308 ) ;
#48 = COLOUR_RGB ( '',1.000000000000000000, 0.000000000000000000, 0.000000000000000000 ) ;
#49 = PLANE ( 'NONE',  #186 ) ;
#50 = SURFACE_SIDE_STYLE ('',( #53 ) ) ;
#51 = DIRECTION ( 'NONE',  ( -1.000000000000000000, 0.000000000000000000, 0.000000000000000000 ) ) ;
#52 = DIMENSIONAL_EXPONENTS ( 1.000000000000000000, 0.000000000000000000, 0.000000000000000000, 0.000000000000000000, 0.000000000000000000, 0.000000000000000000, 0.000000000000000000 ) ;
#53 = SURFACE_STYLE_FILL_AREA ( #371 ) ;
#54 = PRESENTATION_LAYER_ASSIGNMENT (  '', '', ( #236 ) ) ;
#55 = CYLINDRICAL_SURFACE ( 'NONE', #185, 0.09374999999999994449 ) ;
#56 = STYLED_ITEM ( 'NONE', ( #115 ), #322 ) ;
#57 = VERTEX_POINT ( 'NONE', #222 ) ;
#58 = FACE_OUTER_BOUND ( 'NONE', #214, .T. ) ;
#59 = ORIENTED_EDGE ( 'NONE', *, *, #38, .F. ) ;
#60 = SURFACE_STYLE_USAGE ( .BOTH. , #319 ) ;
#61 = DIMENSIONAL_EXPONENTS ( 1.000000000000000000, 0.000000000000000000, 0.000000000000000000, 0.000000000000000000, 0.000000000000000000, 0.000000000000000000, 0.000000000000000000 ) ;
#62 = DIRECTION ( 'NONE',  ( -0.000000000000000000, -1.000000000000000000, -0.000000000000000000 ) ) ;
#63 = CARTESIAN_POINT ( 'NONE',  ( -0.09374999999999952816, 1.000000000000000000, 0.000000000000000000 ) ) ;
#64 =( NAMED_UNIT ( * ) PLANE_ANGLE_UNIT ( ) SI_UNIT ( $, .RADIAN. ) );
#65 = CIRCLE ( 'NONE', #118, 0.09374999999999988898 ) ;
#66 = AXIS2_PLACEMENT_3D ( 'NONE', #36, #117, #51 ) ;
#67 = UNCERTAINTY_MEASURE_WITH_UNIT (LENGTH_MEASURE( 1.000000000000000082E-05 ), #85, 'distance_accuracy_value', 'NONE');
#68 = SURFACE_STYLE_USAGE ( .BOTH. , #153 ) ;
#69 = VERTEX_POINT ( 'NONE', #148 ) ;
#70 = PRODUCT_DEFINITION ( 'UNKNOWN', '', #97, #98 ) ;
#71 = EDGE_LOOP ( 'NONE', ( #347, #244, #259, #86 ) ) ;
#72 = AXIS2_PLACEMENT_3D ( 'NONE', #124, #158, #150 ) ;
#73 = FACE_OUTER_BOUND ( 'NONE', #184, .T. ) ;
#74 = FACE_OUTER_BOUND ( 'NONE', #14, .T. ) ;
#75 = SURFACE_SIDE_STYLE ('',( #269 ) ) ;
#76 = DIRECTION ( 'NONE',  ( -1.224646799147353700E-16, 1.000000000000000000, -0.000000000000000000 ) ) ;
#77 = CARTESIAN_POINT ( 'NONE',  ( -1.148106374200644017E-17, 0.09375000000000002776, 0.000000000000000000 ) ) ;
#78 = LENGTH_MEASURE_WITH_UNIT ( LENGTH_MEASURE( 0.02539999999999999897 ), #362 );
#79 = ORIENTED_EDGE ( 'NONE', *, *, #209, .F. ) ;
#80 = EDGE_CURVE ( 'NONE', #295, #268, #297, .T. ) ;
#81 = DIRECTION ( 'NONE',  ( 1.000000000000000000, 0.000000000000000000, 0.000000000000000000 ) ) ;
#82 = CARTESIAN_POINT ( 'NONE',  ( 0.09374999999999988898, 3.000000000000000444, 0.000000000000000000 ) ) ;
#83 = ORIENTED_EDGE ( 'NONE', *, *, #157, .F. ) ;
#84 = DIRECTION ( 'NONE',  ( -1.224646799147353700E-16, 1.000000000000000000, -0.000000000000000000 ) ) ;
#85 =( CONVERSION_BASED_UNIT ( 'INCH', #340 ) LENGTH_UNIT ( ) NAMED_UNIT ( #208 ) );
#86 = ORIENTED_EDGE ( 'NONE', *, *, #342, .F. ) ;
#87 =( NAMED_UNIT ( * ) PLANE_ANGLE_UNIT ( ) SI_UNIT ( $, .RADIAN. ) );
#88 = ADVANCED_FACE ( 'NONE', ( #120 ), #55, .T. ) ;
#89 = CIRCLE ( 'NONE', #72, 0.09375000000000002776 ) ;
#90 = SURFACE_STYLE_FILL_AREA ( #173 ) ;
#91 = APPLICATION_PROTOCOL_DEFINITION ( 'draft international standard', 'automotive_design', 1998, #7 ) ;
#92 = DIRECTION ( 'NONE',  ( -1.224646799147353700E-16, 1.000000000000000000, -0.000000000000000000 ) ) ;
#93 =( GEOMETRIC_REPRESENTATION_CONTEXT ( 3 ) GLOBAL_UNCERTAINTY_ASSIGNED_CONTEXT ( ( #219 ) ) GLOBAL_UNIT_ASSIGNED_CONTEXT ( ( #200, #225, #193 ) ) REPRESENTATION_CONTEXT ( 'NONE', 'WORKASPACE' ) );
#94 = VERTEX_POINT ( 'NONE', #122 ) ;
#95 = CYLINDRICAL_SURFACE ( 'NONE', #149, 0.09374999999999981959 ) ;
#96 = MECHANICAL_DESIGN_GEOMETRIC_PRESENTATION_REPRESENTATION (  '', ( #258 ), #292 ) ;
#97 = PRODUCT_DEFINITION_FORMATION_WITH_SPECIFIED_SOURCE ( 'ANY', '', #167, .NOT_KNOWN. ) ;
#98 = PRODUCT_DEFINITION_CONTEXT ( 'detailed design', #7, 'design' ) ;
#99 = ORIENTED_EDGE ( 'NONE', *, *, #256, .F. ) ;
#100 = STYLED_ITEM ( 'NONE', ( #254 ), #45 ) ;
#101 = ADVANCED_FACE ( 'NONE', ( #294 ), #95, .T. ) ;
#102 = AXIS2_PLACEMENT_3D ( 'NONE', #373, #360, #189 ) ;
#103 = FILL_AREA_STYLE_COLOUR ( '', #48 ) ;
#104 = DIRECTION ( 'NONE',  ( -0.000000000000000000, -1.000000000000000000, -0.000000000000000000 ) ) ;
#105 = SURFACE_SIDE_STYLE ('',( #333 ) ) ;
#106 = FILL_AREA_STYLE ('',( #337 ) ) ;
#107 = MECHANICAL_DESIGN_GEOMETRIC_PRESENTATION_REPRESENTATION (  '', ( #236 ), #142 ) ;
#108 = CARTESIAN_POINT ( 'NONE',  ( -5.740531871003220085E-18, 0.000000000000000000, 0.000000000000000000 ) ) ;
#109 = FILL_AREA_STYLE_COLOUR ( '', #39 ) ;
#110 =( CONVERSION_BASED_UNIT ( 'INCH', #46 ) LENGTH_UNIT ( ) NAMED_UNIT ( #289 ) );
#111 =( NAMED_UNIT ( * ) PLANE_ANGLE_UNIT ( ) SI_UNIT ( $, .RADIAN. ) );
#112 = DIRECTION ( 'NONE',  ( -0.000000000000000000, -1.000000000000000000, -0.000000000000000000 ) ) ;
#113 = PLANE ( 'NONE',  #215 ) ;
#114 = PRESENTATION_STYLE_ASSIGNMENT (( #302 ) ) ;
#115 = PRESENTATION_STYLE_ASSIGNMENT (( #164 ) ) ;
#116 = DIMENSIONAL_EXPONENTS ( 1.000000000000000000, 0.000000000000000000, 0.000000000000000000, 0.000000000000000000, 0.000000000000000000, 0.000000000000000000, 0.000000000000000000 ) ;
#117 = DIRECTION ( 'NONE',  ( 0.000000000000000000, 0.000000000000000000, -1.000000000000000000 ) ) ;
#118 = AXIS2_PLACEMENT_3D ( 'NONE', #330, #104, #16 ) ;
#119 = VECTOR ( 'NONE', #281, 39.37007874015748143 ) ;
#120 = FACE_OUTER_BOUND ( 'NONE', #136, .T. ) ;
#121 = ORIENTED_EDGE ( 'NONE', *, *, #264, .F. ) ;
#122 = CARTESIAN_POINT ( 'NONE',  ( -0.09375000000000002776, 3.000000000000000444, 0.000000000000000000 ) ) ;
#123 = SURFACE_STYLE_FILL_AREA ( #263 ) ;
#124 = CARTESIAN_POINT ( 'NONE',  ( -1.148106374200644017E-17, 0.09375000000000002776, 0.000000000000000000 ) ) ;
#125 =( GEOMETRIC_REPRESENTATION_CONTEXT ( 3 ) GLOBAL_UNCERTAINTY_ASSIGNED_CONTEXT ( ( #161 ) ) GLOBAL_UNIT_ASSIGNED_CONTEXT ( ( #3, #64, #9 ) ) REPRESENTATION_CONTEXT ( 'NONE', 'WORKASPACE' ) );
#126 = SHAPE_DEFINITION_REPRESENTATION ( #156, #329 ) ;
#127 = DIMENSIONAL_EXPONENTS ( 1.000000000000000000, 0.000000000000000000, 0.000000000000000000, 0.000000000000000000, 0.000000000000000000, 0.000000000000000000, 0.000000000000000000 ) ;
#128 = EDGE_CURVE ( 'NONE', #368, #300, #27, .T. ) ;
#129 = PRESENTATION_STYLE_ASSIGNMENT (( #68 ) ) ;
#130 = EDGE_LOOP ( 'NONE', ( #160, #296 ) ) ;
#131 = PRESENTATION_LAYER_ASSIGNMENT (  '', '', ( #190 ) ) ;
#132 = ORIENTED_EDGE ( 'NONE', *, *, #128, .F. ) ;
#133 = EDGE_CURVE ( 'NONE', #295, #226, #152, .T. ) ;
#134 = PRESENTATION_STYLE_ASSIGNMENT (( #17 ) ) ;
#135 = CIRCLE ( 'NONE', #66, 0.09375000000000002776 ) ;
#136 = EDGE_LOOP ( 'NONE', ( #320, #332, #283, #341, #121 ) ) ;
#137 = ADVANCED_FACE ( 'NONE', ( #321 ), #326, .F. ) ;
#138 = CARTESIAN_POINT ( 'NONE',  ( 1.148106374200643401E-17, 0.09375000000000004163, 0.09374999999999997224 ) ) ;
#139 = PRESENTATION_STYLE_ASSIGNMENT (( #175 ) ) ;
#140 =( LENGTH_UNIT ( ) NAMED_UNIT ( * ) SI_UNIT ( $, .METRE. ) );
#141 = CARTESIAN_POINT ( 'NONE',  ( 0.09374999999999998612, 0.09375000000000004163, 0.000000000000000000 ) ) ;
#142 =( GEOMETRIC_REPRESENTATION_CONTEXT ( 3 ) GLOBAL_UNCERTAINTY_ASSIGNED_CONTEXT ( ( #243 ) ) GLOBAL_UNIT_ASSIGNED_CONTEXT ( ( #336, #291, #351 ) ) REPRESENTATION_CONTEXT ( 'NONE', 'WORKASPACE' ) );
#143 = AXIS2_PLACEMENT_3D ( 'NONE', #253, #267, #229 ) ;
#144 = DIRECTION ( 'NONE',  ( -0.000000000000000000, -1.000000000000000000, -0.000000000000000000 ) ) ;
#145 = SURFACE_STYLE_USAGE ( .BOTH. , #369 ) ;
#146 = DIRECTION ( 'NONE',  ( 0.000000000000000000, 1.000000000000000000, 0.000000000000000000 ) ) ;
#147 = LENGTH_MEASURE_WITH_UNIT ( LENGTH_MEASURE( 0.02539999999999999897 ), #248 );
#148 = CARTESIAN_POINT ( 'NONE',  ( -0.09375000000000002776, 0.09375000000000004163, 1.148106374200643555E-17 ) ) ;
#149 = AXIS2_PLACEMENT_3D ( 'NONE', #35, #6, #261 ) ;
#150 = DIRECTION ( 'NONE',  ( 1.000000000000000000, 0.000000000000000000, -1.224646799147353207E-16 ) ) ;
#151 = ORIENTED_EDGE ( 'NONE', *, *, #256, .T. ) ;
#152 = LINE ( 'NONE', #290, #262 ) ;
#153 = SURFACE_SIDE_STYLE ('',( #123 ) ) ;
#154 = PRESENTATION_LAYER_ASSIGNMENT (  '', '', ( #232 ) ) ;
#155 = AXIS2_PLACEMENT_3D ( 'NONE', #25, #228, #163 ) ;
#156 = PRODUCT_DEFINITION_SHAPE ( 'NONE', 'NONE',  #70 ) ;
#157 = EDGE_CURVE ( 'NONE', #69, #221, #89, .T. ) ;
#158 = DIRECTION ( 'NONE',  ( 1.224646799147353207E-16, -0.000000000000000000, 1.000000000000000000 ) ) ;
#159 = EDGE_CURVE ( 'NONE', #57, #166, #238, .T. ) ;
#160 = ORIENTED_EDGE ( 'NONE', *, *, #270, .F. ) ;
#161 = UNCERTAINTY_MEASURE_WITH_UNIT (LENGTH_MEASURE( 1.000000000000000082E-05 ), #3, 'distance_accuracy_value', 'NONE');
#162 = MANIFOLD_SOLID_BREP ( 'Revolve - Cutting Edge', #19 ) ;
#163 = DIRECTION ( 'NONE',  ( -1.000000000000000000, 0.000000000000000000, 0.000000000000000000 ) ) ;
#164 = SURFACE_STYLE_USAGE ( .BOTH. , #105 ) ;
#165 =( NAMED_UNIT ( * ) PLANE_ANGLE_UNIT ( ) SI_UNIT ( $, .RADIAN. ) );
#166 = VERTEX_POINT ( 'NONE', #12 ) ;
#167 = PRODUCT ( '49066', '49066', '', ( #177 ) ) ;
#168 = LINE ( 'NONE', #277, #271 ) ;
#169 = DIRECTION ( 'NONE',  ( 1.224646799147353700E-16, -1.000000000000000000, 0.000000000000000000 ) ) ;
#170 = VERTEX_POINT ( 'NONE', #63 ) ;
#171 = MECHANICAL_DESIGN_GEOMETRIC_PRESENTATION_REPRESENTATION (  '', ( #100 ), #2 ) ;
#172 = LENGTH_MEASURE_WITH_UNIT ( LENGTH_MEASURE( 0.02539999999999999897 ), #285 );
#173 = FILL_AREA_STYLE ('',( #109 ) ) ;
#174 = DIRECTION ( 'NONE',  ( -1.000000000000000000, 0.000000000000000000, 0.000000000000000000 ) ) ;
#175 = SURFACE_STYLE_USAGE ( .BOTH. , #50 ) ;
#176 = PRESENTATION_STYLE_ASSIGNMENT (( #60 ) ) ;
#177 = PRODUCT_CONTEXT ( 'NONE', #246, 'mechanical' ) ;
#178 =( GEOMETRIC_REPRESENTATION_CONTEXT ( 3 ) GLOBAL_UNCERTAINTY_ASSIGNED_CONTEXT ( ( #18 ) ) GLOBAL_UNIT_ASSIGNED_CONTEXT ( ( #188, #87, #1 ) ) REPRESENTATION_CONTEXT ( 'NONE', 'WORKASPACE' ) );
#179 = CARTESIAN_POINT ( 'NONE',  ( 1.836970198721030181E-16, 1.000000000000000000, 0.000000000000000000 ) ) ;
#180 = FILL_AREA_STYLE_COLOUR ( '', #344 ) ;
#181 = ADVANCED_FACE ( 'NONE', ( #239 ), #233, .T. ) ;
#182 = AXIS2_PLACEMENT_3D ( 'NONE', #10, #230, #34 ) ;
#183 = ORIENTED_EDGE ( 'NONE', *, *, #159, .T. ) ;
#184 = EDGE_LOOP ( 'NONE', ( #348, #328, #132, #59, #245 ) ) ;
#185 = AXIS2_PLACEMENT_3D ( 'NONE', #212, #62, #287 ) ;
#186 = AXIS2_PLACEMENT_3D ( 'NONE', #82, #169, #23 ) ;
#187 = FILL_AREA_STYLE_COLOUR ( '', #367 ) ;
#188 =( CONVERSION_BASED_UNIT ( 'INCH', #172 ) LENGTH_UNIT ( ) NAMED_UNIT ( #127 ) );
#189 = DIRECTION ( 'NONE',  ( 0.000000000000000000, 0.000000000000000000, -1.000000000000000000 ) ) ;
#190 = STYLED_ITEM ( 'NONE', ( #139 ), #227 ) ;
#191 = CARTESIAN_POINT ( 'NONE',  ( 0.000000000000000000, 0.000000000000000000, 0.000000000000000000 ) ) ;
#192 = CARTESIAN_POINT ( 'NONE',  ( -6.123233995736772199E-17, 3.000000000000000444, 0.000000000000000000 ) ) ;
#193 =( NAMED_UNIT ( * ) SI_UNIT ( $, .STERADIAN. ) SOLID_ANGLE_UNIT ( ) );
#194 = PRODUCT_RELATED_PRODUCT_CATEGORY ( 'part', '', ( #167 ) ) ;
#195 = CARTESIAN_POINT ( 'NONE',  ( 1.148106374200642938E-17, 0.000000000000000000, 0.09374999999999994449 ) ) ;
#196 = DIRECTION ( 'NONE',  ( -0.000000000000000000, -1.000000000000000000, -0.000000000000000000 ) ) ;
#197 = EDGE_LOOP ( 'NONE', ( #355, #183, #99, #33 ) ) ;
#198 = COLOUR_RGB ( '',0.7921568627450980005, 0.8196078431372548767, 0.9333333333333333481 ) ;
#199 =( CONVERSION_BASED_UNIT ( 'INCH', #147 ) LENGTH_UNIT ( ) NAMED_UNIT ( #52 ) );
#200 =( CONVERSION_BASED_UNIT ( 'INCH', #24 ) LENGTH_UNIT ( ) NAMED_UNIT ( #61 ) );
#201 =( NAMED_UNIT ( * ) PLANE_ANGLE_UNIT ( ) SI_UNIT ( $, .RADIAN. ) );
#202 = ADVANCED_FACE ( 'NONE', ( #288 ), #364, .T. ) ;
#203 = DIRECTION ( 'NONE',  ( -1.000000000000000000, 0.000000000000000000, 0.000000000000000000 ) ) ;
#204 = MECHANICAL_DESIGN_GEOMETRIC_PRESENTATION_REPRESENTATION (  '', ( #56 ), #298 ) ;
#205 = LENGTH_MEASURE_WITH_UNIT ( LENGTH_MEASURE( 0.02539999999999999897 ), #207 );
#206 = STYLED_ITEM ( 'NONE', ( #134 ), #29 ) ;
#207 =( LENGTH_UNIT ( ) NAMED_UNIT ( * ) SI_UNIT ( $, .METRE. ) );
#208 = DIMENSIONAL_EXPONENTS ( 1.000000000000000000, 0.000000000000000000, 0.000000000000000000, 0.000000000000000000, 0.000000000000000000, 0.000000000000000000, 0.000000000000000000 ) ;
#209 = EDGE_CURVE ( 'NONE', #368, #221, #135, .T. ) ;
#210 = DIRECTION ( 'NONE',  ( -1.224646799147353700E-16, 1.000000000000000000, 0.000000000000000000 ) ) ;
#211 = PRESENTATION_LAYER_ASSIGNMENT (  '', '', ( #100 ) ) ;
#212 = CARTESIAN_POINT ( 'NONE',  ( 0.000000000000000000, 0.000000000000000000, 0.000000000000000000 ) ) ;
#213 = AXIS2_PLACEMENT_3D ( 'NONE', #350, #92, #203 ) ;
#214 = EDGE_LOOP ( 'NONE', ( #327, #343, #79, #22 ) ) ;
#215 = AXIS2_PLACEMENT_3D ( 'NONE', #305, #146, #331 ) ;
#216 = ORIENTED_EDGE ( 'NONE', *, *, #306, .T. ) ;
#217 = EDGE_CURVE ( 'NONE', #170, #94, #168, .T. ) ;
#218 = ORIENTED_EDGE ( 'NONE', *, *, #11, .F. ) ;
#219 = UNCERTAINTY_MEASURE_WITH_UNIT (LENGTH_MEASURE( 1.000000000000000082E-05 ), #200, 'distance_accuracy_value', 'NONE');
#220 = EDGE_CURVE ( 'NONE', #268, #300, #275, .T. ) ;
#221 = VERTEX_POINT ( 'NONE', #108 ) ;
#222 = CARTESIAN_POINT ( 'NONE',  ( 0.09374999999999990286, 1.000000000000000000, 1.148106374200642322E-17 ) ) ;
#223 = CIRCLE ( 'NONE', #251, 0.09374999999999998612 ) ;
#224 = PRESENTATION_LAYER_ASSIGNMENT (  '', '', ( #56 ) ) ;
#225 =( NAMED_UNIT ( * ) PLANE_ANGLE_UNIT ( ) SI_UNIT ( $, .RADIAN. ) );
#226 = VERTEX_POINT ( 'NONE', #317 ) ;
#227 = ADVANCED_FACE ( 'NONE', ( #58 ), #361, .T. ) ;
#228 = DIRECTION ( 'NONE',  ( -1.224646799147353700E-16, 1.000000000000000000, -0.000000000000000000 ) ) ;
#229 = DIRECTION ( 'NONE',  ( 1.000000000000000000, 0.000000000000000000, 0.000000000000000000 ) ) ;
#230 = DIRECTION ( 'NONE',  ( 0.000000000000000000, 0.000000000000000000, 1.000000000000000000 ) ) ;
#231 = CLOSED_SHELL ( 'NONE', ( #101, #137, #181, #324 ) ) ;
#232 = STYLED_ITEM ( 'NONE', ( #129 ), #162 ) ;
#233 = CYLINDRICAL_SURFACE ( 'NONE', #213, 0.09374999999999981959 ) ;
#234 = EDGE_LOOP ( 'NONE', ( #151, #359 ) ) ;
#235 = DIRECTION ( 'NONE',  ( -0.000000000000000000, -1.000000000000000000, -0.000000000000000000 ) ) ;
#236 = STYLED_ITEM ( 'NONE', ( #176 ), #88 ) ;
#237 = CIRCLE ( 'NONE', #293, 0.09374999999999995837 ) ;
#238 = LINE ( 'NONE', #323, #279 ) ;
#239 = FACE_OUTER_BOUND ( 'NONE', #71, .T. ) ;
#240 = MECHANICAL_DESIGN_GEOMETRIC_PRESENTATION_REPRESENTATION (  '', ( #232 ), #125 ) ;
#241 = CIRCLE ( 'NONE', #266, 0.09374999999999995837 ) ;
#242 = SURFACE_STYLE_FILL_AREA ( #21 ) ;
#243 = UNCERTAINTY_MEASURE_WITH_UNIT (LENGTH_MEASURE( 1.000000000000000082E-05 ), #336, 'distance_accuracy_value', 'NONE');
#244 = ORIENTED_EDGE ( 'NONE', *, *, #370, .T. ) ;
#245 = ORIENTED_EDGE ( 'NONE', *, *, #133, .F. ) ;
#246 = APPLICATION_CONTEXT ( 'automotive_design' ) ;
#247 = CARTESIAN_POINT ( 'NONE',  ( -6.123233995736772199E-17, 3.000000000000000444, 0.000000000000000000 ) ) ;
#248 =( LENGTH_UNIT ( ) NAMED_UNIT ( * ) SI_UNIT ( $, .METRE. ) );
#249 = DIRECTION ( 'NONE',  ( -1.224646799147353700E-16, 1.000000000000000000, -0.000000000000000000 ) ) ;
#250 = EDGE_LOOP ( 'NONE', ( #83, #216, #315, #356 ) ) ;
#251 = AXIS2_PLACEMENT_3D ( 'NONE', #252, #196, #339 ) ;
#252 = CARTESIAN_POINT ( 'NONE',  ( 0.000000000000000000, 0.09375000000000004163, 0.000000000000000000 ) ) ;
#253 = CARTESIAN_POINT ( 'NONE',  ( -1.148106374200644017E-17, 0.09375000000000002776, 0.000000000000000000 ) ) ;
#254 = PRESENTATION_STYLE_ASSIGNMENT (( #145 ) ) ;
#255 =( NAMED_UNIT ( * ) SI_UNIT ( $, .STERADIAN. ) SOLID_ANGLE_UNIT ( ) );
#256 = EDGE_CURVE ( 'NONE', #94, #166, #237, .T. ) ;
#257 = APPLICATION_PROTOCOL_DEFINITION ( 'draft international standard', 'automotive_design', 1998, #246 ) ;
#258 = STYLED_ITEM ( 'NONE', ( #114 ), #202 ) ;
#259 = ORIENTED_EDGE ( 'NONE', *, *, #217, .T. ) ;
#260 = CARTESIAN_POINT ( 'NONE',  ( 0.000000000000000000, 0.09375000000000004163, 0.000000000000000000 ) ) ;
#261 = DIRECTION ( 'NONE',  ( -1.000000000000000000, 0.000000000000000000, 0.000000000000000000 ) ) ;
#262 = VECTOR ( 'NONE', #235, 39.37007874015748143 ) ;
#263 = FILL_AREA_STYLE ('',( #180 ) ) ;
#264 = EDGE_CURVE ( 'NONE', #300, #69, #280, .T. ) ;
#265 = PRESENTATION_LAYER_ASSIGNMENT (  '', '', ( #258 ) ) ;
#266 = AXIS2_PLACEMENT_3D ( 'NONE', #192, #76, #174 ) ;
#267 = DIRECTION ( 'NONE',  ( 0.000000000000000000, 0.000000000000000000, 1.000000000000000000 ) ) ;
#268 = VERTEX_POINT ( 'NONE', #276 ) ;
#269 = SURFACE_STYLE_FILL_AREA ( #299 ) ;
#270 = EDGE_CURVE ( 'NONE', #170, #57, #325, .T. ) ;
#271 = VECTOR ( 'NONE', #84, 39.37007874015748143 ) ;
#272 =( NAMED_UNIT ( * ) PLANE_ANGLE_UNIT ( ) SI_UNIT ( $, .RADIAN. ) );
#273 = UNCERTAINTY_MEASURE_WITH_UNIT (LENGTH_MEASURE( 1.000000000000000082E-05 ), #110, 'distance_accuracy_value', 'NONE');
#274 = DIRECTION ( 'NONE',  ( -1.000000000000000000, 0.000000000000000000, 0.000000000000000000 ) ) ;
#275 = LINE ( 'NONE', #195, #119 ) ;
#276 = CARTESIAN_POINT ( 'NONE',  ( 1.148106374200642476E-17, 1.000000000000000000, 0.09374999999999988898 ) ) ;
#277 = CARTESIAN_POINT ( 'NONE',  ( -0.09374999999999988898, 3.000000000000000444, 0.000000000000000000 ) ) ;
#278 = LENGTH_MEASURE_WITH_UNIT ( LENGTH_MEASURE( 0.02539999999999999897 ), #140 );
#279 = VECTOR ( 'NONE', #37, 39.37007874015748143 ) ;
#280 = CIRCLE ( 'NONE', #102, 0.09374999999999998612 ) ;
#281 = DIRECTION ( 'NONE',  ( -0.000000000000000000, -1.000000000000000000, -0.000000000000000000 ) ) ;
#282 =( LENGTH_UNIT ( ) NAMED_UNIT ( * ) SI_UNIT ( $, .METRE. ) );
#283 = ORIENTED_EDGE ( 'NONE', *, *, #133, .T. ) ;
#284 = DIMENSIONAL_EXPONENTS ( 1.000000000000000000, 0.000000000000000000, 0.000000000000000000, 0.000000000000000000, 0.000000000000000000, 0.000000000000000000, 0.000000000000000000 ) ;
#285 =( LENGTH_UNIT ( ) NAMED_UNIT ( * ) SI_UNIT ( $, .METRE. ) );
#286 = DIRECTION ( 'NONE',  ( -0.000000000000000000, -1.000000000000000000, -0.000000000000000000 ) ) ;
#287 = DIRECTION ( 'NONE',  ( 0.000000000000000000, 0.000000000000000000, -1.000000000000000000 ) ) ;
#288 = FACE_OUTER_BOUND ( 'NONE', #250, .T. ) ;
#289 = DIMENSIONAL_EXPONENTS ( 1.000000000000000000, 0.000000000000000000, 0.000000000000000000, 0.000000000000000000, 0.000000000000000000, 0.000000000000000000, 0.000000000000000000 ) ;
#290 = CARTESIAN_POINT ( 'NONE',  ( 0.000000000000000000, 0.000000000000000000, -0.09374999999999994449 ) ) ;
#291 =( NAMED_UNIT ( * ) PLANE_ANGLE_UNIT ( ) SI_UNIT ( $, .RADIAN. ) );
#292 =( GEOMETRIC_REPRESENTATION_CONTEXT ( 3 ) GLOBAL_UNCERTAINTY_ASSIGNED_CONTEXT ( ( #15 ) ) GLOBAL_UNIT_ASSIGNED_CONTEXT ( ( #199, #111, #307 ) ) REPRESENTATION_CONTEXT ( 'NONE', 'WORKASPACE' ) );
#293 = AXIS2_PLACEMENT_3D ( 'NONE', #247, #311, #274 ) ;
#294 = FACE_OUTER_BOUND ( 'NONE', #197, .T. ) ;
#295 = VERTEX_POINT ( 'NONE', #363 ) ;
#296 = ORIENTED_EDGE ( 'NONE', *, *, #370, .F. ) ;
#297 = CIRCLE ( 'NONE', #47, 0.09374999999999988898 ) ;
#298 =( GEOMETRIC_REPRESENTATION_CONTEXT ( 3 ) GLOBAL_UNCERTAINTY_ASSIGNED_CONTEXT ( ( #67 ) ) GLOBAL_UNIT_ASSIGNED_CONTEXT ( ( #85, #165, #255 ) ) REPRESENTATION_CONTEXT ( 'NONE', 'WORKASPACE' ) );
#299 = FILL_AREA_STYLE ('',( #187 ) ) ;
#300 = VERTEX_POINT ( 'NONE', #138 ) ;
#301 = DIRECTION ( 'NONE',  ( -1.000000000000000000, 0.000000000000000000, 0.000000000000000000 ) ) ;
#302 = SURFACE_STYLE_USAGE ( .BOTH. , #358 ) ;
#303 = COLOUR_RGB ( '',1.000000000000000000, 0.000000000000000000, 0.000000000000000000 ) ;
#304 =( LENGTH_UNIT ( ) NAMED_UNIT ( * ) SI_UNIT ( $, .METRE. ) );
#305 = CARTESIAN_POINT ( 'NONE',  ( 0.000000000000000000, 1.000000000000000000, 0.000000000000000000 ) ) ;
#306 = EDGE_CURVE ( 'NONE', #69, #226, #40, .T. ) ;
#307 =( NAMED_UNIT ( * ) SI_UNIT ( $, .STERADIAN. ) SOLID_ANGLE_UNIT ( ) );
#308 = DIRECTION ( 'NONE',  ( 0.000000000000000000, 0.000000000000000000, -1.000000000000000000 ) ) ;
#309 = DIRECTION ( 'NONE',  ( 0.000000000000000000, 0.000000000000000000, -1.000000000000000000 ) ) ;
#310 = FILL_AREA_STYLE ('',( #318 ) ) ;
#311 = DIRECTION ( 'NONE',  ( -1.224646799147353700E-16, 1.000000000000000000, -0.000000000000000000 ) ) ;
#312 = FILL_AREA_STYLE_COLOUR ( '', #303 ) ;
#313 =( NAMED_UNIT ( * ) SI_UNIT ( $, .STERADIAN. ) SOLID_ANGLE_UNIT ( ) );
#314 = FACE_OUTER_BOUND ( 'NONE', #234, .T. ) ;
#315 = ORIENTED_EDGE ( 'NONE', *, *, #38, .T. ) ;
#316 = AXIS2_PLACEMENT_3D ( 'NONE', #179, #210, #5 ) ;
#317 = CARTESIAN_POINT ( 'NONE',  ( 0.000000000000000000, 0.09375000000000004163, -0.09374999999999998612 ) ) ;
#318 = FILL_AREA_STYLE_COLOUR ( '', #198 ) ;
#319 = SURFACE_SIDE_STYLE ('',( #90 ) ) ;
#320 = ORIENTED_EDGE ( 'NONE', *, *, #220, .F. ) ;
#321 = FACE_OUTER_BOUND ( 'NONE', #130, .T. ) ;
#322 = ADVANCED_FACE ( 'NONE', ( #74 ), #113, .T. ) ;
#323 = CARTESIAN_POINT ( 'NONE',  ( 0.09374999999999975020, 3.000000000000000444, 1.148106374200641398E-17 ) ) ;
#324 = ADVANCED_FACE ( 'NONE', ( #314 ), #49, .F. ) ;
#325 = CIRCLE ( 'NONE', #155, 0.09374999999999972244 ) ;
#326 = PLANE ( 'NONE',  #316 ) ;
#327 = ORIENTED_EDGE ( 'NONE', *, *, #264, .T. ) ;
#328 = ORIENTED_EDGE ( 'NONE', *, *, #220, .T. ) ;
#329 = ADVANCED_BREP_SHAPE_REPRESENTATION ( '49066', ( #162, #45, #182 ), #30 ) ;
#330 = CARTESIAN_POINT ( 'NONE',  ( 0.000000000000000000, 1.000000000000000000, 0.000000000000000000 ) ) ;
#331 = DIRECTION ( 'NONE',  ( 0.000000000000000000, -0.000000000000000000, 1.000000000000000000 ) ) ;
#332 = ORIENTED_EDGE ( 'NONE', *, *, #11, .T. ) ;
#333 = SURFACE_STYLE_FILL_AREA ( #106 ) ;
#334 = MECHANICAL_DESIGN_GEOMETRIC_PRESENTATION_REPRESENTATION (  '', ( #190 ), #178 ) ;
#335 =( LENGTH_UNIT ( ) NAMED_UNIT ( * ) SI_UNIT ( $, .METRE. ) );
#336 =( CONVERSION_BASED_UNIT ( 'INCH', #78 ) LENGTH_UNIT ( ) NAMED_UNIT ( #32 ) );
#337 = FILL_AREA_STYLE_COLOUR ( '', #13 ) ;
#338 = DIRECTION ( 'NONE',  ( 0.000000000000000000, 0.000000000000000000, 1.000000000000000000 ) ) ;
#339 = DIRECTION ( 'NONE',  ( 0.000000000000000000, 0.000000000000000000, -1.000000000000000000 ) ) ;
#340 = LENGTH_MEASURE_WITH_UNIT ( LENGTH_MEASURE( 0.02539999999999999897 ), #335 );
#341 = ORIENTED_EDGE ( 'NONE', *, *, #306, .F. ) ;
#342 = EDGE_CURVE ( 'NONE', #166, #94, #241, .T. ) ;
#343 = ORIENTED_EDGE ( 'NONE', *, *, #157, .T. ) ;
#344 = COLOUR_RGB ( '',0.7921568627450980005, 0.8196078431372548767, 0.9333333333333333481 ) ;
#345 = CARTESIAN_POINT ( 'NONE',  ( 0.000000000000000000, 1.000000000000000000, 0.000000000000000000 ) ) ;
#346 =( NAMED_UNIT ( * ) SI_UNIT ( $, .STERADIAN. ) SOLID_ANGLE_UNIT ( ) );
#347 = ORIENTED_EDGE ( 'NONE', *, *, #159, .F. ) ;
#348 = ORIENTED_EDGE ( 'NONE', *, *, #80, .T. ) ;
#349 = CIRCLE ( 'NONE', #357, 0.09374999999999972244 ) ;
#350 = CARTESIAN_POINT ( 'NONE',  ( -6.123233995736772199E-17, 3.000000000000000444, 0.000000000000000000 ) ) ;
#351 =( NAMED_UNIT ( * ) SI_UNIT ( $, .STERADIAN. ) SOLID_ANGLE_UNIT ( ) );
#352 = DIRECTION ( 'NONE',  ( -0.000000000000000000, -1.000000000000000000, -0.000000000000000000 ) ) ;
#353 = AXIS2_PLACEMENT_3D ( 'NONE', #77, #338, #81 ) ;
#354 = AXIS2_PLACEMENT_3D ( 'NONE', #31, #144, #309 ) ;
#355 = ORIENTED_EDGE ( 'NONE', *, *, #270, .T. ) ;
#356 = ORIENTED_EDGE ( 'NONE', *, *, #209, .T. ) ;
#357 = AXIS2_PLACEMENT_3D ( 'NONE', #26, #249, #301 ) ;
#358 = SURFACE_SIDE_STYLE ('',( #242 ) ) ;
#359 = ORIENTED_EDGE ( 'NONE', *, *, #342, .T. ) ;
#360 = DIRECTION ( 'NONE',  ( -0.000000000000000000, -1.000000000000000000, -0.000000000000000000 ) ) ;
#361 = SPHERICAL_SURFACE ( 'NONE', #143, 0.09375000000000002776 ) ;
#362 =( LENGTH_UNIT ( ) NAMED_UNIT ( * ) SI_UNIT ( $, .METRE. ) );
#363 = CARTESIAN_POINT ( 'NONE',  ( 0.000000000000000000, 1.000000000000000000, -0.09374999999999988898 ) ) ;
#364 = SPHERICAL_SURFACE ( 'NONE', #353, 0.09375000000000002776 ) ;
#365 = AXIS2_PLACEMENT_3D ( 'NONE', #191, #286, #372 ) ;
#366 = SURFACE_STYLE_FILL_AREA ( #310 ) ;
#367 = COLOUR_RGB ( '',1.000000000000000000, 0.000000000000000000, 0.000000000000000000 ) ;
#368 = VERTEX_POINT ( 'NONE', #141 ) ;
#369 = SURFACE_SIDE_STYLE ('',( #366 ) ) ;
#370 = EDGE_CURVE ( 'NONE', #57, #170, #349, .T. ) ;
#371 = FILL_AREA_STYLE ('',( #312 ) ) ;
#372 = DIRECTION ( 'NONE',  ( 0.000000000000000000, 0.000000000000000000, -1.000000000000000000 ) ) ;
#373 = CARTESIAN_POINT ( 'NONE',  ( 0.000000000000000000, 0.09375000000000004163, 0.000000000000000000 ) ) ;
ENDSEC;
END-ISO-10303-21;
