ISO-10303-21;
HEADER;
FILE_DESCRIPTION (( 'STEP AP214' ),
    '1' );
FILE_NAME ('Micro_EMS-500-3.STEP',
    '2021-09-01T18:00:20',
    ( '' ),
    ( '' ),
    'SwSTEP 2.0',
    'SolidWorks 2020',
    '' );
FILE_SCHEMA (( 'AUTOMOTIVE_DESIGN' ));
ENDSEC;

DATA;
#1 = FACE_OUTER_BOUND ( 'NONE', #28, .T. ) ;
#2 = EDGE_CURVE ( 'NONE', #154, #244, #238, .T. ) ;
#3 = PRESENTATION_STYLE_ASSIGNMENT (( #236 ) ) ;
#4 = CIRCLE ( 'NONE', #108, 0.2497499999999999998 ) ;
#5 = DIRECTION ( 'NONE',  ( -1.000000000000000000, 0.0000000000000000000, 1.224646799147353700E-16 ) ) ;
#6 = CARTESIAN_POINT ( 'NONE',  ( 1.224646799147353454E-16, 0.0000000000000000000, 1.000000000000000000 ) ) ;
#7 = DIRECTION ( 'NONE',  ( -1.224646799147353454E-16, -0.0000000000000000000, -1.000000000000000000 ) ) ;
#8 = AXIS2_PLACEMENT_3D ( 'NONE', #283, #103, #83 ) ;
#9 = CARTESIAN_POINT ( 'NONE',  ( 0.2350000000000011524, 2.877919977996294002E-17, 3.000000000000000444 ) ) ;
#10 = EDGE_LOOP ( 'NONE', ( #14, #148, #49, #168 ) ) ;
#11 = DIRECTION ( 'NONE',  ( 0.0000000000000000000, 0.0000000000000000000, 1.000000000000000000 ) ) ;
#12 = VERTEX_POINT ( 'NONE', #187 ) ;
#13 = DIRECTION ( 'NONE',  ( -1.000000000000000000, 0.0000000000000000000, 1.224646799147353700E-16 ) ) ;
#14 = ORIENTED_EDGE ( 'NONE', *, *, #2, .F. ) ;
#15 = AXIS2_PLACEMENT_3D ( 'NONE', #34, #92, #232 ) ;
#16 = CARTESIAN_POINT ( 'NONE',  ( -0.2497499999999999998, 0.0000000000000000000, 6.117110761741031132E-17 ) ) ;
#17 = SURFACE_STYLE_FILL_AREA ( #230 ) ;
#18 = DIMENSIONAL_EXPONENTS ( 1.000000000000000000, 0.0000000000000000000, 0.0000000000000000000, 0.0000000000000000000, 0.0000000000000000000, 0.0000000000000000000, 0.0000000000000000000 ) ;
#19 = ADVANCED_FACE ( 'NONE', ( #190 ), #54, .T. ) ;
#20 = CIRCLE ( 'NONE', #116, 0.2497499999999999998 ) ;
#21 = FACE_OUTER_BOUND ( 'NONE', #69, .T. ) ;
#22 = ADVANCED_FACE ( 'NONE', ( #214 ), #233, .T. ) ;
#23 = AXIS2_PLACEMENT_3D ( 'NONE', #60, #133, #223 ) ;
#24 = AXIS2_PLACEMENT_3D ( 'NONE', #249, #43, #138 ) ;
#25 = ORIENTED_EDGE ( 'NONE', *, *, #192, .T. ) ;
#26 = CARTESIAN_POINT ( 'NONE',  ( -0.2500000000000000000, 0.0000000000000000000, 3.000000000000000444 ) ) ;
#27 = EDGE_LOOP ( 'NONE', ( #25, #202 ) ) ;
#28 = EDGE_LOOP ( 'NONE', ( #91, #248, #273, #93 ) ) ;
#29 = AXIS2_PLACEMENT_3D ( 'NONE', #126, #216, #279 ) ;
#30 = EDGE_CURVE ( 'NONE', #154, #158, #122, .T. ) ;
#31 = CARTESIAN_POINT ( 'NONE',  ( -0.2350000000000011524, 0.0000000000000000000, 3.000000000000000444 ) ) ;
#32 = DIRECTION ( 'NONE',  ( -1.000000000000000000, 0.0000000000000000000, 0.0000000000000000000 ) ) ;
#33 = EDGE_CURVE ( 'NONE', #158, #196, #123, .T. ) ;
#34 = CARTESIAN_POINT ( 'NONE',  ( 0.0000000000000000000, 0.0000000000000000000, 3.000000000000000444 ) ) ;
#35 = VECTOR ( 'NONE', #95, 39.37007874015748143 ) ;
#36 = ORIENTED_EDGE ( 'NONE', *, *, #212, .T. ) ;
#37 = DIRECTION ( 'NONE',  ( -1.224646799147353454E-16, -0.0000000000000000000, -1.000000000000000000 ) ) ;
#38 = ORIENTED_EDGE ( 'NONE', *, *, #165, .F. ) ;
#39 = MANIFOLD_SOLID_BREP ( 'Cut-Revolve1', #189 ) ;
#40 = PLANE ( 'NONE',  #210 ) ;
#41 = VERTEX_POINT ( 'NONE', #207 ) ;
#42 = UNCERTAINTY_MEASURE_WITH_UNIT (LENGTH_MEASURE( 1.000000000000000082E-05 ), #121, 'distance_accuracy_value', 'NONE');
#43 = DIRECTION ( 'NONE',  ( 0.0000000000000000000, 0.0000000000000000000, 1.000000000000000000 ) ) ;
#44 = AXIS2_PLACEMENT_3D ( 'NONE', #150, #106, #90 ) ;
#45 = VERTEX_POINT ( 'NONE', #297 ) ;
#46 = ADVANCED_FACE ( 'NONE', ( #1 ), #115, .T. ) ;
#47 = DIMENSIONAL_EXPONENTS ( 1.000000000000000000, 0.0000000000000000000, 0.0000000000000000000, 0.0000000000000000000, 0.0000000000000000000, 0.0000000000000000000, 0.0000000000000000000 ) ;
#48 = PRODUCT_CONTEXT ( 'NONE', #298, 'mechanical' ) ;
#49 = ORIENTED_EDGE ( 'NONE', *, *, #33, .T. ) ;
#50 = DIMENSIONAL_EXPONENTS ( 1.000000000000000000, 0.0000000000000000000, 0.0000000000000000000, 0.0000000000000000000, 0.0000000000000000000, 0.0000000000000000000, 0.0000000000000000000 ) ;
#51 = LENGTH_MEASURE_WITH_UNIT ( LENGTH_MEASURE( 0.02539999999999999897 ), #76 );
#52 = VECTOR ( 'NONE', #213, 39.37007874015748143 ) ;
#53 = CIRCLE ( 'NONE', #281, 0.2500000000000000000 ) ;
#54 = CYLINDRICAL_SURFACE ( 'NONE', #291, 0.2500000000000000000 ) ;
#55 = PRODUCT_DEFINITION ( 'UNKNOWN', '', #206, #182 ) ;
#56 = DIRECTION ( 'NONE',  ( 0.0000000000000000000, 0.0000000000000000000, -1.000000000000000000 ) ) ;
#57 = ADVANCED_BREP_SHAPE_REPRESENTATION ( 'Micro_EMS-500-3', ( #39, #24 ), #124 ) ;
#58 = CARTESIAN_POINT ( 'NONE',  ( -0.2497499999999998888, 3.058555380870514950E-17, 1.000000000000000000 ) ) ;
#59 = CIRCLE ( 'NONE', #227, 0.2497499999999999998 ) ;
#60 = CARTESIAN_POINT ( 'NONE',  ( 0.0000000000000000000, 0.0000000000000000000, 3.000000000000000444 ) ) ;
#61 = CARTESIAN_POINT ( 'NONE',  ( 0.2500000000000000000, 3.061616997868382402E-17, 2.985000000000001208 ) ) ;
#62 = EDGE_CURVE ( 'NONE', #158, #154, #53, .T. ) ;
#63 = DIRECTION ( 'NONE',  ( -0.0000000000000000000, -0.0000000000000000000, -1.000000000000000000 ) ) ;
#64 = PRODUCT_RELATED_PRODUCT_CATEGORY ( 'part', '', ( #209 ) ) ;
#65 = VECTOR ( 'NONE', #114, 39.37007874015748143 ) ;
#66 = PRESENTATION_LAYER_ASSIGNMENT (  '', '', ( #234 ) ) ;
#67 = ORIENTED_EDGE ( 'NONE', *, *, #184, .F. ) ;
#68 = DIRECTION ( 'NONE',  ( -1.224646799147353454E-16, -0.0000000000000000000, -1.000000000000000000 ) ) ;
#69 = EDGE_LOOP ( 'NONE', ( #38, #226, #222, #119 ) ) ;
#70 = ORIENTED_EDGE ( 'NONE', *, *, #135, .F. ) ;
#71 = UNCERTAINTY_MEASURE_WITH_UNIT (LENGTH_MEASURE( 1.000000000000000082E-05 ), #104, 'distance_accuracy_value', 'NONE');
#72 = CIRCLE ( 'NONE', #23, 0.2350000000000011524 ) ;
#73 =( GEOMETRIC_REPRESENTATION_CONTEXT ( 3 ) GLOBAL_UNCERTAINTY_ASSIGNED_CONTEXT ( ( #203 ) ) GLOBAL_UNIT_ASSIGNED_CONTEXT ( ( #181, #208, #98 ) ) REPRESENTATION_CONTEXT ( 'NONE', 'WORKASPACE' ) );
#74 =( NAMED_UNIT ( * ) PLANE_ANGLE_UNIT ( ) SI_UNIT ( $, .RADIAN. ) );
#75 = PLANE ( 'NONE',  #44 ) ;
#76 =( LENGTH_UNIT ( ) NAMED_UNIT ( * ) SI_UNIT ( $, .METRE. ) );
#77 = ADVANCED_FACE ( 'NONE', ( #282 ), #75, .F. ) ;
#78 = FILL_AREA_STYLE ('',( #125 ) ) ;
#79 = CIRCLE ( 'NONE', #156, 0.2500000000000000000 ) ;
#80 = DIRECTION ( 'NONE',  ( 0.0000000000000000000, 0.0000000000000000000, -1.000000000000000000 ) ) ;
#81 = AXIS2_PLACEMENT_3D ( 'NONE', #6, #285, #269 ) ;
#82 = AXIS2_PLACEMENT_3D ( 'NONE', #183, #295, #275 ) ;
#83 = DIRECTION ( 'NONE',  ( 1.000000000000000000, 0.0000000000000000000, 0.0000000000000000000 ) ) ;
#84 =( NAMED_UNIT ( * ) SI_UNIT ( $, .STERADIAN. ) SOLID_ANGLE_UNIT ( ) );
#85 = CARTESIAN_POINT ( 'NONE',  ( -0.2497499999999999998, 0.0000000000000000000, 3.058555380870515566E-17 ) ) ;
#86 = DIRECTION ( 'NONE',  ( 0.0000000000000000000, 0.0000000000000000000, 1.000000000000000000 ) ) ;
#87 = CYLINDRICAL_SURFACE ( 'NONE', #99, 0.2497499999999999998 ) ;
#88 = CYLINDRICAL_SURFACE ( 'NONE', #94, 0.2500000000000000000 ) ;
#89 = ORIENTED_EDGE ( 'NONE', *, *, #143, .F. ) ;
#90 = DIRECTION ( 'NONE',  ( 1.000000000000000000, 0.0000000000000000000, -0.0000000000000000000 ) ) ;
#91 = ORIENTED_EDGE ( 'NONE', *, *, #110, .F. ) ;
#92 = DIRECTION ( 'NONE',  ( 0.0000000000000000000, 0.0000000000000000000, -1.000000000000000000 ) ) ;
#93 = ORIENTED_EDGE ( 'NONE', *, *, #102, .F. ) ;
#94 = AXIS2_PLACEMENT_3D ( 'NONE', #175, #63, #197 ) ;
#95 = DIRECTION ( 'NONE',  ( -0.0000000000000000000, -0.0000000000000000000, -1.000000000000000000 ) ) ;
#96 = VECTOR ( 'NONE', #152, 39.37007874015748854 ) ;
#97 = SURFACE_STYLE_FILL_AREA ( #78 ) ;
#98 =( NAMED_UNIT ( * ) SI_UNIT ( $, .STERADIAN. ) SOLID_ANGLE_UNIT ( ) );
#99 = AXIS2_PLACEMENT_3D ( 'NONE', #157, #263, #266 ) ;
#100 = VECTOR ( 'NONE', #284, 39.37007874015748854 ) ;
#101 = CIRCLE ( 'NONE', #82, 0.2500000000000000000 ) ;
#102 = EDGE_CURVE ( 'NONE', #41, #244, #132, .T. ) ;
#103 = DIRECTION ( 'NONE',  ( 1.224646799147353454E-16, 0.0000000000000000000, 1.000000000000000000 ) ) ;
#104 =( CONVERSION_BASED_UNIT ( 'INCH', #105 ) LENGTH_UNIT ( ) NAMED_UNIT ( #18 ) );
#105 = LENGTH_MEASURE_WITH_UNIT ( LENGTH_MEASURE( 0.02539999999999999897 ), #261 );
#106 = DIRECTION ( 'NONE',  ( 0.0000000000000000000, 0.0000000000000000000, 1.000000000000000000 ) ) ;
#107 = CARTESIAN_POINT ( 'NONE',  ( 0.0000000000000000000, 0.0000000000000000000, 3.000000000000000444 ) ) ;
#108 = AXIS2_PLACEMENT_3D ( 'NONE', #289, #272, #5 ) ;
#109 = DIRECTION ( 'NONE',  ( -0.1736481776669312194, 2.126576849575783625E-17, 0.9848077530122080203 ) ) ;
#110 = EDGE_CURVE ( 'NONE', #12, #41, #59, .T. ) ;
#111 = DIRECTION ( 'NONE',  ( -1.224646799147353454E-16, -0.0000000000000000000, -1.000000000000000000 ) ) ;
#112 = ORIENTED_EDGE ( 'NONE', *, *, #2, .T. ) ;
#113 = APPLICATION_CONTEXT ( 'automotive_design' ) ;
#114 = DIRECTION ( 'NONE',  ( 0.1736481776669314137, 0.0000000000000000000, 0.9848077530122077983 ) ) ;
#115 = CONICAL_SURFACE ( 'NONE', #8, 0.2497499999999999998, 0.1745329251994339192 ) ;
#116 = AXIS2_PLACEMENT_3D ( 'NONE', #144, #280, #13 ) ;
#117 = ORIENTED_EDGE ( 'NONE', *, *, #33, .F. ) ;
#118 = CYLINDRICAL_SURFACE ( 'NONE', #257, 0.2497499999999999998 ) ;
#119 = ORIENTED_EDGE ( 'NONE', *, *, #267, .F. ) ;
#120 =( NAMED_UNIT ( * ) SI_UNIT ( $, .STERADIAN. ) SOLID_ANGLE_UNIT ( ) );
#121 =( CONVERSION_BASED_UNIT ( 'INCH', #229 ) LENGTH_UNIT ( ) NAMED_UNIT ( #50 ) );
#122 = CIRCLE ( 'NONE', #240, 0.2500000000000000000 ) ;
#123 = LINE ( 'NONE', #26, #52 ) ;
#124 =( GEOMETRIC_REPRESENTATION_CONTEXT ( 3 ) GLOBAL_UNCERTAINTY_ASSIGNED_CONTEXT ( ( #42 ) ) GLOBAL_UNIT_ASSIGNED_CONTEXT ( ( #121, #74, #120 ) ) REPRESENTATION_CONTEXT ( 'NONE', 'WORKASPACE' ) );
#125 = FILL_AREA_STYLE_COLOUR ( '', #256 ) ;
#126 = CARTESIAN_POINT ( 'NONE',  ( 0.0000000000000000000, 0.0000000000000000000, 3.000000000000000444 ) ) ;
#127 = DIRECTION ( 'NONE',  ( -1.000000000000000000, 0.0000000000000000000, 0.0000000000000000000 ) ) ;
#128 = EDGE_LOOP ( 'NONE', ( #67, #294, #204, #290 ) ) ;
#129 = CARTESIAN_POINT ( 'NONE',  ( 1.224646799147353454E-16, 0.0000000000000000000, 1.000000000000000000 ) ) ;
#130 = CARTESIAN_POINT ( 'NONE',  ( -0.2500000000000000000, 0.0000000000000000000, 2.985000000000001208 ) ) ;
#131 = ADVANCED_FACE ( 'NONE', ( #191 ), #87, .T. ) ;
#132 = LINE ( 'NONE', #221, #65 ) ;
#133 = DIRECTION ( 'NONE',  ( 0.0000000000000000000, 0.0000000000000000000, 1.000000000000000000 ) ) ;
#134 = VERTEX_POINT ( 'NONE', #173 ) ;
#135 = EDGE_CURVE ( 'NONE', #45, #154, #268, .T. ) ;
#136 = CARTESIAN_POINT ( 'NONE',  ( -0.2499999999999998612, 0.0000000000000000000, 1.001417820454904462 ) ) ;
#137 = EDGE_LOOP ( 'NONE', ( #288, #164, #270, #89 ) ) ;
#138 = DIRECTION ( 'NONE',  ( 1.000000000000000000, 0.0000000000000000000, 0.0000000000000000000 ) ) ;
#139 = CONICAL_SURFACE ( 'NONE', #81, 0.2497499999999999998, 0.1745329251994339192 ) ;
#140 = AXIS2_PLACEMENT_3D ( 'NONE', #129, #242, #32 ) ;
#141 = ORIENTED_EDGE ( 'NONE', *, *, #176, .F. ) ;
#142 = CARTESIAN_POINT ( 'NONE',  ( 0.2500000000000001110, 3.061616997868383634E-17, 1.001417820454904462 ) ) ;
#143 = EDGE_CURVE ( 'NONE', #12, #254, #155, .T. ) ;
#144 = CARTESIAN_POINT ( 'NONE',  ( 3.745650057197990990E-33, 0.0000000000000000000, 3.058555380870515566E-17 ) ) ;
#145 = MECHANICAL_DESIGN_GEOMETRIC_PRESENTATION_REPRESENTATION (  '', ( #178 ), #205 ) ;
#146 = PRODUCT_DEFINITION_SHAPE ( 'NONE', 'NONE',  #55 ) ;
#147 = DIRECTION ( 'NONE',  ( 1.000000000000000000, 0.0000000000000000000, 0.0000000000000000000 ) ) ;
#148 = ORIENTED_EDGE ( 'NONE', *, *, #30, .T. ) ;
#149 = EDGE_CURVE ( 'NONE', #12, #196, #217, .T. ) ;
#150 = CARTESIAN_POINT ( 'NONE',  ( 0.0000000000000000000, 0.0000000000000000000, 0.0000000000000000000 ) ) ;
#151 = DIRECTION ( 'NONE',  ( -1.000000000000000000, 0.0000000000000000000, 0.0000000000000000000 ) ) ;
#152 = DIRECTION ( 'NONE',  ( -0.7071067811865402453, 0.0000000000000000000, -0.7071067811865546782 ) ) ;
#153 = LINE ( 'NONE', #172, #264 ) ;
#154 = VERTEX_POINT ( 'NONE', #61 ) ;
#155 = LINE ( 'NONE', #85, #271 ) ;
#156 = AXIS2_PLACEMENT_3D ( 'NONE', #218, #7, #286 ) ;
#157 = CARTESIAN_POINT ( 'NONE',  ( 0.0000000000000000000, 0.0000000000000000000, 0.0000000000000000000 ) ) ;
#158 = VERTEX_POINT ( 'NONE', #130 ) ;
#159 = ORIENTED_EDGE ( 'NONE', *, *, #278, .T. ) ;
#160 = AXIS2_PLACEMENT_3D ( 'NONE', #193, #86, #246 ) ;
#161 = SURFACE_STYLE_USAGE ( .BOTH. , #276 ) ;
#162 = ADVANCED_FACE ( 'NONE', ( #247 ), #139, .T. ) ;
#163 = ORIENTED_EDGE ( 'NONE', *, *, #102, .T. ) ;
#164 = ORIENTED_EDGE ( 'NONE', *, *, #165, .T. ) ;
#165 = EDGE_CURVE ( 'NONE', #41, #228, #153, .T. ) ;
#166 = SHAPE_DEFINITION_REPRESENTATION ( #146, #57 ) ;
#167 = ADVANCED_FACE ( 'NONE', ( #287 ), #40, .T. ) ;
#168 = ORIENTED_EDGE ( 'NONE', *, *, #278, .F. ) ;
#169 = CARTESIAN_POINT ( 'NONE',  ( 0.0000000000000000000, 0.0000000000000000000, 2.985000000000001208 ) ) ;
#170 = FACE_OUTER_BOUND ( 'NONE', #274, .T. ) ;
#171 = CONICAL_SURFACE ( 'NONE', #15, 0.2350000000000011524, 0.7853981633974380649 ) ;
#172 = CARTESIAN_POINT ( 'NONE',  ( 0.2497499999999999998, 3.058555380870514950E-17, -3.058555380870515566E-17 ) ) ;
#173 = CARTESIAN_POINT ( 'NONE',  ( -0.2350000000000011524, 0.0000000000000000000, 3.000000000000000444 ) ) ;
#174 = ORIENTED_EDGE ( 'NONE', *, *, #30, .F. ) ;
#175 = CARTESIAN_POINT ( 'NONE',  ( 0.0000000000000000000, 0.0000000000000000000, 3.000000000000000444 ) ) ;
#176 = EDGE_CURVE ( 'NONE', #134, #45, #299, .T. ) ;
#177 = ORIENTED_EDGE ( 'NONE', *, *, #215, .F. ) ;
#178 = STYLED_ITEM ( 'NONE', ( #3 ), #39 ) ;
#179 = CARTESIAN_POINT ( 'NONE',  ( 1.224646799147353454E-16, 0.0000000000000000000, 1.000000000000000000 ) ) ;
#180 = EDGE_LOOP ( 'NONE', ( #200, #198 ) ) ;
#181 =( CONVERSION_BASED_UNIT ( 'INCH', #51 ) LENGTH_UNIT ( ) NAMED_UNIT ( #47 ) );
#182 = PRODUCT_DEFINITION_CONTEXT ( 'detailed design', #113, 'design' ) ;
#183 = CARTESIAN_POINT ( 'NONE',  ( 1.226383128429217700E-16, 0.0000000000000000000, 1.001417820454904462 ) ) ;
#184 = EDGE_CURVE ( 'NONE', #45, #134, #72, .T. ) ;
#185 = FILL_AREA_STYLE_COLOUR ( '', #245 ) ;
#186 = DIRECTION ( 'NONE',  ( 1.000000000000000000, 0.0000000000000000000, 0.0000000000000000000 ) ) ;
#187 = CARTESIAN_POINT ( 'NONE',  ( -0.2497499999999998888, 3.060086189369449292E-17, 1.000000000000000000 ) ) ;
#188 = ADVANCED_FACE ( 'NONE', ( #170 ), #88, .T. ) ;
#189 = CLOSED_SHELL ( 'NONE', ( #131, #46, #22, #188, #19, #167, #235, #162, #262, #77 ) ) ;
#190 = FACE_OUTER_BOUND ( 'NONE', #10, .T. ) ;
#191 = FACE_OUTER_BOUND ( 'NONE', #137, .T. ) ;
#192 = EDGE_CURVE ( 'NONE', #254, #228, #4, .T. ) ;
#193 = CARTESIAN_POINT ( 'NONE',  ( 0.0000000000000000000, 0.0000000000000000000, 3.000000000000000444 ) ) ;
#194 = CARTESIAN_POINT ( 'NONE',  ( 0.2497499999999999998, 3.058555380870514950E-17, 0.0000000000000000000 ) ) ;
#195 = DIRECTION ( 'NONE',  ( 1.000000000000000000, 0.0000000000000000000, -0.0000000000000000000 ) ) ;
#196 = VERTEX_POINT ( 'NONE', #136 ) ;
#197 = DIRECTION ( 'NONE',  ( -1.000000000000000000, 0.0000000000000000000, 0.0000000000000000000 ) ) ;
#198 = ORIENTED_EDGE ( 'NONE', *, *, #184, .T. ) ;
#199 = MECHANICAL_DESIGN_GEOMETRIC_PRESENTATION_REPRESENTATION (  '', ( #234 ), #73 ) ;
#200 = ORIENTED_EDGE ( 'NONE', *, *, #176, .T. ) ;
#201 = DIRECTION ( 'NONE',  ( -1.224646799147353454E-16, -0.0000000000000000000, -1.000000000000000000 ) ) ;
#202 = ORIENTED_EDGE ( 'NONE', *, *, #267, .T. ) ;
#203 = UNCERTAINTY_MEASURE_WITH_UNIT (LENGTH_MEASURE( 1.000000000000000082E-05 ), #181, 'distance_accuracy_value', 'NONE');
#204 = ORIENTED_EDGE ( 'NONE', *, *, #62, .F. ) ;
#205 =( GEOMETRIC_REPRESENTATION_CONTEXT ( 3 ) GLOBAL_UNCERTAINTY_ASSIGNED_CONTEXT ( ( #71 ) ) GLOBAL_UNIT_ASSIGNED_CONTEXT ( ( #104, #231, #84 ) ) REPRESENTATION_CONTEXT ( 'NONE', 'WORKASPACE' ) );
#206 = PRODUCT_DEFINITION_FORMATION_WITH_SPECIFIED_SOURCE ( 'ANY', '', #209, .NOT_KNOWN. ) ;
#207 = CARTESIAN_POINT ( 'NONE',  ( 0.2497500000000001386, 0.0000000000000000000, 1.000000000000000000 ) ) ;
#208 =( NAMED_UNIT ( * ) PLANE_ANGLE_UNIT ( ) SI_UNIT ( $, .RADIAN. ) );
#209 = PRODUCT ( 'Micro_EMS-500-3', 'Micro_EMS-500-3', '', ( #48 ) ) ;
#210 = AXIS2_PLACEMENT_3D ( 'NONE', #107, #11, #195 ) ;
#211 = CARTESIAN_POINT ( 'NONE',  ( 0.0000000000000000000, 0.0000000000000000000, 2.985000000000001208 ) ) ;
#212 = EDGE_CURVE ( 'NONE', #134, #158, #241, .T. ) ;
#213 = DIRECTION ( 'NONE',  ( -0.0000000000000000000, -0.0000000000000000000, -1.000000000000000000 ) ) ;
#214 = FACE_OUTER_BOUND ( 'NONE', #128, .T. ) ;
#215 = EDGE_CURVE ( 'NONE', #41, #12, #265, .T. ) ;
#216 = DIRECTION ( 'NONE',  ( 0.0000000000000000000, 0.0000000000000000000, -1.000000000000000000 ) ) ;
#217 = LINE ( 'NONE', #58, #220 ) ;
#218 = CARTESIAN_POINT ( 'NONE',  ( 1.226383128429217700E-16, 0.0000000000000000000, 1.001417820454904462 ) ) ;
#219 = EDGE_CURVE ( 'NONE', #196, #244, #79, .T. ) ;
#220 = VECTOR ( 'NONE', #109, 39.37007874015747433 ) ;
#221 = CARTESIAN_POINT ( 'NONE',  ( 0.2497500000000001386, 0.0000000000000000000, 1.000000000000000000 ) ) ;
#222 = ORIENTED_EDGE ( 'NONE', *, *, #143, .T. ) ;
#223 = DIRECTION ( 'NONE',  ( 1.000000000000000000, 0.0000000000000000000, 0.0000000000000000000 ) ) ;
#224 = EDGE_LOOP ( 'NONE', ( #292, #177, #163, #159 ) ) ;
#225 = CARTESIAN_POINT ( 'NONE',  ( 0.0000000000000000000, 0.0000000000000000000, 0.0000000000000000000 ) ) ;
#226 = ORIENTED_EDGE ( 'NONE', *, *, #215, .T. ) ;
#227 = AXIS2_PLACEMENT_3D ( 'NONE', #179, #37, #151 ) ;
#228 = VERTEX_POINT ( 'NONE', #194 ) ;
#229 = LENGTH_MEASURE_WITH_UNIT ( LENGTH_MEASURE( 0.02539999999999999897 ), #296 );
#230 = FILL_AREA_STYLE ('',( #185 ) ) ;
#231 =( NAMED_UNIT ( * ) PLANE_ANGLE_UNIT ( ) SI_UNIT ( $, .RADIAN. ) );
#232 = DIRECTION ( 'NONE',  ( -1.000000000000000000, 0.0000000000000000000, 0.0000000000000000000 ) ) ;
#233 = CONICAL_SURFACE ( 'NONE', #29, 0.2350000000000011524, 0.7853981633974380649 ) ;
#234 = STYLED_ITEM ( 'NONE', ( #253 ), #57 ) ;
#235 = ADVANCED_FACE ( 'NONE', ( #243 ), #171, .T. ) ;
#236 = SURFACE_STYLE_USAGE ( .BOTH. , #259 ) ;
#237 = CARTESIAN_POINT ( 'NONE',  ( 0.0000000000000000000, 0.0000000000000000000, 3.000000000000000444 ) ) ;
#238 = LINE ( 'NONE', #277, #35 ) ;
#239 = ORIENTED_EDGE ( 'NONE', *, *, #219, .F. ) ;
#240 = AXIS2_PLACEMENT_3D ( 'NONE', #211, #80, #186 ) ;
#241 = LINE ( 'NONE', #31, #96 ) ;
#242 = DIRECTION ( 'NONE',  ( -1.224646799147353454E-16, -0.0000000000000000000, -1.000000000000000000 ) ) ;
#243 = FACE_OUTER_BOUND ( 'NONE', #252, .T. ) ;
#244 = VERTEX_POINT ( 'NONE', #142 ) ;
#245 = COLOUR_RGB ( '',0.7921568627450980005, 0.8196078431372548767, 0.9333333333333333481 ) ;
#246 = DIRECTION ( 'NONE',  ( 1.000000000000000000, 0.0000000000000000000, 0.0000000000000000000 ) ) ;
#247 = FACE_OUTER_BOUND ( 'NONE', #224, .T. ) ;
#248 = ORIENTED_EDGE ( 'NONE', *, *, #149, .T. ) ;
#249 = CARTESIAN_POINT ( 'NONE',  ( 0.0000000000000000000, 0.0000000000000000000, 0.0000000000000000000 ) ) ;
#250 = ORIENTED_EDGE ( 'NONE', *, *, #62, .T. ) ;
#251 = APPLICATION_PROTOCOL_DEFINITION ( 'draft international standard', 'automotive_design', 1998, #298 ) ;
#252 = EDGE_LOOP ( 'NONE', ( #70, #141, #36, #174 ) ) ;
#253 = PRESENTATION_STYLE_ASSIGNMENT (( #161 ) ) ;
#254 = VERTEX_POINT ( 'NONE', #16 ) ;
#255 = DIRECTION ( 'NONE',  ( -0.0000000000000000000, -0.0000000000000000000, -1.000000000000000000 ) ) ;
#256 = COLOUR_RGB ( '',0.7921568627450980005, 0.8196078431372548767, 0.9333333333333333481 ) ;
#257 = AXIS2_PLACEMENT_3D ( 'NONE', #225, #201, #293 ) ;
#258 = APPLICATION_PROTOCOL_DEFINITION ( 'draft international standard', 'automotive_design', 1998, #113 ) ;
#259 = SURFACE_SIDE_STYLE ('',( #97 ) ) ;
#260 = PRESENTATION_LAYER_ASSIGNMENT (  '', '', ( #178 ) ) ;
#261 =( LENGTH_UNIT ( ) NAMED_UNIT ( * ) SI_UNIT ( $, .METRE. ) );
#262 = ADVANCED_FACE ( 'NONE', ( #21 ), #118, .T. ) ;
#263 = DIRECTION ( 'NONE',  ( -1.224646799147353454E-16, -0.0000000000000000000, -1.000000000000000000 ) ) ;
#264 = VECTOR ( 'NONE', #111, 39.37007874015748143 ) ;
#265 = CIRCLE ( 'NONE', #140, 0.2497499999999999998 ) ;
#266 = DIRECTION ( 'NONE',  ( -1.000000000000000000, 0.0000000000000000000, 1.224646799147353700E-16 ) ) ;
#267 = EDGE_CURVE ( 'NONE', #228, #254, #20, .T. ) ;
#268 = LINE ( 'NONE', #9, #100 ) ;
#269 = DIRECTION ( 'NONE',  ( 1.000000000000000000, 0.0000000000000000000, 0.0000000000000000000 ) ) ;
#270 = ORIENTED_EDGE ( 'NONE', *, *, #192, .F. ) ;
#271 = VECTOR ( 'NONE', #68, 39.37007874015748143 ) ;
#272 = DIRECTION ( 'NONE',  ( -1.224646799147353454E-16, -0.0000000000000000000, -1.000000000000000000 ) ) ;
#273 = ORIENTED_EDGE ( 'NONE', *, *, #219, .T. ) ;
#274 = EDGE_LOOP ( 'NONE', ( #250, #112, #239, #117 ) ) ;
#275 = DIRECTION ( 'NONE',  ( 1.000000000000000000, 0.0000000000000000000, 0.0000000000000000000 ) ) ;
#276 = SURFACE_SIDE_STYLE ('',( #17 ) ) ;
#277 = CARTESIAN_POINT ( 'NONE',  ( 0.2500000000000000000, 3.061616997868382402E-17, 3.000000000000000444 ) ) ;
#278 = EDGE_CURVE ( 'NONE', #244, #196, #101, .T. ) ;
#279 = DIRECTION ( 'NONE',  ( -1.000000000000000000, 0.0000000000000000000, 0.0000000000000000000 ) ) ;
#280 = DIRECTION ( 'NONE',  ( -1.224646799147353454E-16, -0.0000000000000000000, -1.000000000000000000 ) ) ;
#281 = AXIS2_PLACEMENT_3D ( 'NONE', #169, #56, #147 ) ;
#282 = FACE_OUTER_BOUND ( 'NONE', #27, .T. ) ;
#283 = CARTESIAN_POINT ( 'NONE',  ( 1.224646799147353454E-16, 0.0000000000000000000, 1.000000000000000000 ) ) ;
#284 = DIRECTION ( 'NONE',  ( 0.7071067811865402453, 8.659560562354845344E-17, -0.7071067811865546782 ) ) ;
#285 = DIRECTION ( 'NONE',  ( 1.224646799147353454E-16, 0.0000000000000000000, 1.000000000000000000 ) ) ;
#286 = DIRECTION ( 'NONE',  ( 1.000000000000000000, 0.0000000000000000000, 0.0000000000000000000 ) ) ;
#287 = FACE_OUTER_BOUND ( 'NONE', #180, .T. ) ;
#288 = ORIENTED_EDGE ( 'NONE', *, *, #110, .T. ) ;
#289 = CARTESIAN_POINT ( 'NONE',  ( 3.745650057197990990E-33, 0.0000000000000000000, 3.058555380870515566E-17 ) ) ;
#290 = ORIENTED_EDGE ( 'NONE', *, *, #212, .F. ) ;
#291 = AXIS2_PLACEMENT_3D ( 'NONE', #237, #255, #127 ) ;
#292 = ORIENTED_EDGE ( 'NONE', *, *, #149, .F. ) ;
#293 = DIRECTION ( 'NONE',  ( -1.000000000000000000, 0.0000000000000000000, 1.224646799147353700E-16 ) ) ;
#294 = ORIENTED_EDGE ( 'NONE', *, *, #135, .T. ) ;
#295 = DIRECTION ( 'NONE',  ( -1.224646799147353454E-16, -0.0000000000000000000, -1.000000000000000000 ) ) ;
#296 =( LENGTH_UNIT ( ) NAMED_UNIT ( * ) SI_UNIT ( $, .METRE. ) );
#297 = CARTESIAN_POINT ( 'NONE',  ( 0.2350000000000011524, 2.969768487932338510E-17, 3.000000000000000444 ) ) ;
#298 = APPLICATION_CONTEXT ( 'automotive_design' ) ;
#299 = CIRCLE ( 'NONE', #160, 0.2350000000000011524 ) ;
ENDSEC;
END-ISO-10303-21;
