ISO-10303-21;
HEADER;
FILE_DESCRIPTION (( 'STEP AP214' ),
    '1' );
FILE_NAME ('82596.STEP',
    '2023-06-30T22:49:17',
    ( '' ),
    ( '' ),
    'SwSTEP 2.0',
    'SolidWorks 2023',
    '' );
FILE_SCHEMA (( 'AUTOMOTIVE_DESIGN' ));
ENDSEC;

DATA;
#1 = LENGTH_MEASURE_WITH_UNIT ( LENGTH_MEASURE( 0.02539999999999999897 ), #227 );
#2 = ORIENTED_EDGE ( 'NONE', *, *, #72, .T. ) ;
#3 = AXIS2_PLACEMENT_3D ( 'NONE', #30, #4, #362 ) ;
#4 = DIRECTION ( 'NONE',  ( 1.224646799147353207E-16, -0.000000000000000000, 1.000000000000000000 ) ) ;
#5 = VECTOR ( 'NONE', #129, 39.37007874015748143 ) ;
#6 = CYLINDRICAL_SURFACE ( 'NONE', #311, 0.1874999999999999167 ) ;
#7 = PRESENTATION_STYLE_ASSIGNMENT (( #259 ) ) ;
#8 =( LENGTH_UNIT ( ) NAMED_UNIT ( * ) SI_UNIT ( $, .METRE. ) );
#9 = ORIENTED_EDGE ( 'NONE', *, *, #273, .F. ) ;
#10 = AXIS2_PLACEMENT_3D ( 'NONE', #365, #38, #329 ) ;
#11 = SURFACE_STYLE_FILL_AREA ( #264 ) ;
#12 = CIRCLE ( 'NONE', #316, 0.1874999999999999722 ) ;
#13 = ORIENTED_EDGE ( 'NONE', *, *, #308, .T. ) ;
#14 = DIRECTION ( 'NONE',  ( 0.000000000000000000, 0.000000000000000000, -1.000000000000000000 ) ) ;
#15 = ORIENTED_EDGE ( 'NONE', *, *, #75, .F. ) ;
#16 = CARTESIAN_POINT ( 'NONE',  ( 0.000000000000000000, 0.1875000000000000278, 0.000000000000000000 ) ) ;
#17 = CARTESIAN_POINT ( 'NONE',  ( 2.296212748401286185E-17, 0.000000000000000000, 0.1874999999999999167 ) ) ;
#18 = AXIS2_PLACEMENT_3D ( 'NONE', #261, #115, #356 ) ;
#19 =( NAMED_UNIT ( * ) SI_UNIT ( $, .STERADIAN. ) SOLID_ANGLE_UNIT ( ) );
#20 = CARTESIAN_POINT ( 'NONE',  ( 0.1874999999999998057, 3.500000000000000000, 2.296212748401285260E-17 ) ) ;
#21 = FILL_AREA_STYLE ('',( #216 ) ) ;
#22 = LINE ( 'NONE', #185, #5 ) ;
#23 = COLOUR_RGB ( '',1.000000000000000000, 0.000000000000000000, 0.000000000000000000 ) ;
#24 =( LENGTH_UNIT ( ) NAMED_UNIT ( * ) SI_UNIT ( $, .METRE. ) );
#25 = FILL_AREA_STYLE ('',( #194 ) ) ;
#26 = ORIENTED_EDGE ( 'NONE', *, *, #317, .F. ) ;
#27 = FILL_AREA_STYLE ('',( #284 ) ) ;
#28 = PRESENTATION_LAYER_ASSIGNMENT (  '', '', ( #131 ) ) ;
#29 = AXIS2_PLACEMENT_3D ( 'NONE', #360, #333, #90 ) ;
#30 = CARTESIAN_POINT ( 'NONE',  ( -2.296212748401286801E-17, 0.1874999999999999722, 0.000000000000000000 ) ) ;
#31 = VERTEX_POINT ( 'NONE', #270 ) ;
#32 = VERTEX_POINT ( 'NONE', #293 ) ;
#33 = COLOUR_RGB ( '',1.000000000000000000, 0.000000000000000000, 0.000000000000000000 ) ;
#34 = CARTESIAN_POINT ( 'NONE',  ( -0.1874999999999994449, 1.500000000000000222, 0.000000000000000000 ) ) ;
#35 = CARTESIAN_POINT ( 'NONE',  ( 0.000000000000000000, 1.500000000000000222, 0.000000000000000000 ) ) ;
#36 =( CONVERSION_BASED_UNIT ( 'INCH', #1 ) LENGTH_UNIT ( ) NAMED_UNIT ( #340 ) );
#37 = DIRECTION ( 'NONE',  ( 0.000000000000000000, 0.000000000000000000, -1.000000000000000000 ) ) ;
#38 = DIRECTION ( 'NONE',  ( -1.257038099817569563E-16, 1.000000000000000000, -0.000000000000000000 ) ) ;
#39 = DIMENSIONAL_EXPONENTS ( 1.000000000000000000, 0.000000000000000000, 0.000000000000000000, 0.000000000000000000, 0.000000000000000000, 0.000000000000000000, 0.000000000000000000 ) ;
#40 = EDGE_LOOP ( 'NONE', ( #373, #82 ) ) ;
#41 = DIRECTION ( 'NONE',  ( 0.000000000000000000, 0.000000000000000000, -1.000000000000000000 ) ) ;
#42 = DIRECTION ( 'NONE',  ( 0.000000000000000000, 0.000000000000000000, -1.000000000000000000 ) ) ;
#43 = CARTESIAN_POINT ( 'NONE',  ( 0.000000000000000000, 0.000000000000000000, 0.000000000000000000 ) ) ;
#44 =( GEOMETRIC_REPRESENTATION_CONTEXT ( 3 ) GLOBAL_UNCERTAINTY_ASSIGNED_CONTEXT ( ( #93 ) ) GLOBAL_UNIT_ASSIGNED_CONTEXT ( ( #302, #71, #19 ) ) REPRESENTATION_CONTEXT ( 'NONE', 'WORKASPACE' ) );
#45 =( LENGTH_UNIT ( ) NAMED_UNIT ( * ) SI_UNIT ( $, .METRE. ) );
#46 = DIMENSIONAL_EXPONENTS ( 1.000000000000000000, 0.000000000000000000, 0.000000000000000000, 0.000000000000000000, 0.000000000000000000, 0.000000000000000000, 0.000000000000000000 ) ;
#47 = AXIS2_PLACEMENT_3D ( 'NONE', #16, #209, #157 ) ;
#48 = COLOUR_RGB ( '',1.000000000000000000, 0.000000000000000000, 0.000000000000000000 ) ;
#49 = COLOUR_RGB ( '',0.7921568627450980005, 0.8196078431372548767, 0.9333333333333333481 ) ;
#50 = PLANE ( 'NONE',  #135 ) ;
#51 = ORIENTED_EDGE ( 'NONE', *, *, #368, .F. ) ;
#52 = SURFACE_STYLE_FILL_AREA ( #25 ) ;
#53 = ORIENTED_EDGE ( 'NONE', *, *, #273, .T. ) ;
#54 = ORIENTED_EDGE ( 'NONE', *, *, #134, .T. ) ;
#55 = DIRECTION ( 'NONE',  ( 0.000000000000000000, 1.000000000000000000, 0.000000000000000000 ) ) ;
#56 = UNCERTAINTY_MEASURE_WITH_UNIT (LENGTH_MEASURE( 1.000000000000000082E-05 ), #210, 'distance_accuracy_value', 'NONE');
#57 = ORIENTED_EDGE ( 'NONE', *, *, #295, .F. ) ;
#58 = VECTOR ( 'NONE', #128, 39.37007874015748143 ) ;
#59 = FILL_AREA_STYLE ('',( #322 ) ) ;
#60 = ORIENTED_EDGE ( 'NONE', *, *, #107, .T. ) ;
#61 = SURFACE_SIDE_STYLE ('',( #11 ) ) ;
#62 = PRODUCT_DEFINITION_CONTEXT ( 'detailed design', #337, 'design' ) ;
#63 = DIRECTION ( 'NONE',  ( 0.000000000000000000, 0.000000000000000000, -1.000000000000000000 ) ) ;
#64 = ORIENTED_EDGE ( 'NONE', *, *, #317, .T. ) ;
#65 = COLOUR_RGB ( '',1.000000000000000000, 0.000000000000000000, 0.000000000000000000 ) ;
#66 = DIRECTION ( 'NONE',  ( -0.000000000000000000, -1.000000000000000000, -0.000000000000000000 ) ) ;
#67 = CARTESIAN_POINT ( 'NONE',  ( 2.296212748401285877E-17, 1.500000000000000222, 0.1874999999999998057 ) ) ;
#68 = LINE ( 'NONE', #17, #249 ) ;
#69 = DIRECTION ( 'NONE',  ( -1.000000000000000000, 0.000000000000000000, 0.000000000000000000 ) ) ;
#70 = DIRECTION ( 'NONE',  ( -1.000000000000000000, 0.000000000000000000, 0.000000000000000000 ) ) ;
#71 =( NAMED_UNIT ( * ) PLANE_ANGLE_UNIT ( ) SI_UNIT ( $, .RADIAN. ) );
#72 = EDGE_CURVE ( 'NONE', #248, #328, #152, .T. ) ;
#73 = DIRECTION ( 'NONE',  ( 1.000000000000000000, 0.000000000000000000, 0.000000000000000000 ) ) ;
#74 = DIMENSIONAL_EXPONENTS ( 1.000000000000000000, 0.000000000000000000, 0.000000000000000000, 0.000000000000000000, 0.000000000000000000, 0.000000000000000000, 0.000000000000000000 ) ;
#75 = EDGE_CURVE ( 'NONE', #225, #175, #100, .T. ) ;
#76 = DIRECTION ( 'NONE',  ( -1.257038099817569563E-16, 1.000000000000000000, 0.000000000000000000 ) ) ;
#77 =( GEOMETRIC_REPRESENTATION_CONTEXT ( 3 ) GLOBAL_UNCERTAINTY_ASSIGNED_CONTEXT ( ( #195 ) ) GLOBAL_UNIT_ASSIGNED_CONTEXT ( ( #109, #101, #281 ) ) REPRESENTATION_CONTEXT ( 'NONE', 'WORKASPACE' ) );
#78 = SURFACE_STYLE_USAGE ( .BOTH. , #166 ) ;
#79 = UNCERTAINTY_MEASURE_WITH_UNIT (LENGTH_MEASURE( 1.000000000000000082E-05 ), #184, 'distance_accuracy_value', 'NONE');
#80 = AXIS2_PLACEMENT_3D ( 'NONE', #171, #55, #177 ) ;
#81 = MECHANICAL_DESIGN_GEOMETRIC_PRESENTATION_REPRESENTATION (  '', ( #197 ), #180 ) ;
#82 = ORIENTED_EDGE ( 'NONE', *, *, #346, .T. ) ;
#83 = PRESENTATION_STYLE_ASSIGNMENT (( #200 ) ) ;
#84 = SURFACE_SIDE_STYLE ('',( #352 ) ) ;
#85 = FACE_OUTER_BOUND ( 'NONE', #192, .T. ) ;
#86 =( NAMED_UNIT ( * ) PLANE_ANGLE_UNIT ( ) SI_UNIT ( $, .RADIAN. ) );
#87 = FACE_OUTER_BOUND ( 'NONE', #164, .T. ) ;
#88 = UNCERTAINTY_MEASURE_WITH_UNIT (LENGTH_MEASURE( 1.000000000000000082E-05 ), #36, 'distance_accuracy_value', 'NONE');
#89 = CARTESIAN_POINT ( 'NONE',  ( 0.000000000000000000, 0.1875000000000000278, 0.000000000000000000 ) ) ;
#90 = DIRECTION ( 'NONE',  ( -1.000000000000000000, 0.000000000000000000, 0.000000000000000000 ) ) ;
#91 = SURFACE_STYLE_USAGE ( .BOTH. , #364 ) ;
#92 = COLOUR_RGB ( '',0.7921568627450980005, 0.8196078431372548767, 0.9333333333333333481 ) ;
#93 = UNCERTAINTY_MEASURE_WITH_UNIT (LENGTH_MEASURE( 1.000000000000000082E-05 ), #302, 'distance_accuracy_value', 'NONE');
#94 = CYLINDRICAL_SURFACE ( 'NONE', #212, 0.1874999999999997502 ) ;
#95 = CARTESIAN_POINT ( 'NONE',  ( 0.000000000000000000, 0.1875000000000000278, 0.000000000000000000 ) ) ;
#96 = ADVANCED_FACE ( 'NONE', ( #149 ), #234, .F. ) ;
#97 = PRESENTATION_STYLE_ASSIGNMENT (( #239 ) ) ;
#98 = DIRECTION ( 'NONE',  ( -1.257038099817569563E-16, 1.000000000000000000, -0.000000000000000000 ) ) ;
#99 = AXIS2_PLACEMENT_3D ( 'NONE', #243, #238, #14 ) ;
#100 = CIRCLE ( 'NONE', #211, 0.1874999999999998057 ) ;
#101 =( NAMED_UNIT ( * ) PLANE_ANGLE_UNIT ( ) SI_UNIT ( $, .RADIAN. ) );
#102 = DIRECTION ( 'NONE',  ( 1.000000000000000000, 0.000000000000000000, 0.000000000000000000 ) ) ;
#103 = CIRCLE ( 'NONE', #10, 0.1874999999999996392 ) ;
#104 = EDGE_LOOP ( 'NONE', ( #319, #64, #54, #9, #350 ) ) ;
#105 = AXIS2_PLACEMENT_3D ( 'NONE', #153, #151, #73 ) ;
#106 = MECHANICAL_DESIGN_GEOMETRIC_PRESENTATION_REPRESENTATION (  '', ( #191 ), #44 ) ;
#107 = EDGE_CURVE ( 'NONE', #167, #31, #233, .T. ) ;
#108 = DIMENSIONAL_EXPONENTS ( 1.000000000000000000, 0.000000000000000000, 0.000000000000000000, 0.000000000000000000, 0.000000000000000000, 0.000000000000000000, 0.000000000000000000 ) ;
#109 =( CONVERSION_BASED_UNIT ( 'INCH', #251 ) LENGTH_UNIT ( ) NAMED_UNIT ( #277 ) );
#110 =( NAMED_UNIT ( * ) PLANE_ANGLE_UNIT ( ) SI_UNIT ( $, .RADIAN. ) );
#111 = CIRCLE ( 'NONE', #3, 0.1874999999999999722 ) ;
#112 = CARTESIAN_POINT ( 'NONE',  ( 0.000000000000000000, 0.000000000000000000, 0.000000000000000000 ) ) ;
#113 = FILL_AREA_STYLE ('',( #325 ) ) ;
#114 = EDGE_LOOP ( 'NONE', ( #288, #170, #118, #370 ) ) ;
#115 = DIRECTION ( 'NONE',  ( 0.000000000000000000, 0.000000000000000000, 1.000000000000000000 ) ) ;
#116 = ORIENTED_EDGE ( 'NONE', *, *, #75, .T. ) ;
#117 = SPHERICAL_SURFACE ( 'NONE', #18, 0.1874999999999999722 ) ;
#118 = ORIENTED_EDGE ( 'NONE', *, *, #344, .F. ) ;
#119 = CARTESIAN_POINT ( 'NONE',  ( -0.1874999999999999445, 3.500000000000000000, 0.000000000000000000 ) ) ;
#120 = DIRECTION ( 'NONE',  ( -1.257038099817569563E-16, 1.000000000000000000, -0.000000000000000000 ) ) ;
#121 = DIRECTION ( 'NONE',  ( -1.000000000000000000, 0.000000000000000000, 0.000000000000000000 ) ) ;
#122 =( LENGTH_UNIT ( ) NAMED_UNIT ( * ) SI_UNIT ( $, .METRE. ) );
#123 = AXIS2_PLACEMENT_3D ( 'NONE', #112, #348, #228 ) ;
#124 = CIRCLE ( 'NONE', #29, 0.1874999999999998890 ) ;
#125 = CARTESIAN_POINT ( 'NONE',  ( 0.000000000000000000, 1.500000000000000222, 0.000000000000000000 ) ) ;
#126 =( NAMED_UNIT ( * ) SI_UNIT ( $, .STERADIAN. ) SOLID_ANGLE_UNIT ( ) );
#127 = FACE_OUTER_BOUND ( 'NONE', #203, .T. ) ;
#128 = DIRECTION ( 'NONE',  ( -1.257038099817569563E-16, 1.000000000000000000, -0.000000000000000000 ) ) ;
#129 = DIRECTION ( 'NONE',  ( -0.000000000000000000, -1.000000000000000000, -0.000000000000000000 ) ) ;
#130 = ADVANCED_FACE ( 'NONE', ( #87 ), #6, .T. ) ;
#131 = STYLED_ITEM ( 'NONE', ( #155 ), #168 ) ;
#132 = SPHERICAL_SURFACE ( 'NONE', #142, 0.1874999999999999722 ) ;
#133 = SURFACE_STYLE_USAGE ( .BOTH. , #367 ) ;
#134 = EDGE_CURVE ( 'NONE', #225, #167, #22, .T. ) ;
#135 = AXIS2_PLACEMENT_3D ( 'NONE', #160, #76, #250 ) ;
#136 = VECTOR ( 'NONE', #120, 39.37007874015748143 ) ;
#137 = PRESENTATION_STYLE_ASSIGNMENT (( #78 ) ) ;
#138 = ORIENTED_EDGE ( 'NONE', *, *, #346, .F. ) ;
#139 = ADVANCED_FACE ( 'NONE', ( #309 ), #94, .T. ) ;
#140 = LENGTH_MEASURE_WITH_UNIT ( LENGTH_MEASURE( 0.02539999999999999897 ), #8 );
#141 = CARTESIAN_POINT ( 'NONE',  ( 0.1874999999999998057, 3.500000000000000000, 0.000000000000000000 ) ) ;
#142 = AXIS2_PLACEMENT_3D ( 'NONE', #162, #282, #102 ) ;
#143 = CIRCLE ( 'NONE', #292, 0.1874999999999998890 ) ;
#144 = PRESENTATION_LAYER_ASSIGNMENT (  '', '', ( #197 ) ) ;
#145 = STYLED_ITEM ( 'NONE', ( #137 ), #176 ) ;
#146 = FILL_AREA_STYLE_COLOUR ( '', #65 ) ;
#147 = LENGTH_MEASURE_WITH_UNIT ( LENGTH_MEASURE( 0.02539999999999999897 ), #320 );
#148 = DIRECTION ( 'NONE',  ( -0.000000000000000000, -1.000000000000000000, -0.000000000000000000 ) ) ;
#149 = FACE_OUTER_BOUND ( 'NONE', #40, .T. ) ;
#150 = AXIS2_PLACEMENT_3D ( 'NONE', #89, #354, #63 ) ;
#151 = DIRECTION ( 'NONE',  ( 0.000000000000000000, 0.000000000000000000, 1.000000000000000000 ) ) ;
#152 = LINE ( 'NONE', #229, #136 ) ;
#153 = CARTESIAN_POINT ( 'NONE',  ( 0.000000000000000000, 0.000000000000000000, 0.000000000000000000 ) ) ;
#154 = ADVANCED_BREP_SHAPE_REPRESENTATION ( '82596', ( #165, #168, #105 ), #338 ) ;
#155 = PRESENTATION_STYLE_ASSIGNMENT (( #91 ) ) ;
#156 = VERTEX_POINT ( 'NONE', #220 ) ;
#157 = DIRECTION ( 'NONE',  ( 0.000000000000000000, 0.000000000000000000, -1.000000000000000000 ) ) ;
#158 = SURFACE_STYLE_FILL_AREA ( #21 ) ;
#159 = CYLINDRICAL_SURFACE ( 'NONE', #353, 0.1874999999999997502 ) ;
#160 = CARTESIAN_POINT ( 'NONE',  ( 1.901752800061462645E-16, 1.500000000000000222, 0.000000000000000000 ) ) ;
#161 = ORIENTED_EDGE ( 'NONE', *, *, #134, .F. ) ;
#162 = CARTESIAN_POINT ( 'NONE',  ( -2.296212748401286801E-17, 0.1874999999999999722, 0.000000000000000000 ) ) ;
#163 = STYLED_ITEM ( 'NONE', ( #83 ), #246 ) ;
#164 = EDGE_LOOP ( 'NONE', ( #116, #13, #51, #274, #161 ) ) ;
#165 = MANIFOLD_SOLID_BREP ( 'Revolve - Cutting Edge', #268 ) ;
#166 = SURFACE_SIDE_STYLE ('',( #345 ) ) ;
#167 = VERTEX_POINT ( 'NONE', #336 ) ;
#168 = MANIFOLD_SOLID_BREP ( 'Revolve - Tool Body (Straight Shanked)', #349 ) ;
#169 = DIRECTION ( 'NONE',  ( -1.000000000000000000, 0.000000000000000000, 0.000000000000000000 ) ) ;
#170 = ORIENTED_EDGE ( 'NONE', *, *, #278, .T. ) ;
#171 = CARTESIAN_POINT ( 'NONE',  ( 0.000000000000000000, 1.500000000000000222, 0.000000000000000000 ) ) ;
#172 = CIRCLE ( 'NONE', #279, 0.1874999999999999722 ) ;
#173 = PRESENTATION_LAYER_ASSIGNMENT (  '', '', ( #191 ) ) ;
#174 = SURFACE_SIDE_STYLE ('',( #351 ) ) ;
#175 = VERTEX_POINT ( 'NONE', #67 ) ;
#176 = ADVANCED_FACE ( 'NONE', ( #247 ), #132, .T. ) ;
#177 = DIRECTION ( 'NONE',  ( 0.000000000000000000, -0.000000000000000000, 1.000000000000000000 ) ) ;
#178 = EDGE_LOOP ( 'NONE', ( #57, #323 ) ) ;
#179 = STYLED_ITEM ( 'NONE', ( #372 ), #208 ) ;
#180 =( GEOMETRIC_REPRESENTATION_CONTEXT ( 3 ) GLOBAL_UNCERTAINTY_ASSIGNED_CONTEXT ( ( #343 ) ) GLOBAL_UNIT_ASSIGNED_CONTEXT ( ( #260, #86, #236 ) ) REPRESENTATION_CONTEXT ( 'NONE', 'WORKASPACE' ) );
#181 = CARTESIAN_POINT ( 'NONE',  ( -6.123233995736759873E-17, 3.500000000000000000, 0.000000000000000000 ) ) ;
#182 = PRODUCT_DEFINITION ( 'UNKNOWN', '', #237, #62 ) ;
#183 = DIRECTION ( 'NONE',  ( -1.257038099817569563E-16, 1.000000000000000000, -0.000000000000000000 ) ) ;
#184 =( CONVERSION_BASED_UNIT ( 'INCH', #339 ) LENGTH_UNIT ( ) NAMED_UNIT ( #39 ) );
#185 = CARTESIAN_POINT ( 'NONE',  ( 0.000000000000000000, 0.000000000000000000, -0.1874999999999999167 ) ) ;
#186 = FILL_AREA_STYLE ('',( #242 ) ) ;
#187 = DIRECTION ( 'NONE',  ( -0.000000000000000000, -1.000000000000000000, -0.000000000000000000 ) ) ;
#188 = DIMENSIONAL_EXPONENTS ( 1.000000000000000000, 0.000000000000000000, 0.000000000000000000, 0.000000000000000000, 0.000000000000000000, 0.000000000000000000, 0.000000000000000000 ) ;
#189 =( CONVERSION_BASED_UNIT ( 'INCH', #313 ) LENGTH_UNIT ( ) NAMED_UNIT ( #74 ) );
#190 = FACE_OUTER_BOUND ( 'NONE', #178, .T. ) ;
#191 = STYLED_ITEM ( 'NONE', ( #97 ), #165 ) ;
#192 = EDGE_LOOP ( 'NONE', ( #15, #26 ) ) ;
#193 = MECHANICAL_DESIGN_GEOMETRIC_PRESENTATION_REPRESENTATION (  '', ( #179 ), #77 ) ;
#194 = FILL_AREA_STYLE_COLOUR ( '', #33 ) ;
#195 = UNCERTAINTY_MEASURE_WITH_UNIT (LENGTH_MEASURE( 1.000000000000000082E-05 ), #109, 'distance_accuracy_value', 'NONE');
#196 = ADVANCED_FACE ( 'NONE', ( #127 ), #159, .T. ) ;
#197 = STYLED_ITEM ( 'NONE', ( #201 ), #130 ) ;
#198 = DIRECTION ( 'NONE',  ( 0.000000000000000000, 0.000000000000000000, -1.000000000000000000 ) ) ;
#199 = EDGE_LOOP ( 'NONE', ( #254, #53, #60, #253 ) ) ;
#200 = SURFACE_STYLE_USAGE ( .BOTH. , #174 ) ;
#201 = PRESENTATION_STYLE_ASSIGNMENT (( #297 ) ) ;
#202 = CARTESIAN_POINT ( 'NONE',  ( -2.296212748401286801E-17, 0.1874999999999999722, 0.000000000000000000 ) ) ;
#203 = EDGE_LOOP ( 'NONE', ( #283, #342, #2, #138 ) ) ;
#204 = ADVANCED_FACE ( 'NONE', ( #190 ), #50, .F. ) ;
#205 = PRESENTATION_LAYER_ASSIGNMENT (  '', '', ( #145 ) ) ;
#206 =( CONVERSION_BASED_UNIT ( 'INCH', #140 ) LENGTH_UNIT ( ) NAMED_UNIT ( #46 ) );
#207 = VERTEX_POINT ( 'NONE', #314 ) ;
#208 = ADVANCED_FACE ( 'NONE', ( #315 ), #117, .T. ) ;
#209 = DIRECTION ( 'NONE',  ( -0.000000000000000000, -1.000000000000000000, -0.000000000000000000 ) ) ;
#210 =( CONVERSION_BASED_UNIT ( 'INCH', #271 ) LENGTH_UNIT ( ) NAMED_UNIT ( #108 ) );
#211 = AXIS2_PLACEMENT_3D ( 'NONE', #35, #148, #37 ) ;
#212 = AXIS2_PLACEMENT_3D ( 'NONE', #332, #183, #69 ) ;
#213 = APPLICATION_PROTOCOL_DEFINITION ( 'draft international standard', 'automotive_design', 1998, #240 ) ;
#214 = DIRECTION ( 'NONE',  ( 0.000000000000000000, 0.000000000000000000, -1.000000000000000000 ) ) ;
#215 = PRODUCT_CONTEXT ( 'NONE', #240, 'mechanical' ) ;
#216 = FILL_AREA_STYLE_COLOUR ( '', #49 ) ;
#217 = ADVANCED_FACE ( 'NONE', ( #245 ), #256, .T. ) ;
#218 = AXIS2_PLACEMENT_3D ( 'NONE', #125, #66, #214 ) ;
#219 = DIRECTION ( 'NONE',  ( -0.000000000000000000, -1.000000000000000000, -0.000000000000000000 ) ) ;
#220 = CARTESIAN_POINT ( 'NONE',  ( -0.1874999999999999722, 0.1875000000000000278, 2.296212748401286493E-17 ) ) ;
#221 = ORIENTED_EDGE ( 'NONE', *, *, #368, .T. ) ;
#222 = CIRCLE ( 'NONE', #47, 0.1874999999999999722 ) ;
#223 =( NAMED_UNIT ( * ) PLANE_ANGLE_UNIT ( ) SI_UNIT ( $, .RADIAN. ) );
#224 = PRODUCT_RELATED_PRODUCT_CATEGORY ( 'part', '', ( #280 ) ) ;
#225 = VERTEX_POINT ( 'NONE', #230 ) ;
#226 = MECHANICAL_DESIGN_GEOMETRIC_PRESENTATION_REPRESENTATION (  '', ( #163 ), #244 ) ;
#227 =( LENGTH_UNIT ( ) NAMED_UNIT ( * ) SI_UNIT ( $, .METRE. ) );
#228 = DIRECTION ( 'NONE',  ( 0.000000000000000000, 0.000000000000000000, -1.000000000000000000 ) ) ;
#229 = CARTESIAN_POINT ( 'NONE',  ( -0.1874999999999998057, 3.500000000000000000, 0.000000000000000000 ) ) ;
#230 = CARTESIAN_POINT ( 'NONE',  ( 0.000000000000000000, 1.500000000000000222, -0.1874999999999998057 ) ) ;
#231 = DIRECTION ( 'NONE',  ( 1.000000000000000000, 1.257038099817569563E-16, 0.000000000000000000 ) ) ;
#232 = MECHANICAL_DESIGN_GEOMETRIC_PRESENTATION_REPRESENTATION (  '', ( #145 ), #258 ) ;
#233 = CIRCLE ( 'NONE', #150, 0.1874999999999999722 ) ;
#234 = PLANE ( 'NONE',  #355 ) ;
#235 = DIRECTION ( 'NONE',  ( -1.257038099817569563E-16, 1.000000000000000000, -0.000000000000000000 ) ) ;
#236 =( NAMED_UNIT ( * ) SI_UNIT ( $, .STERADIAN. ) SOLID_ANGLE_UNIT ( ) );
#237 = PRODUCT_DEFINITION_FORMATION_WITH_SPECIFIED_SOURCE ( 'ANY', '', #280, .NOT_KNOWN. ) ;
#238 = DIRECTION ( 'NONE',  ( -0.000000000000000000, -1.000000000000000000, -0.000000000000000000 ) ) ;
#239 = SURFACE_STYLE_USAGE ( .BOTH. , #359 ) ;
#240 = APPLICATION_CONTEXT ( 'automotive_design' ) ;
#241 =( NAMED_UNIT ( * ) SI_UNIT ( $, .STERADIAN. ) SOLID_ANGLE_UNIT ( ) );
#242 = FILL_AREA_STYLE_COLOUR ( '', #92 ) ;
#243 = CARTESIAN_POINT ( 'NONE',  ( 0.000000000000000000, 0.1875000000000000278, 0.000000000000000000 ) ) ;
#244 =( GEOMETRIC_REPRESENTATION_CONTEXT ( 3 ) GLOBAL_UNCERTAINTY_ASSIGNED_CONTEXT ( ( #331 ) ) GLOBAL_UNIT_ASSIGNED_CONTEXT ( ( #206, #324, #296 ) ) REPRESENTATION_CONTEXT ( 'NONE', 'WORKASPACE' ) );
#245 = FACE_OUTER_BOUND ( 'NONE', #104, .T. ) ;
#246 = ADVANCED_FACE ( 'NONE', ( #85 ), #327, .T. ) ;
#247 = FACE_OUTER_BOUND ( 'NONE', #199, .T. ) ;
#248 = VERTEX_POINT ( 'NONE', #34 ) ;
#249 = VECTOR ( 'NONE', #219, 39.37007874015748143 ) ;
#250 = DIRECTION ( 'NONE',  ( -1.000000000000000000, -1.257038099817569563E-16, 0.000000000000000000 ) ) ;
#251 = LENGTH_MEASURE_WITH_UNIT ( LENGTH_MEASURE( 0.02539999999999999897 ), #287 );
#252 = EDGE_CURVE ( 'NONE', #31, #300, #172, .T. ) ;
#253 = ORIENTED_EDGE ( 'NONE', *, *, #252, .T. ) ;
#254 = ORIENTED_EDGE ( 'NONE', *, *, #265, .F. ) ;
#255 = PRESENTATION_LAYER_ASSIGNMENT (  '', '', ( #179 ) ) ;
#256 = CYLINDRICAL_SURFACE ( 'NONE', #123, 0.1874999999999999167 ) ;
#257 = EDGE_LOOP ( 'NONE', ( #357, #294, #290, #221 ) ) ;
#258 =( GEOMETRIC_REPRESENTATION_CONTEXT ( 3 ) GLOBAL_UNCERTAINTY_ASSIGNED_CONTEXT ( ( #262 ) ) GLOBAL_UNIT_ASSIGNED_CONTEXT ( ( #189, #223, #310 ) ) REPRESENTATION_CONTEXT ( 'NONE', 'WORKASPACE' ) );
#259 = SURFACE_STYLE_USAGE ( .BOTH. , #61 ) ;
#260 =( CONVERSION_BASED_UNIT ( 'INCH', #147 ) LENGTH_UNIT ( ) NAMED_UNIT ( #188 ) );
#261 = CARTESIAN_POINT ( 'NONE',  ( -2.296212748401286801E-17, 0.1874999999999999722, 0.000000000000000000 ) ) ;
#262 = UNCERTAINTY_MEASURE_WITH_UNIT (LENGTH_MEASURE( 1.000000000000000082E-05 ), #189, 'distance_accuracy_value', 'NONE');
#263 = DIRECTION ( 'NONE',  ( 1.257038099817569563E-16, -1.000000000000000000, 0.000000000000000000 ) ) ;
#264 = FILL_AREA_STYLE ('',( #146 ) ) ;
#265 = EDGE_CURVE ( 'NONE', #156, #300, #111, .T. ) ;
#266 = VERTEX_POINT ( 'NONE', #20 ) ;
#267 = CIRCLE ( 'NONE', #99, 0.1874999999999999722 ) ;
#268 = CLOSED_SHELL ( 'NONE', ( #208, #130, #246, #217, #176 ) ) ;
#269 = CARTESIAN_POINT ( 'NONE',  ( 1.901752800061462645E-16, 1.500000000000000222, 0.000000000000000000 ) ) ;
#270 = CARTESIAN_POINT ( 'NONE',  ( 0.1874999999999999722, 0.1875000000000000278, 0.000000000000000000 ) ) ;
#271 = LENGTH_MEASURE_WITH_UNIT ( LENGTH_MEASURE( 0.02539999999999999897 ), #45 );
#272 = MECHANICAL_DESIGN_GEOMETRIC_PRESENTATION_REPRESENTATION (  '', ( #131 ), #361 ) ;
#273 = EDGE_CURVE ( 'NONE', #156, #167, #222, .T. ) ;
#274 = ORIENTED_EDGE ( 'NONE', *, *, #107, .F. ) ;
#275 = LINE ( 'NONE', #363, #58 ) ;
#276 =( NAMED_UNIT ( * ) PLANE_ANGLE_UNIT ( ) SI_UNIT ( $, .RADIAN. ) );
#277 = DIMENSIONAL_EXPONENTS ( 1.000000000000000000, 0.000000000000000000, 0.000000000000000000, 0.000000000000000000, 0.000000000000000000, 0.000000000000000000, 0.000000000000000000 ) ;
#278 = EDGE_CURVE ( 'NONE', #32, #266, #275, .T. ) ;
#279 = AXIS2_PLACEMENT_3D ( 'NONE', #202, #198, #169 ) ;
#280 = PRODUCT ( '82596', '82596', '', ( #215 ) ) ;
#281 =( NAMED_UNIT ( * ) SI_UNIT ( $, .STERADIAN. ) SOLID_ANGLE_UNIT ( ) );
#282 = DIRECTION ( 'NONE',  ( 0.000000000000000000, 0.000000000000000000, 1.000000000000000000 ) ) ;
#283 = ORIENTED_EDGE ( 'NONE', *, *, #278, .F. ) ;
#284 = FILL_AREA_STYLE_COLOUR ( '', #23 ) ;
#285 = DIMENSIONAL_EXPONENTS ( 1.000000000000000000, 0.000000000000000000, 0.000000000000000000, 0.000000000000000000, 0.000000000000000000, 0.000000000000000000, 0.000000000000000000 ) ;
#286 = COLOUR_RGB ( '',1.000000000000000000, 0.000000000000000000, 0.000000000000000000 ) ;
#287 =( LENGTH_UNIT ( ) NAMED_UNIT ( * ) SI_UNIT ( $, .METRE. ) );
#288 = ORIENTED_EDGE ( 'NONE', *, *, #295, .T. ) ;
#289 = DIRECTION ( 'NONE',  ( -1.257038099817569563E-16, 1.000000000000000000, -0.000000000000000000 ) ) ;
#290 = ORIENTED_EDGE ( 'NONE', *, *, #252, .F. ) ;
#291 = PRESENTATION_LAYER_ASSIGNMENT (  '', '', ( #330 ) ) ;
#292 = AXIS2_PLACEMENT_3D ( 'NONE', #181, #235, #70 ) ;
#293 = CARTESIAN_POINT ( 'NONE',  ( 0.1874999999999998335, 1.500000000000000222, 2.296212748401285260E-17 ) ) ;
#294 = ORIENTED_EDGE ( 'NONE', *, *, #265, .T. ) ;
#295 = EDGE_CURVE ( 'NONE', #248, #32, #103, .T. ) ;
#296 =( NAMED_UNIT ( * ) SI_UNIT ( $, .STERADIAN. ) SOLID_ANGLE_UNIT ( ) );
#297 = SURFACE_STYLE_USAGE ( .BOTH. , #84 ) ;
#298 = SHAPE_DEFINITION_REPRESENTATION ( #366, #154 ) ;
#299 = MECHANICAL_DESIGN_GEOMETRIC_PRESENTATION_REPRESENTATION (  '', ( #330 ), #312 ) ;
#300 = VERTEX_POINT ( 'NONE', #335 ) ;
#301 =( LENGTH_UNIT ( ) NAMED_UNIT ( * ) SI_UNIT ( $, .METRE. ) );
#302 =( CONVERSION_BASED_UNIT ( 'INCH', #334 ) LENGTH_UNIT ( ) NAMED_UNIT ( #285 ) );
#303 = APPLICATION_PROTOCOL_DEFINITION ( 'draft international standard', 'automotive_design', 1998, #337 ) ;
#304 = SURFACE_STYLE_FILL_AREA ( #186 ) ;
#305 = EDGE_CURVE ( 'NONE', #32, #248, #321, .T. ) ;
#306 = CIRCLE ( 'NONE', #218, 0.1874999999999998057 ) ;
#307 =( NAMED_UNIT ( * ) PLANE_ANGLE_UNIT ( ) SI_UNIT ( $, .RADIAN. ) );
#308 = EDGE_CURVE ( 'NONE', #175, #207, #68, .T. ) ;
#309 = FACE_OUTER_BOUND ( 'NONE', #114, .T. ) ;
#310 =( NAMED_UNIT ( * ) SI_UNIT ( $, .STERADIAN. ) SOLID_ANGLE_UNIT ( ) );
#311 = AXIS2_PLACEMENT_3D ( 'NONE', #43, #187, #42 ) ;
#312 =( GEOMETRIC_REPRESENTATION_CONTEXT ( 3 ) GLOBAL_UNCERTAINTY_ASSIGNED_CONTEXT ( ( #88 ) ) GLOBAL_UNIT_ASSIGNED_CONTEXT ( ( #36, #110, #318 ) ) REPRESENTATION_CONTEXT ( 'NONE', 'WORKASPACE' ) );
#313 = LENGTH_MEASURE_WITH_UNIT ( LENGTH_MEASURE( 0.02539999999999999897 ), #24 );
#314 = CARTESIAN_POINT ( 'NONE',  ( 2.296212748401287109E-17, 0.1875000000000000278, 0.1874999999999999722 ) ) ;
#315 = FACE_OUTER_BOUND ( 'NONE', #257, .T. ) ;
#316 = AXIS2_PLACEMENT_3D ( 'NONE', #95, #358, #41 ) ;
#317 = EDGE_CURVE ( 'NONE', #175, #225, #306, .T. ) ;
#318 =( NAMED_UNIT ( * ) SI_UNIT ( $, .STERADIAN. ) SOLID_ANGLE_UNIT ( ) );
#319 = ORIENTED_EDGE ( 'NONE', *, *, #308, .F. ) ;
#320 =( LENGTH_UNIT ( ) NAMED_UNIT ( * ) SI_UNIT ( $, .METRE. ) );
#321 = CIRCLE ( 'NONE', #371, 0.1874999999999996392 ) ;
#322 = FILL_AREA_STYLE_COLOUR ( '', #286 ) ;
#323 = ORIENTED_EDGE ( 'NONE', *, *, #305, .F. ) ;
#324 =( NAMED_UNIT ( * ) PLANE_ANGLE_UNIT ( ) SI_UNIT ( $, .RADIAN. ) );
#325 = FILL_AREA_STYLE_COLOUR ( '', #48 ) ;
#326 = EDGE_CURVE ( 'NONE', #207, #156, #267, .T. ) ;
#327 = PLANE ( 'NONE',  #80 ) ;
#328 = VERTEX_POINT ( 'NONE', #119 ) ;
#329 = DIRECTION ( 'NONE',  ( -1.000000000000000000, 0.000000000000000000, 0.000000000000000000 ) ) ;
#330 = STYLED_ITEM ( 'NONE', ( #7 ), #217 ) ;
#331 = UNCERTAINTY_MEASURE_WITH_UNIT (LENGTH_MEASURE( 1.000000000000000082E-05 ), #206, 'distance_accuracy_value', 'NONE');
#332 = CARTESIAN_POINT ( 'NONE',  ( -6.123233995736759873E-17, 3.500000000000000000, 0.000000000000000000 ) ) ;
#333 = DIRECTION ( 'NONE',  ( -1.257038099817569563E-16, 1.000000000000000000, -0.000000000000000000 ) ) ;
#334 = LENGTH_MEASURE_WITH_UNIT ( LENGTH_MEASURE( 0.02539999999999999897 ), #122 );
#335 = CARTESIAN_POINT ( 'NONE',  ( -1.148106374200643401E-17, 0.000000000000000000, 0.000000000000000000 ) ) ;
#336 = CARTESIAN_POINT ( 'NONE',  ( 0.000000000000000000, 0.1875000000000000278, -0.1874999999999999722 ) ) ;
#337 = APPLICATION_CONTEXT ( 'automotive_design' ) ;
#338 =( GEOMETRIC_REPRESENTATION_CONTEXT ( 3 ) GLOBAL_UNCERTAINTY_ASSIGNED_CONTEXT ( ( #79 ) ) GLOBAL_UNIT_ASSIGNED_CONTEXT ( ( #184, #307, #241 ) ) REPRESENTATION_CONTEXT ( 'NONE', 'WORKASPACE' ) );
#339 = LENGTH_MEASURE_WITH_UNIT ( LENGTH_MEASURE( 0.02539999999999999897 ), #301 );
#340 = DIMENSIONAL_EXPONENTS ( 1.000000000000000000, 0.000000000000000000, 0.000000000000000000, 0.000000000000000000, 0.000000000000000000, 0.000000000000000000, 0.000000000000000000 ) ;
#341 = DIRECTION ( 'NONE',  ( -1.000000000000000000, 0.000000000000000000, 0.000000000000000000 ) ) ;
#342 = ORIENTED_EDGE ( 'NONE', *, *, #305, .T. ) ;
#343 = UNCERTAINTY_MEASURE_WITH_UNIT (LENGTH_MEASURE( 1.000000000000000082E-05 ), #260, 'distance_accuracy_value', 'NONE');
#344 = EDGE_CURVE ( 'NONE', #328, #266, #143, .T. ) ;
#345 = SURFACE_STYLE_FILL_AREA ( #27 ) ;
#346 = EDGE_CURVE ( 'NONE', #266, #328, #124, .T. ) ;
#347 = PRESENTATION_LAYER_ASSIGNMENT (  '', '', ( #163 ) ) ;
#348 = DIRECTION ( 'NONE',  ( -0.000000000000000000, -1.000000000000000000, -0.000000000000000000 ) ) ;
#349 = CLOSED_SHELL ( 'NONE', ( #139, #204, #196, #96 ) ) ;
#350 = ORIENTED_EDGE ( 'NONE', *, *, #326, .F. ) ;
#351 = SURFACE_STYLE_FILL_AREA ( #59 ) ;
#352 = SURFACE_STYLE_FILL_AREA ( #113 ) ;
#353 = AXIS2_PLACEMENT_3D ( 'NONE', #369, #289, #341 ) ;
#354 = DIRECTION ( 'NONE',  ( -0.000000000000000000, -1.000000000000000000, -0.000000000000000000 ) ) ;
#355 = AXIS2_PLACEMENT_3D ( 'NONE', #141, #263, #231 ) ;
#356 = DIRECTION ( 'NONE',  ( 1.000000000000000000, 0.000000000000000000, 0.000000000000000000 ) ) ;
#357 = ORIENTED_EDGE ( 'NONE', *, *, #326, .T. ) ;
#358 = DIRECTION ( 'NONE',  ( -0.000000000000000000, -1.000000000000000000, -0.000000000000000000 ) ) ;
#359 = SURFACE_SIDE_STYLE ('',( #158 ) ) ;
#360 = CARTESIAN_POINT ( 'NONE',  ( -6.123233995736759873E-17, 3.500000000000000000, 0.000000000000000000 ) ) ;
#361 =( GEOMETRIC_REPRESENTATION_CONTEXT ( 3 ) GLOBAL_UNCERTAINTY_ASSIGNED_CONTEXT ( ( #56 ) ) GLOBAL_UNIT_ASSIGNED_CONTEXT ( ( #210, #276, #126 ) ) REPRESENTATION_CONTEXT ( 'NONE', 'WORKASPACE' ) );
#362 = DIRECTION ( 'NONE',  ( 1.000000000000000000, 0.000000000000000000, -1.224646799147353207E-16 ) ) ;
#363 = CARTESIAN_POINT ( 'NONE',  ( 0.1874999999999996669, 3.500000000000000000, 2.296212748401284336E-17 ) ) ;
#364 = SURFACE_SIDE_STYLE ('',( #304 ) ) ;
#365 = CARTESIAN_POINT ( 'NONE',  ( 1.901752800061462645E-16, 1.500000000000000222, 0.000000000000000000 ) ) ;
#366 = PRODUCT_DEFINITION_SHAPE ( 'NONE', 'NONE',  #182 ) ;
#367 = SURFACE_SIDE_STYLE ('',( #52 ) ) ;
#368 = EDGE_CURVE ( 'NONE', #31, #207, #12, .T. ) ;
#369 = CARTESIAN_POINT ( 'NONE',  ( -6.123233995736759873E-17, 3.500000000000000000, 0.000000000000000000 ) ) ;
#370 = ORIENTED_EDGE ( 'NONE', *, *, #72, .F. ) ;
#371 = AXIS2_PLACEMENT_3D ( 'NONE', #269, #98, #121 ) ;
#372 = PRESENTATION_STYLE_ASSIGNMENT (( #133 ) ) ;
#373 = ORIENTED_EDGE ( 'NONE', *, *, #344, .T. ) ;
ENDSEC;
END-ISO-10303-21;
