ISO-10303-21;
HEADER;
FILE_DESCRIPTION (( 'STEP AP214' ),
    '1' );
FILE_NAME ('Micro_SBMM-040-420X.STEP',
    '2021-09-02T17:10:53',
    ( '' ),
    ( '' ),
    'SwSTEP 2.0',
    'SolidWorks 2020',
    '' );
FILE_SCHEMA (( 'AUTOMOTIVE_DESIGN' ));
ENDSEC;

DATA;
#1 = CIRCLE ( 'NONE', #52, 0.05314949999999990515 ) ;
#2 = CARTESIAN_POINT ( 'NONE',  ( -0.1031099999999991745, 0.0000000000000000000, 2.952755999999999936 ) ) ;
#3 = AXIS2_PLACEMENT_3D ( 'NONE', #339, #288, #150 ) ;
#4 = EDGE_LOOP ( 'NONE', ( #218, #241, #321, #88 ) ) ;
#5 = CARTESIAN_POINT ( 'NONE',  ( 0.05314949999999995373, 6.508936505128219101E-18, 0.0000000000000000000 ) ) ;
#6 = ORIENTED_EDGE ( 'NONE', *, *, #186, .T. ) ;
#7 = PRODUCT_DEFINITION_CONTEXT ( 'detailed design', #53, 'design' ) ;
#8 = EDGE_CURVE ( 'NONE', #247, #276, #327, .T. ) ;
#9 = VERTEX_POINT ( 'NONE', #63 ) ;
#10 = CARTESIAN_POINT ( 'NONE',  ( 0.0000000000000000000, 0.0000000000000000000, 0.7874019999999999353 ) ) ;
#11 = ORIENTED_EDGE ( 'NONE', *, *, #178, .T. ) ;
#12 = AXIS2_PLACEMENT_3D ( 'NONE', #274, #66, #142 ) ;
#13 = DIRECTION ( 'NONE',  ( -0.0000000000000000000, -0.0000000000000000000, -1.000000000000000000 ) ) ;
#14 = DIRECTION ( 'NONE',  ( 1.000000000000000000, 0.0000000000000000000, 0.0000000000000000000 ) ) ;
#15 = ORIENTED_EDGE ( 'NONE', *, *, #312, .F. ) ;
#16 = EDGE_CURVE ( 'NONE', #118, #65, #170, .T. ) ;
#17 = DIRECTION ( 'NONE',  ( -0.0000000000000000000, -0.0000000000000000000, -1.000000000000000000 ) ) ;
#18 = CARTESIAN_POINT ( 'NONE',  ( 0.0000000000000000000, 0.0000000000000000000, 0.0000000000000000000 ) ) ;
#19 = LINE ( 'NONE', #92, #175 ) ;
#20 = LINE ( 'NONE', #75, #313 ) ;
#21 = DIRECTION ( 'NONE',  ( -0.0000000000000000000, -0.0000000000000000000, -1.000000000000000000 ) ) ;
#22 = AXIS2_PLACEMENT_3D ( 'NONE', #172, #258, #233 ) ;
#23 = PRODUCT_DEFINITION_FORMATION_WITH_SPECIFIED_SOURCE ( 'ANY', '', #267, .NOT_KNOWN. ) ;
#24 = CONICAL_SURFACE ( 'NONE', #106, 0.1299209999999998422, 0.1027615830204128555 ) ;
#25 = EDGE_CURVE ( 'NONE', #9, #191, #1, .T. ) ;
#26 = ORIENTED_EDGE ( 'NONE', *, *, #25, .F. ) ;
#27 = DIRECTION ( 'NONE',  ( 0.0000000000000000000, 0.0000000000000000000, -1.000000000000000000 ) ) ;
#28 = VERTEX_POINT ( 'NONE', #39 ) ;
#29 = AXIS2_PLACEMENT_3D ( 'NONE', #314, #257, #193 ) ;
#30 =( LENGTH_UNIT ( ) NAMED_UNIT ( * ) SI_UNIT ( $, .METRE. ) );
#31 = EDGE_LOOP ( 'NONE', ( #326, #195, #185, #299 ) ) ;
#32 = CARTESIAN_POINT ( 'NONE',  ( 0.0000000000000000000, 0.0000000000000000000, 2.937755999999999368 ) ) ;
#33 =( NAMED_UNIT ( * ) PLANE_ANGLE_UNIT ( ) SI_UNIT ( $, .RADIAN. ) );
#34 = ORIENTED_EDGE ( 'NONE', *, *, #58, .T. ) ;
#35 = CYLINDRICAL_SURFACE ( 'NONE', #38, 0.1181100000000000344 ) ;
#36 = DIRECTION ( 'NONE',  ( 0.0000000000000000000, 0.0000000000000000000, 1.000000000000000000 ) ) ;
#37 = EDGE_LOOP ( 'NONE', ( #297, #250, #158, #309, #244 ) ) ;
#38 = AXIS2_PLACEMENT_3D ( 'NONE', #97, #17, #286 ) ;
#39 = CARTESIAN_POINT ( 'NONE',  ( 6.508936505128221412E-18, -0.05314949999999997454, 0.1368357679160022988 ) ) ;
#40 = CARTESIAN_POINT ( 'NONE',  ( -0.1299209999999998422, 1.591073367920230651E-17, 1.531854090909089194 ) ) ;
#41 = DIRECTION ( 'NONE',  ( 0.0000000000000000000, 0.0000000000000000000, 1.000000000000000000 ) ) ;
#42 = PLANE ( 'NONE',  #3 ) ;
#43 = CARTESIAN_POINT ( 'NONE',  ( 0.0000000000000000000, 0.0000000000000000000, 0.07874000000000000443 ) ) ;
#44 = SURFACE_STYLE_FILL_AREA ( #121 ) ;
#45 = ADVANCED_FACE ( 'NONE', ( #281 ), #251, .T. ) ;
#46 = VECTOR ( 'NONE', #224, 39.37007874015748143 ) ;
#47 = MECHANICAL_DESIGN_GEOMETRIC_PRESENTATION_REPRESENTATION (  '', ( #107 ), #155 ) ;
#48 = AXIS2_PLACEMENT_3D ( 'NONE', #324, #322, #268 ) ;
#49 =( LENGTH_UNIT ( ) NAMED_UNIT ( * ) SI_UNIT ( $, .METRE. ) );
#50 = LENGTH_MEASURE_WITH_UNIT ( LENGTH_MEASURE( 0.02539999999999999897 ), #49 );
#51 = ADVANCED_FACE ( 'NONE', ( #140 ), #164, .T. ) ;
#52 = AXIS2_PLACEMENT_3D ( 'NONE', #10, #61, #189 ) ;
#53 = APPLICATION_CONTEXT ( 'automotive_design' ) ;
#54 = CIRCLE ( 'NONE', #254, 0.1181100000000000344 ) ;
#55 = SURFACE_SIDE_STYLE ('',( #59 ) ) ;
#56 = DIRECTION ( 'NONE',  ( -1.000000000000000000, 0.0000000000000000000, 0.0000000000000000000 ) ) ;
#57 = ORIENTED_EDGE ( 'NONE', *, *, #148, .T. ) ;
#58 = EDGE_CURVE ( 'NONE', #60, #273, #278, .T. ) ;
#59 = SURFACE_STYLE_FILL_AREA ( #296 ) ;
#60 = VERTEX_POINT ( 'NONE', #255 ) ;
#61 = DIRECTION ( 'NONE',  ( -0.0000000000000000000, -0.0000000000000000000, -1.000000000000000000 ) ) ;
#62 = ORIENTED_EDGE ( 'NONE', *, *, #104, .T. ) ;
#63 = CARTESIAN_POINT ( 'NONE',  ( 0.05314949999999990515, 0.0000000000000000000, 0.7874019999999999353 ) ) ;
#64 = DIRECTION ( 'NONE',  ( -1.000000000000000000, 0.0000000000000000000, 0.0000000000000000000 ) ) ;
#65 = VERTEX_POINT ( 'NONE', #86 ) ;
#66 = DIRECTION ( 'NONE',  ( 0.0000000000000000000, 0.0000000000000000000, 1.000000000000000000 ) ) ;
#67 = DIRECTION ( 'NONE',  ( 0.0000000000000000000, 0.0000000000000000000, -1.000000000000000000 ) ) ;
#68 = EDGE_LOOP ( 'NONE', ( #111, #6, #11, #215 ) ) ;
#69 = CIRCLE ( 'NONE', #157, 0.1181100000000000344 ) ;
#70 = CARTESIAN_POINT ( 'NONE',  ( 0.1181100000000000344, 1.446430334472939084E-17, 2.952755999999999936 ) ) ;
#71 = CARTESIAN_POINT ( 'NONE',  ( 0.0000000000000000000, 0.0000000000000000000, 0.07874000000000000443 ) ) ;
#72 = LINE ( 'NONE', #310, #46 ) ;
#73 = FACE_OUTER_BOUND ( 'NONE', #68, .T. ) ;
#74 = EDGE_CURVE ( 'NONE', #219, #134, #72, .T. ) ;
#75 = CARTESIAN_POINT ( 'NONE',  ( -0.05314949999999995373, 0.0000000000000000000, 0.0000000000000000000 ) ) ;
#76 = SURFACE_STYLE_USAGE ( .BOTH. , #336 ) ;
#77 = CIRCLE ( 'NONE', #145, 0.07873999999999999055 ) ;
#78 = EDGE_CURVE ( 'NONE', #118, #60, #19, .T. ) ;
#79 = ORIENTED_EDGE ( 'NONE', *, *, #266, .T. ) ;
#80 = CARTESIAN_POINT ( 'NONE',  ( 0.0000000000000000000, 4.821434448243128484E-18, 1.707404996040164512E-17 ) ) ;
#81 = AXIS2_PLACEMENT_3D ( 'NONE', #194, #151, #315 ) ;
#82 =( GEOMETRIC_REPRESENTATION_CONTEXT ( 3 ) GLOBAL_UNCERTAINTY_ASSIGNED_CONTEXT ( ( #137 ) ) GLOBAL_UNIT_ASSIGNED_CONTEXT ( ( #87, #33, #249 ) ) REPRESENTATION_CONTEXT ( 'NONE', 'WORKASPACE' ) );
#83 = APPLICATION_CONTEXT ( 'automotive_design' ) ;
#84 = ADVANCED_FACE ( 'NONE', ( #171 ), #35, .T. ) ;
#85 = ORIENTED_EDGE ( 'NONE', *, *, #78, .F. ) ;
#86 = CARTESIAN_POINT ( 'NONE',  ( -0.1031099999999991745, 0.0000000000000000000, 2.952755999999999936 ) ) ;
#87 =( CONVERSION_BASED_UNIT ( 'INCH', #217 ) LENGTH_UNIT ( ) NAMED_UNIT ( #103 ) );
#88 = ORIENTED_EDGE ( 'NONE', *, *, #139, .F. ) ;
#89 = PRESENTATION_LAYER_ASSIGNMENT (  '', '', ( #177 ) ) ;
#90 = DIRECTION ( 'NONE',  ( 0.7071067811865486830, 8.659560562354947649E-17, -0.7071067811865462405 ) ) ;
#91 = ORIENTED_EDGE ( 'NONE', *, *, #16, .F. ) ;
#92 = CARTESIAN_POINT ( 'NONE',  ( 0.1031099999999991745, 1.262733314600825725E-17, 2.952755999999999936 ) ) ;
#93 = CYLINDRICAL_SURFACE ( 'NONE', #231, 0.05314949999999995373 ) ;
#94 = ORIENTED_EDGE ( 'NONE', *, *, #128, .T. ) ;
#95 = CARTESIAN_POINT ( 'NONE',  ( 0.0000000000000000000, 0.0000000000000000000, 0.7874019999999999353 ) ) ;
#96 = CONICAL_SURFACE ( 'NONE', #292, 0.1031099999999991745, 0.7853981633974500554 ) ;
#97 = CARTESIAN_POINT ( 'NONE',  ( 0.0000000000000000000, 0.0000000000000000000, 2.952755999999999936 ) ) ;
#98 = DIRECTION ( 'NONE',  ( 1.000000000000000000, 0.0000000000000000000, 0.0000000000000000000 ) ) ;
#99 = DIRECTION ( 'NONE',  ( -1.224646799147352961E-16, 1.000000000000000000, 0.0000000000000000000 ) ) ;
#100 = PRODUCT_DEFINITION ( 'UNKNOWN', '', #23, #7 ) ;
#101 = VECTOR ( 'NONE', #311, 39.37007874015748143 ) ;
#102 = AXIS2_PLACEMENT_3D ( 'NONE', #123, #13, #116 ) ;
#103 = DIMENSIONAL_EXPONENTS ( 1.000000000000000000, 0.0000000000000000000, 0.0000000000000000000, 0.0000000000000000000, 0.0000000000000000000, 0.0000000000000000000, 0.0000000000000000000 ) ;
#104 = EDGE_CURVE ( 'NONE', #134, #273, #69, .T. ) ;
#105 = FACE_OUTER_BOUND ( 'NONE', #4, .T. ) ;
#106 = AXIS2_PLACEMENT_3D ( 'NONE', #256, #197, #228 ) ;
#107 = STYLED_ITEM ( 'NONE', ( #285 ), #237 ) ;
#108 = ORIENTED_EDGE ( 'NONE', *, *, #8, .F. ) ;
#109 = ORIENTED_EDGE ( 'NONE', *, *, #192, .T. ) ;
#110 = LINE ( 'NONE', #2, #291 ) ;
#111 = ORIENTED_EDGE ( 'NONE', *, *, #8, .T. ) ;
#112 = FACE_OUTER_BOUND ( 'NONE', #37, .T. ) ;
#113 = EDGE_LOOP ( 'NONE', ( #79, #181 ) ) ;
#114 = PRODUCT_RELATED_PRODUCT_CATEGORY ( 'part', '', ( #267 ) ) ;
#115 = CONICAL_SURFACE ( 'NONE', #48, 0.1299209999999998422, 0.1027615830204128555 ) ;
#116 = DIRECTION ( 'NONE',  ( -1.000000000000000000, 0.0000000000000000000, 0.0000000000000000000 ) ) ;
#117 = FACE_OUTER_BOUND ( 'NONE', #161, .T. ) ;
#118 = VERTEX_POINT ( 'NONE', #248 ) ;
#119 = LINE ( 'NONE', #187, #210 ) ;
#120 = DIRECTION ( 'NONE',  ( 1.000000000000000000, 1.224646799147353207E-16, -0.0000000000000000000 ) ) ;
#121 = FILL_AREA_STYLE ('',( #174 ) ) ;
#122 = ADVANCED_FACE ( 'NONE', ( #112 ), #149, .T. ) ;
#123 = CARTESIAN_POINT ( 'NONE',  ( 0.0000000000000000000, 0.0000000000000000000, 2.952755999999999936 ) ) ;
#124 = CARTESIAN_POINT ( 'NONE',  ( 0.0000000000000000000, 0.05314949999999997454, 0.1368357679160022988 ) ) ;
#125 = AXIS2_PLACEMENT_3D ( 'NONE', #95, #199, #282 ) ;
#126 = CARTESIAN_POINT ( 'NONE',  ( -0.05314949999999990515, 1.048661992492880112E-17, 0.7874019999999999353 ) ) ;
#127 = DIRECTION ( 'NONE',  ( 1.000000000000000000, 0.0000000000000000000, 0.0000000000000000000 ) ) ;
#128 = EDGE_CURVE ( 'NONE', #273, #134, #180, .T. ) ;
#129 = AXIS2_PLACEMENT_3D ( 'NONE', #146, #303, #227 ) ;
#130 = PRESENTATION_LAYER_ASSIGNMENT (  '', '', ( #107 ) ) ;
#131 = AXIS2_PLACEMENT_3D ( 'NONE', #334, #166, #328 ) ;
#132 = DIMENSIONAL_EXPONENTS ( 1.000000000000000000, 0.0000000000000000000, 0.0000000000000000000, 0.0000000000000000000, 0.0000000000000000000, 0.0000000000000000000, 0.0000000000000000000 ) ;
#133 =( NAMED_UNIT ( * ) PLANE_ANGLE_UNIT ( ) SI_UNIT ( $, .RADIAN. ) );
#134 = VERTEX_POINT ( 'NONE', #306 ) ;
#135 = CARTESIAN_POINT ( 'NONE',  ( -0.05314949999999998842, 0.0000000000000000000, 0.1368357679160022988 ) ) ;
#136 = EDGE_LOOP ( 'NONE', ( #280, #26, #305, #272 ) ) ;
#137 = UNCERTAINTY_MEASURE_WITH_UNIT (LENGTH_MEASURE( 1.000000000000000082E-05 ), #87, 'distance_accuracy_value', 'NONE');
#138 = ORIENTED_EDGE ( 'NONE', *, *, #213, .F. ) ;
#139 = EDGE_CURVE ( 'NONE', #9, #273, #119, .T. ) ;
#140 = FACE_OUTER_BOUND ( 'NONE', #31, .T. ) ;
#141 = ORIENTED_EDGE ( 'NONE', *, *, #294, .F. ) ;
#142 = DIRECTION ( 'NONE',  ( 1.000000000000000000, 0.0000000000000000000, 0.0000000000000000000 ) ) ;
#143 = CARTESIAN_POINT ( 'NONE',  ( 0.1181100000000000344, 1.446430334472939084E-17, 1.417323000000000333 ) ) ;
#144 = EDGE_LOOP ( 'NONE', ( #91, #168, #163, #141 ) ) ;
#145 = AXIS2_PLACEMENT_3D ( 'NONE', #71, #120, #99 ) ;
#146 = CARTESIAN_POINT ( 'NONE',  ( 0.0000000000000000000, 0.0000000000000000000, 0.1368357679160022988 ) ) ;
#147 = DIRECTION ( 'NONE',  ( 1.000000000000000000, 0.0000000000000000000, 0.0000000000000000000 ) ) ;
#148 = EDGE_CURVE ( 'NONE', #60, #219, #290, .T. ) ;
#149 = CYLINDRICAL_SURFACE ( 'NONE', #29, 0.05314949999999995373 ) ;
#150 = DIRECTION ( 'NONE',  ( 1.000000000000000000, 0.0000000000000000000, -0.0000000000000000000 ) ) ;
#151 = DIRECTION ( 'NONE',  ( -0.0000000000000000000, -0.0000000000000000000, -1.000000000000000000 ) ) ;
#152 = APPLICATION_PROTOCOL_DEFINITION ( 'draft international standard', 'automotive_design', 1998, #53 ) ;
#153 = CLOSED_SHELL ( 'NONE', ( #176, #202, #277, #320, #45, #84, #240, #263, #205, #51, #122 ) ) ;
#154 = CIRCLE ( 'NONE', #22, 0.05314949999999998842 ) ;
#155 =( GEOMETRIC_REPRESENTATION_CONTEXT ( 3 ) GLOBAL_UNCERTAINTY_ASSIGNED_CONTEXT ( ( #270 ) ) GLOBAL_UNIT_ASSIGNED_CONTEXT ( ( #203, #235, #234 ) ) REPRESENTATION_CONTEXT ( 'NONE', 'WORKASPACE' ) );
#156 = EDGE_CURVE ( 'NONE', #219, #60, #54, .T. ) ;
#157 = AXIS2_PLACEMENT_3D ( 'NONE', #229, #41, #198 ) ;
#158 = ORIENTED_EDGE ( 'NONE', *, *, #213, .T. ) ;
#159 = SURFACE_STYLE_USAGE ( .BOTH. , #55 ) ;
#160 = ORIENTED_EDGE ( 'NONE', *, *, #74, .F. ) ;
#161 = EDGE_LOOP ( 'NONE', ( #109, #207, #108, #15, #138 ) ) ;
#162 = CARTESIAN_POINT ( 'NONE',  ( 0.0000000000000000000, 0.0000000000000000000, 0.07874000000000000443 ) ) ;
#163 = ORIENTED_EDGE ( 'NONE', *, *, #156, .F. ) ;
#164 = SPHERICAL_SURFACE ( 'NONE', #238, 0.07873999999999999055 ) ;
#165 = ORIENTED_EDGE ( 'NONE', *, *, #58, .F. ) ;
#166 = DIRECTION ( 'NONE',  ( 0.0000000000000000000, 0.0000000000000000000, 1.000000000000000000 ) ) ;
#167 = DIRECTION ( 'NONE',  ( -1.000000000000000000, 0.0000000000000000000, 0.0000000000000000000 ) ) ;
#168 = ORIENTED_EDGE ( 'NONE', *, *, #78, .T. ) ;
#169 = EDGE_CURVE ( 'NONE', #191, #134, #200, .T. ) ;
#170 = CIRCLE ( 'NONE', #131, 0.1031099999999991745 ) ;
#171 = FACE_OUTER_BOUND ( 'NONE', #221, .T. ) ;
#172 = CARTESIAN_POINT ( 'NONE',  ( 0.0000000000000000000, 0.0000000000000000000, 0.1368357679160022988 ) ) ;
#173 = FACE_OUTER_BOUND ( 'NONE', #333, .T. ) ;
#174 = FILL_AREA_STYLE_COLOUR ( '', #206 ) ;
#175 = VECTOR ( 'NONE', #90, 39.37007874015748854 ) ;
#176 = ADVANCED_FACE ( 'NONE', ( #117 ), #93, .T. ) ;
#177 = STYLED_ITEM ( 'NONE', ( #239 ), #307 ) ;
#178 = EDGE_CURVE ( 'NONE', #28, #269, #77, .T. ) ;
#179 = DIRECTION ( 'NONE',  ( -0.7071067811865486830, 0.0000000000000000000, -0.7071067811865462405 ) ) ;
#180 = CIRCLE ( 'NONE', #12, 0.1181100000000000344 ) ;
#181 = ORIENTED_EDGE ( 'NONE', *, *, #16, .T. ) ;
#182 = CARTESIAN_POINT ( 'NONE',  ( 0.0000000000000000000, 0.0000000000000000000, 0.1368357679160022988 ) ) ;
#183 = ORIENTED_EDGE ( 'NONE', *, *, #266, .F. ) ;
#184 =( NAMED_UNIT ( * ) SI_UNIT ( $, .STERADIAN. ) SOLID_ANGLE_UNIT ( ) );
#185 = ORIENTED_EDGE ( 'NONE', *, *, #312, .T. ) ;
#186 = EDGE_CURVE ( 'NONE', #276, #28, #343, .T. ) ;
#187 = CARTESIAN_POINT ( 'NONE',  ( 0.1299209999999998422, 0.0000000000000000000, 1.531854090909089194 ) ) ;
#188 = ORIENTED_EDGE ( 'NONE', *, *, #148, .F. ) ;
#189 = DIRECTION ( 'NONE',  ( -1.000000000000000000, 0.0000000000000000000, 0.0000000000000000000 ) ) ;
#190 = FACE_OUTER_BOUND ( 'NONE', #144, .T. ) ;
#191 = VERTEX_POINT ( 'NONE', #126 ) ;
#192 = EDGE_CURVE ( 'NONE', #191, #9, #271, .T. ) ;
#193 = DIRECTION ( 'NONE',  ( -1.000000000000000000, 0.0000000000000000000, 0.0000000000000000000 ) ) ;
#194 = CARTESIAN_POINT ( 'NONE',  ( 0.0000000000000000000, 0.0000000000000000000, 0.1368357679160022988 ) ) ;
#195 = ORIENTED_EDGE ( 'NONE', *, *, #223, .T. ) ;
#196 = DIRECTION ( 'NONE',  ( -0.0000000000000000000, -0.0000000000000000000, -1.000000000000000000 ) ) ;
#197 = DIRECTION ( 'NONE',  ( 0.0000000000000000000, 0.0000000000000000000, 1.000000000000000000 ) ) ;
#198 = DIRECTION ( 'NONE',  ( 1.000000000000000000, 0.0000000000000000000, 0.0000000000000000000 ) ) ;
#199 = DIRECTION ( 'NONE',  ( -0.0000000000000000000, -0.0000000000000000000, -1.000000000000000000 ) ) ;
#200 = LINE ( 'NONE', #40, #101 ) ;
#201 = APPLICATION_PROTOCOL_DEFINITION ( 'draft international standard', 'automotive_design', 1998, #83 ) ;
#202 = ADVANCED_FACE ( 'NONE', ( #73 ), #335, .T. ) ;
#203 =( CONVERSION_BASED_UNIT ( 'INCH', #50 ) LENGTH_UNIT ( ) NAMED_UNIT ( #132 ) );
#204 = AXIS2_PLACEMENT_3D ( 'NONE', #32, #308, #14 ) ;
#205 = ADVANCED_FACE ( 'NONE', ( #289 ), #24, .T. ) ;
#206 = COLOUR_RGB ( '',0.7921568627450980005, 0.8196078431372548767, 0.9333333333333333481 ) ;
#207 = ORIENTED_EDGE ( 'NONE', *, *, #342, .T. ) ;
#208 = DIRECTION ( 'NONE',  ( -1.000000000000000000, 0.0000000000000000000, 0.0000000000000000000 ) ) ;
#209 = LENGTH_MEASURE_WITH_UNIT ( LENGTH_MEASURE( 0.02539999999999999897 ), #301 );
#210 = VECTOR ( 'NONE', #300, 39.37007874015748143 ) ;
#211 = AXIS2_PLACEMENT_3D ( 'NONE', #304, #27, #64 ) ;
#212 = PRODUCT_DEFINITION_SHAPE ( 'NONE', 'NONE',  #100 ) ;
#213 = EDGE_CURVE ( 'NONE', #191, #325, #20, .T. ) ;
#214 = DIRECTION ( 'NONE',  ( -0.0000000000000000000, -0.0000000000000000000, -1.000000000000000000 ) ) ;
#215 = ORIENTED_EDGE ( 'NONE', *, *, #317, .F. ) ;
#216 = UNCERTAINTY_MEASURE_WITH_UNIT (LENGTH_MEASURE( 1.000000000000000082E-05 ), #265, 'distance_accuracy_value', 'NONE');
#217 = LENGTH_MEASURE_WITH_UNIT ( LENGTH_MEASURE( 0.02539999999999999897 ), #30 );
#218 = ORIENTED_EDGE ( 'NONE', *, *, #192, .F. ) ;
#219 = VERTEX_POINT ( 'NONE', #260 ) ;
#220 = CARTESIAN_POINT ( 'NONE',  ( 0.0000000000000000000, 0.0000000000000000000, 2.952755999999999936 ) ) ;
#221 = EDGE_LOOP ( 'NONE', ( #165, #57, #330, #62 ) ) ;
#222 = VECTOR ( 'NONE', #214, 39.37007874015748143 ) ;
#223 = EDGE_CURVE ( 'NONE', #28, #325, #154, .T. ) ;
#224 = DIRECTION ( 'NONE',  ( -0.0000000000000000000, -0.0000000000000000000, -1.000000000000000000 ) ) ;
#225 = DIRECTION ( 'NONE',  ( -0.0000000000000000000, -0.0000000000000000000, -1.000000000000000000 ) ) ;
#226 = ORIENTED_EDGE ( 'NONE', *, *, #294, .T. ) ;
#227 = DIRECTION ( 'NONE',  ( -1.000000000000000000, 0.0000000000000000000, 0.0000000000000000000 ) ) ;
#228 = DIRECTION ( 'NONE',  ( 1.000000000000000000, 0.0000000000000000000, 0.0000000000000000000 ) ) ;
#229 = CARTESIAN_POINT ( 'NONE',  ( 0.0000000000000000000, 0.0000000000000000000, 1.417323000000000333 ) ) ;
#230 = DIRECTION ( 'NONE',  ( 0.0000000000000000000, 0.0000000000000000000, -1.000000000000000000 ) ) ;
#231 = AXIS2_PLACEMENT_3D ( 'NONE', #18, #225, #167 ) ;
#232 = AXIS2_PLACEMENT_3D ( 'NONE', #262, #340, #127 ) ;
#233 = DIRECTION ( 'NONE',  ( -1.000000000000000000, 0.0000000000000000000, 0.0000000000000000000 ) ) ;
#234 =( NAMED_UNIT ( * ) SI_UNIT ( $, .STERADIAN. ) SOLID_ANGLE_UNIT ( ) );
#235 =( NAMED_UNIT ( * ) PLANE_ANGLE_UNIT ( ) SI_UNIT ( $, .RADIAN. ) );
#236 = AXIS2_PLACEMENT_3D ( 'NONE', #323, #56, #36 ) ;
#237 = ADVANCED_BREP_SHAPE_REPRESENTATION ( 'Micro_SBMM-040-420X', ( #307, #232 ), #82 ) ;
#238 = AXIS2_PLACEMENT_3D ( 'NONE', #162, #331, #337 ) ;
#239 = PRESENTATION_STYLE_ASSIGNMENT (( #159 ) ) ;
#240 = ADVANCED_FACE ( 'NONE', ( #287 ), #42, .T. ) ;
#241 = ORIENTED_EDGE ( 'NONE', *, *, #169, .T. ) ;
#242 = LINE ( 'NONE', #5, #222 ) ;
#243 = CIRCLE ( 'NONE', #318, 0.1031099999999991745 ) ;
#244 = ORIENTED_EDGE ( 'NONE', *, *, #186, .F. ) ;
#245 = CIRCLE ( 'NONE', #261, 0.05314949999999998842 ) ;
#246 = CARTESIAN_POINT ( 'NONE',  ( 0.05314949999999998842, 6.508936505128223723E-18, 0.1368357679160022988 ) ) ;
#247 = VERTEX_POINT ( 'NONE', #124 ) ;
#248 = CARTESIAN_POINT ( 'NONE',  ( 0.1031099999999991745, 1.354581824536882559E-17, 2.952755999999999936 ) ) ;
#249 =( NAMED_UNIT ( * ) SI_UNIT ( $, .STERADIAN. ) SOLID_ANGLE_UNIT ( ) );
#250 = ORIENTED_EDGE ( 'NONE', *, *, #25, .T. ) ;
#251 = CYLINDRICAL_SURFACE ( 'NONE', #102, 0.1181100000000000344 ) ;
#252 = DIRECTION ( 'NONE',  ( 1.000000000000000000, 0.0000000000000000000, 0.0000000000000000000 ) ) ;
#253 = EDGE_LOOP ( 'NONE', ( #302, #34, #94, #160 ) ) ;
#254 = AXIS2_PLACEMENT_3D ( 'NONE', #338, #67, #98 ) ;
#255 = CARTESIAN_POINT ( 'NONE',  ( 0.1181100000000000344, 1.446430334472939084E-17, 2.937755999999999368 ) ) ;
#256 = CARTESIAN_POINT ( 'NONE',  ( 0.0000000000000000000, 0.0000000000000000000, 1.531854090909089194 ) ) ;
#257 = DIRECTION ( 'NONE',  ( -0.0000000000000000000, -0.0000000000000000000, -1.000000000000000000 ) ) ;
#258 = DIRECTION ( 'NONE',  ( -0.0000000000000000000, -0.0000000000000000000, -1.000000000000000000 ) ) ;
#259 = PRODUCT_CONTEXT ( 'NONE', #83, 'mechanical' ) ;
#260 = CARTESIAN_POINT ( 'NONE',  ( -0.1181100000000000344, 0.0000000000000000000, 2.937755999999999368 ) ) ;
#261 = AXIS2_PLACEMENT_3D ( 'NONE', #182, #298, #275 ) ;
#262 = CARTESIAN_POINT ( 'NONE',  ( 0.0000000000000000000, 0.0000000000000000000, 0.0000000000000000000 ) ) ;
#263 = ADVANCED_FACE ( 'NONE', ( #173 ), #96, .T. ) ;
#264 =( GEOMETRIC_REPRESENTATION_CONTEXT ( 3 ) GLOBAL_UNCERTAINTY_ASSIGNED_CONTEXT ( ( #216 ) ) GLOBAL_UNIT_ASSIGNED_CONTEXT ( ( #265, #133, #184 ) ) REPRESENTATION_CONTEXT ( 'NONE', 'WORKASPACE' ) );
#265 =( CONVERSION_BASED_UNIT ( 'INCH', #209 ) LENGTH_UNIT ( ) NAMED_UNIT ( #345 ) );
#266 = EDGE_CURVE ( 'NONE', #65, #118, #243, .T. ) ;
#267 = PRODUCT ( 'Micro_SBMM-040-420X', 'Micro_SBMM-040-420X', '', ( #259 ) ) ;
#268 = DIRECTION ( 'NONE',  ( 1.000000000000000000, 0.0000000000000000000, 0.0000000000000000000 ) ) ;
#269 = VERTEX_POINT ( 'NONE', #80 ) ;
#270 = UNCERTAINTY_MEASURE_WITH_UNIT (LENGTH_MEASURE( 1.000000000000000082E-05 ), #203, 'distance_accuracy_value', 'NONE');
#271 = CIRCLE ( 'NONE', #125, 0.05314949999999990515 ) ;
#272 = ORIENTED_EDGE ( 'NONE', *, *, #104, .F. ) ;
#273 = VERTEX_POINT ( 'NONE', #143 ) ;
#274 = CARTESIAN_POINT ( 'NONE',  ( 0.0000000000000000000, 0.0000000000000000000, 1.417323000000000333 ) ) ;
#275 = DIRECTION ( 'NONE',  ( -1.000000000000000000, 0.0000000000000000000, 0.0000000000000000000 ) ) ;
#276 = VERTEX_POINT ( 'NONE', #246 ) ;
#277 = ADVANCED_FACE ( 'NONE', ( #105 ), #115, .T. ) ;
#278 = LINE ( 'NONE', #70, #293 ) ;
#279 = DIRECTION ( 'NONE',  ( 0.0000000000000000000, 0.0000000000000000000, 1.000000000000000000 ) ) ;
#280 = ORIENTED_EDGE ( 'NONE', *, *, #169, .F. ) ;
#281 = FACE_OUTER_BOUND ( 'NONE', #253, .T. ) ;
#282 = DIRECTION ( 'NONE',  ( -1.000000000000000000, 0.0000000000000000000, 0.0000000000000000000 ) ) ;
#283 = AXIS2_PLACEMENT_3D ( 'NONE', #43, #147, #316 ) ;
#284 = CIRCLE ( 'NONE', #236, 0.07873999999999996280 ) ;
#285 = PRESENTATION_STYLE_ASSIGNMENT (( #76 ) ) ;
#286 = DIRECTION ( 'NONE',  ( -1.000000000000000000, 0.0000000000000000000, 0.0000000000000000000 ) ) ;
#287 = FACE_OUTER_BOUND ( 'NONE', #113, .T. ) ;
#288 = DIRECTION ( 'NONE',  ( 0.0000000000000000000, 0.0000000000000000000, 1.000000000000000000 ) ) ;
#289 = FACE_OUTER_BOUND ( 'NONE', #136, .T. ) ;
#290 = CIRCLE ( 'NONE', #204, 0.1181100000000000344 ) ;
#291 = VECTOR ( 'NONE', #179, 39.37007874015748854 ) ;
#292 = AXIS2_PLACEMENT_3D ( 'NONE', #332, #230, #208 ) ;
#293 = VECTOR ( 'NONE', #196, 39.37007874015748143 ) ;
#294 = EDGE_CURVE ( 'NONE', #65, #219, #110, .T. ) ;
#295 = FILL_AREA_STYLE_COLOUR ( '', #344 ) ;
#296 = FILL_AREA_STYLE ('',( #295 ) ) ;
#297 = ORIENTED_EDGE ( 'NONE', *, *, #342, .F. ) ;
#298 = DIRECTION ( 'NONE',  ( -0.0000000000000000000, -0.0000000000000000000, -1.000000000000000000 ) ) ;
#299 = ORIENTED_EDGE ( 'NONE', *, *, #317, .T. ) ;
#300 = DIRECTION ( 'NONE',  ( 0.1025808190807222103, 0.0000000000000000000, 0.9947246732421630711 ) ) ;
#301 =( LENGTH_UNIT ( ) NAMED_UNIT ( * ) SI_UNIT ( $, .METRE. ) );
#302 = ORIENTED_EDGE ( 'NONE', *, *, #156, .T. ) ;
#303 = DIRECTION ( 'NONE',  ( -0.0000000000000000000, -0.0000000000000000000, -1.000000000000000000 ) ) ;
#304 = CARTESIAN_POINT ( 'NONE',  ( 0.0000000000000000000, 0.0000000000000000000, 2.952755999999999936 ) ) ;
#305 = ORIENTED_EDGE ( 'NONE', *, *, #139, .T. ) ;
#306 = CARTESIAN_POINT ( 'NONE',  ( -0.1181100000000000344, 0.0000000000000000000, 1.417323000000000333 ) ) ;
#307 = MANIFOLD_SOLID_BREP ( 'Cut-Revolve3', #153 ) ;
#308 = DIRECTION ( 'NONE',  ( 0.0000000000000000000, 0.0000000000000000000, -1.000000000000000000 ) ) ;
#309 = ORIENTED_EDGE ( 'NONE', *, *, #223, .F. ) ;
#310 = CARTESIAN_POINT ( 'NONE',  ( -0.1181100000000000344, 0.0000000000000000000, 2.952755999999999936 ) ) ;
#311 = DIRECTION ( 'NONE',  ( -0.1025808190807222103, 1.256252717411202019E-17, 0.9947246732421630711 ) ) ;
#312 = EDGE_CURVE ( 'NONE', #325, #247, #245, .T. ) ;
#313 = VECTOR ( 'NONE', #21, 39.37007874015748143 ) ;
#314 = CARTESIAN_POINT ( 'NONE',  ( 0.0000000000000000000, 0.0000000000000000000, 0.0000000000000000000 ) ) ;
#315 = DIRECTION ( 'NONE',  ( -1.000000000000000000, 0.0000000000000000000, 0.0000000000000000000 ) ) ;
#316 = DIRECTION ( 'NONE',  ( 0.0000000000000000000, 1.000000000000000000, 0.0000000000000000000 ) ) ;
#317 = EDGE_CURVE ( 'NONE', #247, #269, #284, .T. ) ;
#318 = AXIS2_PLACEMENT_3D ( 'NONE', #220, #279, #252 ) ;
#319 = MECHANICAL_DESIGN_GEOMETRIC_PRESENTATION_REPRESENTATION (  '', ( #177 ), #264 ) ;
#320 = ADVANCED_FACE ( 'NONE', ( #190 ), #329, .T. ) ;
#321 = ORIENTED_EDGE ( 'NONE', *, *, #128, .F. ) ;
#322 = DIRECTION ( 'NONE',  ( 0.0000000000000000000, 0.0000000000000000000, 1.000000000000000000 ) ) ;
#323 = CARTESIAN_POINT ( 'NONE',  ( 0.0000000000000000000, 0.0000000000000000000, 0.07874000000000000443 ) ) ;
#324 = CARTESIAN_POINT ( 'NONE',  ( 0.0000000000000000000, 0.0000000000000000000, 1.531854090909089194 ) ) ;
#325 = VERTEX_POINT ( 'NONE', #135 ) ;
#326 = ORIENTED_EDGE ( 'NONE', *, *, #178, .F. ) ;
#327 = CIRCLE ( 'NONE', #129, 0.05314949999999998842 ) ;
#328 = DIRECTION ( 'NONE',  ( 1.000000000000000000, 0.0000000000000000000, 0.0000000000000000000 ) ) ;
#329 = CONICAL_SURFACE ( 'NONE', #211, 0.1031099999999991745, 0.7853981633974500554 ) ;
#330 = ORIENTED_EDGE ( 'NONE', *, *, #74, .T. ) ;
#331 = DIRECTION ( 'NONE',  ( 1.000000000000000000, 0.0000000000000000000, 0.0000000000000000000 ) ) ;
#332 = CARTESIAN_POINT ( 'NONE',  ( 0.0000000000000000000, 0.0000000000000000000, 2.952755999999999936 ) ) ;
#333 = EDGE_LOOP ( 'NONE', ( #85, #183, #226, #188 ) ) ;
#334 = CARTESIAN_POINT ( 'NONE',  ( 0.0000000000000000000, 0.0000000000000000000, 2.952755999999999936 ) ) ;
#335 = SPHERICAL_SURFACE ( 'NONE', #283, 0.07873999999999999055 ) ;
#336 = SURFACE_SIDE_STYLE ('',( #44 ) ) ;
#337 = DIRECTION ( 'NONE',  ( 0.0000000000000000000, 1.000000000000000000, 0.0000000000000000000 ) ) ;
#338 = CARTESIAN_POINT ( 'NONE',  ( 0.0000000000000000000, 0.0000000000000000000, 2.937755999999999368 ) ) ;
#339 = CARTESIAN_POINT ( 'NONE',  ( 0.0000000000000000000, 0.0000000000000000000, 2.952755999999999936 ) ) ;
#340 = DIRECTION ( 'NONE',  ( 0.0000000000000000000, 0.0000000000000000000, 1.000000000000000000 ) ) ;
#341 = SHAPE_DEFINITION_REPRESENTATION ( #212, #237 ) ;
#342 = EDGE_CURVE ( 'NONE', #9, #276, #242, .T. ) ;
#343 = CIRCLE ( 'NONE', #81, 0.05314949999999998842 ) ;
#344 = COLOUR_RGB ( '',0.7921568627450980005, 0.8196078431372548767, 0.9333333333333333481 ) ;
#345 = DIMENSIONAL_EXPONENTS ( 1.000000000000000000, 0.0000000000000000000, 0.0000000000000000000, 0.0000000000000000000, 0.0000000000000000000, 0.0000000000000000000, 0.0000000000000000000 ) ;
ENDSEC;
END-ISO-10303-21;
