ISO-10303-21;
HEADER;
FILE_DESCRIPTION (( 'STEP AP214' ),
    '1' );
FILE_NAME ('83411.STEP',
    '2023-06-30T23:10:44',
    ( '' ),
    ( '' ),
    'SwSTEP 2.0',
    'SolidWorks 2023',
    '' );
FILE_SCHEMA (( 'AUTOMOTIVE_DESIGN' ));
ENDSEC;

DATA;
#1 = DIRECTION ( 'NONE',  ( 1.367485596165987018E-16, -1.000000000000000000, 0.000000000000000000 ) ) ;
#2 = SURFACE_STYLE_FILL_AREA ( #326 ) ;
#3 =( NAMED_UNIT ( * ) PLANE_ANGLE_UNIT ( ) SI_UNIT ( $, .RADIAN. ) );
#4 = ADVANCED_FACE ( 'NONE', ( #258 ), #317, .T. ) ;
#5 =( GEOMETRIC_REPRESENTATION_CONTEXT ( 3 ) GLOBAL_UNCERTAINTY_ASSIGNED_CONTEXT ( ( #140 ) ) GLOBAL_UNIT_ASSIGNED_CONTEXT ( ( #176, #224, #14 ) ) REPRESENTATION_CONTEXT ( 'NONE', 'WORKASPACE' ) );
#6 = DIMENSIONAL_EXPONENTS ( 1.000000000000000000, 0.000000000000000000, 0.000000000000000000, 0.000000000000000000, 0.000000000000000000, 0.000000000000000000, 0.000000000000000000 ) ;
#7 = EDGE_CURVE ( 'NONE', #162, #56, #322, .T. ) ;
#8 = DIRECTION ( 'NONE',  ( 1.000000000000000000, 0.000000000000000000, -1.224646799147353207E-16 ) ) ;
#9 = UNCERTAINTY_MEASURE_WITH_UNIT (LENGTH_MEASURE( 1.000000000000000082E-05 ), #362, 'distance_accuracy_value', 'NONE');
#10 = EDGE_LOOP ( 'NONE', ( #116, #205, #130, #336 ) ) ;
#11 =( NAMED_UNIT ( * ) SI_UNIT ( $, .STERADIAN. ) SOLID_ANGLE_UNIT ( ) );
#12 = AXIS2_PLACEMENT_3D ( 'NONE', #93, #154, #179 ) ;
#13 = SPHERICAL_SURFACE ( 'NONE', #182, 0.06250000000000001388 ) ;
#14 =( NAMED_UNIT ( * ) SI_UNIT ( $, .STERADIAN. ) SOLID_ANGLE_UNIT ( ) );
#15 = PRESENTATION_STYLE_ASSIGNMENT (( #226 ) ) ;
#16 = ORIENTED_EDGE ( 'NONE', *, *, #66, .T. ) ;
#17 =( LENGTH_UNIT ( ) NAMED_UNIT ( * ) SI_UNIT ( $, .METRE. ) );
#18 = FILL_AREA_STYLE_COLOUR ( '', #282 ) ;
#19 = SURFACE_STYLE_FILL_AREA ( #155 ) ;
#20 = ORIENTED_EDGE ( 'NONE', *, *, #174, .T. ) ;
#21 = SURFACE_SIDE_STYLE ('',( #308 ) ) ;
#22 = PRODUCT_DEFINITION ( 'UNKNOWN', '', #333, #356 ) ;
#23 = PRESENTATION_LAYER_ASSIGNMENT (  '', '', ( #189 ) ) ;
#24 = FACE_OUTER_BOUND ( 'NONE', #290, .T. ) ;
#25 = ORIENTED_EDGE ( 'NONE', *, *, #7, .F. ) ;
#26 = STYLED_ITEM ( 'NONE', ( #297 ), #344 ) ;
#27 = DIRECTION ( 'NONE',  ( 0.000000000000000000, 1.000000000000000000, 0.000000000000000000 ) ) ;
#28 = EDGE_CURVE ( 'NONE', #250, #243, #170, .T. ) ;
#29 =( NAMED_UNIT ( * ) SI_UNIT ( $, .STERADIAN. ) SOLID_ANGLE_UNIT ( ) );
#30 = SURFACE_STYLE_FILL_AREA ( #184 ) ;
#31 = VERTEX_POINT ( 'NONE', #232 ) ;
#32 =( LENGTH_UNIT ( ) NAMED_UNIT ( * ) SI_UNIT ( $, .METRE. ) );
#33 = DIRECTION ( 'NONE',  ( -1.000000000000000000, 0.000000000000000000, 0.000000000000000000 ) ) ;
#34 = FACE_OUTER_BOUND ( 'NONE', #95, .T. ) ;
#35 = MECHANICAL_DESIGN_GEOMETRIC_PRESENTATION_REPRESENTATION (  '', ( #358 ), #171 ) ;
#36 = EDGE_CURVE ( 'NONE', #192, #204, #331, .T. ) ;
#37 = DIRECTION ( 'NONE',  ( 1.000000000000000000, 0.000000000000000000, 0.000000000000000000 ) ) ;
#38 = DIMENSIONAL_EXPONENTS ( 1.000000000000000000, 0.000000000000000000, 0.000000000000000000, 0.000000000000000000, 0.000000000000000000, 0.000000000000000000, 0.000000000000000000 ) ;
#39 = PRODUCT_CONTEXT ( 'NONE', #246, 'mechanical' ) ;
#40 = DIRECTION ( 'NONE',  ( 0.000000000000000000, 0.000000000000000000, -1.000000000000000000 ) ) ;
#41 = AXIS2_PLACEMENT_3D ( 'NONE', #354, #321, #135 ) ;
#42 = FACE_OUTER_BOUND ( 'NONE', #127, .T. ) ;
#43 = UNCERTAINTY_MEASURE_WITH_UNIT (LENGTH_MEASURE( 1.000000000000000082E-05 ), #141, 'distance_accuracy_value', 'NONE');
#44 = CARTESIAN_POINT ( 'NONE',  ( 0.000000000000000000, 0.06250000000000001388, 0.000000000000000000 ) ) ;
#45 = LENGTH_MEASURE_WITH_UNIT ( LENGTH_MEASURE( 0.02539999999999999897 ), #196 );
#46 = FILL_AREA_STYLE_COLOUR ( '', #254 ) ;
#47 =( NAMED_UNIT ( * ) SI_UNIT ( $, .STERADIAN. ) SOLID_ANGLE_UNIT ( ) );
#48 = ORIENTED_EDGE ( 'NONE', *, *, #100, .T. ) ;
#49 = CIRCLE ( 'NONE', #266, 0.06250000000000001388 ) ;
#50 =( NAMED_UNIT ( * ) PLANE_ANGLE_UNIT ( ) SI_UNIT ( $, .RADIAN. ) );
#51 = PRESENTATION_STYLE_ASSIGNMENT (( #118 ) ) ;
#52 = DIRECTION ( 'NONE',  ( -0.000000000000000000, -1.000000000000000000, -0.000000000000000000 ) ) ;
#53 = CARTESIAN_POINT ( 'NONE',  ( 7.654042494670956004E-18, 0.000000000000000000, 0.06249999999999997918 ) ) ;
#54 = ADVANCED_FACE ( 'NONE', ( #346 ), #65, .T. ) ;
#55 = ORIENTED_EDGE ( 'NONE', *, *, #159, .F. ) ;
#56 = VERTEX_POINT ( 'NONE', #146 ) ;
#57 = FILL_AREA_STYLE_COLOUR ( '', #327 ) ;
#58 = DIRECTION ( 'NONE',  ( -1.367485596165987018E-16, 1.000000000000000000, -0.000000000000000000 ) ) ;
#59 = APPLICATION_PROTOCOL_DEFINITION ( 'draft international standard', 'automotive_design', 1998, #246 ) ;
#60 =( CONVERSION_BASED_UNIT ( 'INCH', #318 ) LENGTH_UNIT ( ) NAMED_UNIT ( #351 ) );
#61 = ORIENTED_EDGE ( 'NONE', *, *, #28, .F. ) ;
#62 = AXIS2_PLACEMENT_3D ( 'NONE', #273, #1, #324 ) ;
#63 = DIRECTION ( 'NONE',  ( 0.000000000000000000, 0.000000000000000000, -1.000000000000000000 ) ) ;
#64 = DIRECTION ( 'NONE',  ( -0.000000000000000000, -1.000000000000000000, -0.000000000000000000 ) ) ;
#65 = PLANE ( 'NONE',  #161 ) ;
#66 = EDGE_CURVE ( 'NONE', #370, #250, #313, .T. ) ;
#67 = FILL_AREA_STYLE_COLOUR ( '', #152 ) ;
#68 = MECHANICAL_DESIGN_GEOMETRIC_PRESENTATION_REPRESENTATION (  '', ( #299 ), #80 ) ;
#69 = PRESENTATION_LAYER_ASSIGNMENT (  '', '', ( #26 ) ) ;
#70 =( NAMED_UNIT ( * ) SI_UNIT ( $, .STERADIAN. ) SOLID_ANGLE_UNIT ( ) );
#71 = DIRECTION ( 'NONE',  ( -1.000000000000000000, 0.000000000000000000, 0.000000000000000000 ) ) ;
#72 = CARTESIAN_POINT ( 'NONE',  ( -7.654042494670957545E-18, 0.06250000000000001388, 0.000000000000000000 ) ) ;
#73 = AXIS2_PLACEMENT_3D ( 'NONE', #343, #291, #63 ) ;
#74 =( LENGTH_UNIT ( ) NAMED_UNIT ( * ) SI_UNIT ( $, .METRE. ) );
#75 = UNCERTAINTY_MEASURE_WITH_UNIT (LENGTH_MEASURE( 1.000000000000000082E-05 ), #221, 'distance_accuracy_value', 'NONE');
#76 = SURFACE_STYLE_USAGE ( .BOTH. , #239 ) ;
#77 =( NAMED_UNIT ( * ) SI_UNIT ( $, .STERADIAN. ) SOLID_ANGLE_UNIT ( ) );
#78 = VERTEX_POINT ( 'NONE', #180 ) ;
#79 = DIRECTION ( 'NONE',  ( -1.367485596165987018E-16, 1.000000000000000000, -0.000000000000000000 ) ) ;
#80 =( GEOMETRIC_REPRESENTATION_CONTEXT ( 3 ) GLOBAL_UNCERTAINTY_ASSIGNED_CONTEXT ( ( #75 ) ) GLOBAL_UNIT_ASSIGNED_CONTEXT ( ( #221, #251, #29 ) ) REPRESENTATION_CONTEXT ( 'NONE', 'WORKASPACE' ) );
#81 = SURFACE_STYLE_FILL_AREA ( #329 ) ;
#82 = STYLED_ITEM ( 'NONE', ( #15 ), #131 ) ;
#83 = DIRECTION ( 'NONE',  ( 1.000000000000000000, 0.000000000000000000, 0.000000000000000000 ) ) ;
#84 = AXIS2_PLACEMENT_3D ( 'NONE', #97, #206, #37 ) ;
#85 = LENGTH_MEASURE_WITH_UNIT ( LENGTH_MEASURE( 0.02539999999999999897 ), #17 );
#86 =( NAMED_UNIT ( * ) PLANE_ANGLE_UNIT ( ) SI_UNIT ( $, .RADIAN. ) );
#87 = ORIENTED_EDGE ( 'NONE', *, *, #122, .F. ) ;
#88 = EDGE_CURVE ( 'NONE', #370, #78, #151, .T. ) ;
#89 = DIRECTION ( 'NONE',  ( 0.000000000000000000, 0.000000000000000000, -1.000000000000000000 ) ) ;
#90 = CARTESIAN_POINT ( 'NONE',  ( 5.625652490679608955E-16, 0.6250000000000000000, 0.000000000000000000 ) ) ;
#91 = ADVANCED_BREP_SHAPE_REPRESENTATION ( '83411', ( #348, #227, #84 ), #363 ) ;
#92 = AXIS2_PLACEMENT_3D ( 'NONE', #279, #247, #222 ) ;
#93 = CARTESIAN_POINT ( 'NONE',  ( 0.000000000000000000, 0.6250000000000000000, 0.000000000000000000 ) ) ;
#94 = DIRECTION ( 'NONE',  ( -1.367485596165987018E-16, 1.000000000000000000, -0.000000000000000000 ) ) ;
#95 = EDGE_LOOP ( 'NONE', ( #197, #319, #262, #111 ) ) ;
#96 = ORIENTED_EDGE ( 'NONE', *, *, #217, .F. ) ;
#97 = CARTESIAN_POINT ( 'NONE',  ( 0.000000000000000000, 0.000000000000000000, 0.000000000000000000 ) ) ;
#98 = PRESENTATION_LAYER_ASSIGNMENT (  '', '', ( #299 ) ) ;
#99 = MECHANICAL_DESIGN_GEOMETRIC_PRESENTATION_REPRESENTATION (  '', ( #82 ), #307 ) ;
#100 = EDGE_CURVE ( 'NONE', #78, #192, #288, .T. ) ;
#101 = ADVANCED_FACE ( 'NONE', ( #366 ), #126, .T. ) ;
#102 = VECTOR ( 'NONE', #286, 39.37007874015748143 ) ;
#103 = DIMENSIONAL_EXPONENTS ( 1.000000000000000000, 0.000000000000000000, 0.000000000000000000, 0.000000000000000000, 0.000000000000000000, 0.000000000000000000, 0.000000000000000000 ) ;
#104 = CARTESIAN_POINT ( 'NONE',  ( 0.000000000000000000, 0.06250000000000001388, -0.06250000000000001388 ) ) ;
#105 = CYLINDRICAL_SURFACE ( 'NONE', #134, 0.06249999999999997918 ) ;
#106 = UNCERTAINTY_MEASURE_WITH_UNIT (LENGTH_MEASURE( 1.000000000000000082E-05 ), #284, 'distance_accuracy_value', 'NONE');
#107 = LENGTH_MEASURE_WITH_UNIT ( LENGTH_MEASURE( 0.02539999999999999897 ), #168 );
#108 = CARTESIAN_POINT ( 'NONE',  ( 3.061616997868383141E-16, 2.500000000000000000, 0.000000000000000000 ) ) ;
#109 = COLOUR_RGB ( '',1.000000000000000000, 0.000000000000000000, 0.000000000000000000 ) ;
#110 = DIRECTION ( 'NONE',  ( -0.000000000000000000, -1.000000000000000000, -0.000000000000000000 ) ) ;
#111 = ORIENTED_EDGE ( 'NONE', *, *, #309, .F. ) ;
#112 = FILL_AREA_STYLE ('',( #46 ) ) ;
#113 = ADVANCED_FACE ( 'NONE', ( #164 ), #257, .T. ) ;
#114 = CARTESIAN_POINT ( 'NONE',  ( 0.000000000000000000, 0.000000000000000000, 0.000000000000000000 ) ) ;
#115 = LINE ( 'NONE', #219, #368 ) ;
#116 = ORIENTED_EDGE ( 'NONE', *, *, #36, .T. ) ;
#117 = FILL_AREA_STYLE ('',( #305 ) ) ;
#118 = SURFACE_STYLE_USAGE ( .BOTH. , #21 ) ;
#119 = CLOSED_SHELL ( 'NONE', ( #210, #281, #4, #248 ) ) ;
#120 = SURFACE_STYLE_USAGE ( .BOTH. , #256 ) ;
#121 = EDGE_LOOP ( 'NONE', ( #342, #220 ) ) ;
#122 = EDGE_CURVE ( 'NONE', #243, #192, #315, .T. ) ;
#123 = LENGTH_MEASURE_WITH_UNIT ( LENGTH_MEASURE( 0.02539999999999999897 ), #144 );
#124 = ORIENTED_EDGE ( 'NONE', *, *, #7, .T. ) ;
#125 = CARTESIAN_POINT ( 'NONE',  ( 3.061616997868383141E-16, 2.500000000000000000, 0.000000000000000000 ) ) ;
#126 = CYLINDRICAL_SURFACE ( 'NONE', #314, 0.06249999999999997918 ) ;
#127 = EDGE_LOOP ( 'NONE', ( #225, #25 ) ) ;
#128 = AXIS2_PLACEMENT_3D ( 'NONE', #330, #335, #83 ) ;
#129 =( NAMED_UNIT ( * ) PLANE_ANGLE_UNIT ( ) SI_UNIT ( $, .RADIAN. ) );
#130 = ORIENTED_EDGE ( 'NONE', *, *, #259, .F. ) ;
#131 = ADVANCED_FACE ( 'NONE', ( #24 ), #13, .T. ) ;
#132 = CARTESIAN_POINT ( 'NONE',  ( 0.000000000000000000, 0.000000000000000000, 0.000000000000000000 ) ) ;
#133 = MECHANICAL_DESIGN_GEOMETRIC_PRESENTATION_REPRESENTATION (  '', ( #189 ), #181 ) ;
#134 = AXIS2_PLACEMENT_3D ( 'NONE', #114, #52, #89 ) ;
#135 = DIRECTION ( 'NONE',  ( -1.000000000000000000, -1.367485596165987018E-16, 0.000000000000000000 ) ) ;
#136 = DIRECTION ( 'NONE',  ( -1.367485596165987018E-16, 1.000000000000000000, -0.000000000000000000 ) ) ;
#137 = DIMENSIONAL_EXPONENTS ( 1.000000000000000000, 0.000000000000000000, 0.000000000000000000, 0.000000000000000000, 0.000000000000000000, 0.000000000000000000, 0.000000000000000000 ) ;
#138 = FACE_OUTER_BOUND ( 'NONE', #121, .T. ) ;
#139 = DIRECTION ( 'NONE',  ( -1.367485596165987018E-16, 1.000000000000000000, -0.000000000000000000 ) ) ;
#140 = UNCERTAINTY_MEASURE_WITH_UNIT (LENGTH_MEASURE( 1.000000000000000082E-05 ), #176, 'distance_accuracy_value', 'NONE');
#141 =( CONVERSION_BASED_UNIT ( 'INCH', #107 ) LENGTH_UNIT ( ) NAMED_UNIT ( #6 ) );
#142 = ORIENTED_EDGE ( 'NONE', *, *, #190, .T. ) ;
#143 = SURFACE_STYLE_USAGE ( .BOTH. , #218 ) ;
#144 =( LENGTH_UNIT ( ) NAMED_UNIT ( * ) SI_UNIT ( $, .METRE. ) );
#145 = DIRECTION ( 'NONE',  ( 0.000000000000000000, 0.000000000000000000, 1.000000000000000000 ) ) ;
#146 = CARTESIAN_POINT ( 'NONE',  ( -0.06249999999999882039, 0.6250000000000000000, 0.000000000000000000 ) ) ;
#147 = ORIENTED_EDGE ( 'NONE', *, *, #88, .F. ) ;
#148 = SURFACE_SIDE_STYLE ('',( #19 ) ) ;
#149 = ORIENTED_EDGE ( 'NONE', *, *, #88, .T. ) ;
#150 =( CONVERSION_BASED_UNIT ( 'INCH', #85 ) LENGTH_UNIT ( ) NAMED_UNIT ( #296 ) );
#151 = CIRCLE ( 'NONE', #12, 0.06249999999999995143 ) ;
#152 = COLOUR_RGB ( '',1.000000000000000000, 0.000000000000000000, 0.000000000000000000 ) ;
#153 = ORIENTED_EDGE ( 'NONE', *, *, #190, .F. ) ;
#154 = DIRECTION ( 'NONE',  ( -0.000000000000000000, -1.000000000000000000, -0.000000000000000000 ) ) ;
#155 = FILL_AREA_STYLE ('',( #195 ) ) ;
#156 = VERTEX_POINT ( 'NONE', #280 ) ;
#157 = SURFACE_SIDE_STYLE ('',( #30 ) ) ;
#158 = EDGE_LOOP ( 'NONE', ( #55, #124, #328, #96 ) ) ;
#159 = EDGE_CURVE ( 'NONE', #162, #31, #115, .T. ) ;
#160 = APPLICATION_CONTEXT ( 'automotive_design' ) ;
#161 = AXIS2_PLACEMENT_3D ( 'NONE', #200, #27, #341 ) ;
#162 = VERTEX_POINT ( 'NONE', #177 ) ;
#163 = AXIS2_PLACEMENT_3D ( 'NONE', #283, #249, #261 ) ;
#164 = FACE_OUTER_BOUND ( 'NONE', #10, .T. ) ;
#165 = AXIS2_PLACEMENT_3D ( 'NONE', #339, #268, #203 ) ;
#166 =( NAMED_UNIT ( * ) PLANE_ANGLE_UNIT ( ) SI_UNIT ( $, .RADIAN. ) );
#167 = DIRECTION ( 'NONE',  ( -1.000000000000000000, 0.000000000000000000, 0.000000000000000000 ) ) ;
#168 =( LENGTH_UNIT ( ) NAMED_UNIT ( * ) SI_UNIT ( $, .METRE. ) );
#169 = UNCERTAINTY_MEASURE_WITH_UNIT (LENGTH_MEASURE( 1.000000000000000082E-05 ), #150, 'distance_accuracy_value', 'NONE');
#170 = CIRCLE ( 'NONE', #295, 0.06250000000000001388 ) ;
#171 =( GEOMETRIC_REPRESENTATION_CONTEXT ( 3 ) GLOBAL_UNCERTAINTY_ASSIGNED_CONTEXT ( ( #43 ) ) GLOBAL_UNIT_ASSIGNED_CONTEXT ( ( #141, #3, #234 ) ) REPRESENTATION_CONTEXT ( 'NONE', 'WORKASPACE' ) );
#172 = CARTESIAN_POINT ( 'NONE',  ( -0.06249999999999920203, 2.500000000000000000, 0.000000000000000000 ) ) ;
#173 = DIRECTION ( 'NONE',  ( -0.000000000000000000, -1.000000000000000000, -0.000000000000000000 ) ) ;
#174 = EDGE_CURVE ( 'NONE', #204, #250, #175, .T. ) ;
#175 = CIRCLE ( 'NONE', #163, 0.06250000000000001388 ) ;
#176 =( CONVERSION_BASED_UNIT ( 'INCH', #123 ) LENGTH_UNIT ( ) NAMED_UNIT ( #103 ) );
#177 = CARTESIAN_POINT ( 'NONE',  ( 0.06249999999999995143, 0.6250000000000000000, 7.654042494670906700E-18 ) ) ;
#178 = DIRECTION ( 'NONE',  ( 0.000000000000000000, 0.000000000000000000, -1.000000000000000000 ) ) ;
#179 = DIRECTION ( 'NONE',  ( 0.000000000000000000, 0.000000000000000000, -1.000000000000000000 ) ) ;
#180 = CARTESIAN_POINT ( 'NONE',  ( 7.654042494670954463E-18, 0.6250000000000000000, 0.06249999999999995143 ) ) ;
#181 =( GEOMETRIC_REPRESENTATION_CONTEXT ( 3 ) GLOBAL_UNCERTAINTY_ASSIGNED_CONTEXT ( ( #169 ) ) GLOBAL_UNIT_ASSIGNED_CONTEXT ( ( #150, #129, #267 ) ) REPRESENTATION_CONTEXT ( 'NONE', 'WORKASPACE' ) );
#182 = AXIS2_PLACEMENT_3D ( 'NONE', #364, #145, #361 ) ;
#183 = EDGE_LOOP ( 'NONE', ( #147, #153 ) ) ;
#184 = FILL_AREA_STYLE ('',( #57 ) ) ;
#185 = ORIENTED_EDGE ( 'NONE', *, *, #36, .F. ) ;
#186 = AXIS2_PLACEMENT_3D ( 'NONE', #201, #94, #372 ) ;
#187 = CARTESIAN_POINT ( 'NONE',  ( -0.06250000000000001388, 0.06250000000000001388, 7.654042494670959086E-18 ) ) ;
#188 = STYLED_ITEM ( 'NONE', ( #371 ), #227 ) ;
#189 = STYLED_ITEM ( 'NONE', ( #51 ), #101 ) ;
#190 = EDGE_CURVE ( 'NONE', #78, #370, #209, .T. ) ;
#191 = LENGTH_MEASURE_WITH_UNIT ( LENGTH_MEASURE( 0.02539999999999999897 ), #74 );
#192 = VERTEX_POINT ( 'NONE', #211 ) ;
#193 = DIRECTION ( 'NONE',  ( 0.000000000000000000, 0.000000000000000000, -1.000000000000000000 ) ) ;
#194 =( GEOMETRIC_REPRESENTATION_CONTEXT ( 3 ) GLOBAL_UNCERTAINTY_ASSIGNED_CONTEXT ( ( #276 ) ) GLOBAL_UNIT_ASSIGNED_CONTEXT ( ( #302, #166, #70 ) ) REPRESENTATION_CONTEXT ( 'NONE', 'WORKASPACE' ) );
#195 = FILL_AREA_STYLE_COLOUR ( '', #275 ) ;
#196 =( LENGTH_UNIT ( ) NAMED_UNIT ( * ) SI_UNIT ( $, .METRE. ) );
#197 = ORIENTED_EDGE ( 'NONE', *, *, #357, .T. ) ;
#198 = LENGTH_MEASURE_WITH_UNIT ( LENGTH_MEASURE( 0.02539999999999999897 ), #304 );
#199 = DIRECTION ( 'NONE',  ( -1.367485596165987018E-16, 1.000000000000000000, -0.000000000000000000 ) ) ;
#200 = CARTESIAN_POINT ( 'NONE',  ( 0.000000000000000000, 0.6250000000000000000, 0.000000000000000000 ) ) ;
#201 = CARTESIAN_POINT ( 'NONE',  ( 3.061616997868383141E-16, 2.500000000000000000, 0.000000000000000000 ) ) ;
#202 = VERTEX_POINT ( 'NONE', #369 ) ;
#203 = DIRECTION ( 'NONE',  ( -1.000000000000000000, 0.000000000000000000, 0.000000000000000000 ) ) ;
#204 = VERTEX_POINT ( 'NONE', #187 ) ;
#205 = ORIENTED_EDGE ( 'NONE', *, *, #252, .T. ) ;
#206 = DIRECTION ( 'NONE',  ( 0.000000000000000000, 0.000000000000000000, 1.000000000000000000 ) ) ;
#207 = AXIS2_PLACEMENT_3D ( 'NONE', #212, #215, #8 ) ;
#208 = DIMENSIONAL_EXPONENTS ( 1.000000000000000000, 0.000000000000000000, 0.000000000000000000, 0.000000000000000000, 0.000000000000000000, 0.000000000000000000, 0.000000000000000000 ) ;
#209 = CIRCLE ( 'NONE', #73, 0.06249999999999995143 ) ;
#210 = ADVANCED_FACE ( 'NONE', ( #34 ), #228, .T. ) ;
#211 = CARTESIAN_POINT ( 'NONE',  ( 7.654042494670959086E-18, 0.06250000000000001388, 0.06250000000000001388 ) ) ;
#212 = CARTESIAN_POINT ( 'NONE',  ( -7.654042494670957545E-18, 0.06250000000000001388, 0.000000000000000000 ) ) ;
#213 = AXIS2_PLACEMENT_3D ( 'NONE', #44, #173, #193 ) ;
#214 = CIRCLE ( 'NONE', #207, 0.06250000000000001388 ) ;
#215 = DIRECTION ( 'NONE',  ( 1.224646799147353207E-16, -0.000000000000000000, 1.000000000000000000 ) ) ;
#216 = PRODUCT_RELATED_PRODUCT_CATEGORY ( 'part', '', ( #310 ) ) ;
#217 = EDGE_CURVE ( 'NONE', #31, #202, #359, .T. ) ;
#218 = SURFACE_SIDE_STYLE ('',( #277 ) ) ;
#219 = CARTESIAN_POINT ( 'NONE',  ( 0.06249999999999981959, 2.500000000000000000, 7.654042494670897456E-18 ) ) ;
#220 = ORIENTED_EDGE ( 'NONE', *, *, #217, .T. ) ;
#221 =( CONVERSION_BASED_UNIT ( 'INCH', #311 ) LENGTH_UNIT ( ) NAMED_UNIT ( #271 ) );
#222 = DIRECTION ( 'NONE',  ( -1.000000000000000000, 0.000000000000000000, 0.000000000000000000 ) ) ;
#223 = AXIS2_PLACEMENT_3D ( 'NONE', #231, #110, #178 ) ;
#224 =( NAMED_UNIT ( * ) PLANE_ANGLE_UNIT ( ) SI_UNIT ( $, .RADIAN. ) );
#225 = ORIENTED_EDGE ( 'NONE', *, *, #357, .F. ) ;
#226 = SURFACE_STYLE_USAGE ( .BOTH. , #148 ) ;
#227 = MANIFOLD_SOLID_BREP ( 'Revolve - Tool Body (Straight Shanked)', #119 ) ;
#228 = CYLINDRICAL_SURFACE ( 'NONE', #165, 0.06249999999999951428 ) ;
#229 = ORIENTED_EDGE ( 'NONE', *, *, #100, .F. ) ;
#230 = STYLED_ITEM ( 'NONE', ( #334 ), #348 ) ;
#231 = CARTESIAN_POINT ( 'NONE',  ( 0.000000000000000000, 0.06250000000000001388, 0.000000000000000000 ) ) ;
#232 = CARTESIAN_POINT ( 'NONE',  ( 0.06249999999999995143, 2.500000000000000000, 7.654042494670906700E-18 ) ) ;
#233 = SHAPE_DEFINITION_REPRESENTATION ( #303, #91 ) ;
#234 =( NAMED_UNIT ( * ) SI_UNIT ( $, .STERADIAN. ) SOLID_ANGLE_UNIT ( ) );
#235 = PLANE ( 'NONE',  #41 ) ;
#236 = VECTOR ( 'NONE', #263, 39.37007874015748143 ) ;
#237 = SURFACE_STYLE_FILL_AREA ( #242 ) ;
#238 = PRESENTATION_LAYER_ASSIGNMENT (  '', '', ( #230 ) ) ;
#239 = SURFACE_SIDE_STYLE ('',( #237 ) ) ;
#240 = FACE_OUTER_BOUND ( 'NONE', #289, .T. ) ;
#241 = CARTESIAN_POINT ( 'NONE',  ( 0.000000000000000000, 0.6250000000000000000, -0.06249999999999995143 ) ) ;
#242 = FILL_AREA_STYLE ('',( #274 ) ) ;
#243 = VERTEX_POINT ( 'NONE', #300 ) ;
#244 = AXIS2_PLACEMENT_3D ( 'NONE', #90, #199, #167 ) ;
#245 = CIRCLE ( 'NONE', #92, 0.06249999999999938244 ) ;
#246 = APPLICATION_CONTEXT ( 'automotive_design' ) ;
#247 = DIRECTION ( 'NONE',  ( -1.367485596165987018E-16, 1.000000000000000000, -0.000000000000000000 ) ) ;
#248 = ADVANCED_FACE ( 'NONE', ( #138 ), #316, .F. ) ;
#249 = DIRECTION ( 'NONE',  ( -0.000000000000000000, -1.000000000000000000, -0.000000000000000000 ) ) ;
#250 = VERTEX_POINT ( 'NONE', #104 ) ;
#251 =( NAMED_UNIT ( * ) PLANE_ANGLE_UNIT ( ) SI_UNIT ( $, .RADIAN. ) );
#252 = EDGE_CURVE ( 'NONE', #204, #156, #214, .T. ) ;
#253 = EDGE_LOOP ( 'NONE', ( #149, #48, #87, #61, #340 ) ) ;
#254 = COLOUR_RGB ( '',1.000000000000000000, 0.000000000000000000, 0.000000000000000000 ) ;
#255 = PRESENTATION_LAYER_ASSIGNMENT (  '', '', ( #82 ) ) ;
#256 = SURFACE_SIDE_STYLE ('',( #81 ) ) ;
#257 = SPHERICAL_SURFACE ( 'NONE', #128, 0.06250000000000001388 ) ;
#258 = FACE_OUTER_BOUND ( 'NONE', #158, .T. ) ;
#259 = EDGE_CURVE ( 'NONE', #243, #156, #49, .T. ) ;
#260 = DIRECTION ( 'NONE',  ( 0.000000000000000000, 0.000000000000000000, -1.000000000000000000 ) ) ;
#261 = DIRECTION ( 'NONE',  ( 0.000000000000000000, 0.000000000000000000, -1.000000000000000000 ) ) ;
#262 = ORIENTED_EDGE ( 'NONE', *, *, #337, .F. ) ;
#263 = DIRECTION ( 'NONE',  ( -0.000000000000000000, -1.000000000000000000, -0.000000000000000000 ) ) ;
#264 = SURFACE_STYLE_USAGE ( .BOTH. , #157 ) ;
#265 = AXIS2_PLACEMENT_3D ( 'NONE', #125, #58, #33 ) ;
#266 = AXIS2_PLACEMENT_3D ( 'NONE', #72, #40, #355 ) ;
#267 =( NAMED_UNIT ( * ) SI_UNIT ( $, .STERADIAN. ) SOLID_ANGLE_UNIT ( ) );
#268 = DIRECTION ( 'NONE',  ( -1.367485596165987018E-16, 1.000000000000000000, -0.000000000000000000 ) ) ;
#269 = MECHANICAL_DESIGN_GEOMETRIC_PRESENTATION_REPRESENTATION (  '', ( #26 ), #194 ) ;
#270 = LINE ( 'NONE', #172, #352 ) ;
#271 = DIMENSIONAL_EXPONENTS ( 1.000000000000000000, 0.000000000000000000, 0.000000000000000000, 0.000000000000000000, 0.000000000000000000, 0.000000000000000000, 0.000000000000000000 ) ;
#272 = APPLICATION_PROTOCOL_DEFINITION ( 'draft international standard', 'automotive_design', 1998, #160 ) ;
#273 = CARTESIAN_POINT ( 'NONE',  ( 0.06249999999999995143, 2.500000000000000000, 0.000000000000000000 ) ) ;
#274 = FILL_AREA_STYLE_COLOUR ( '', #109 ) ;
#275 = COLOUR_RGB ( '',1.000000000000000000, 0.000000000000000000, 0.000000000000000000 ) ;
#276 = UNCERTAINTY_MEASURE_WITH_UNIT (LENGTH_MEASURE( 1.000000000000000082E-05 ), #302, 'distance_accuracy_value', 'NONE');
#277 = SURFACE_STYLE_FILL_AREA ( #112 ) ;
#278 =( LENGTH_UNIT ( ) NAMED_UNIT ( * ) SI_UNIT ( $, .METRE. ) );
#279 = CARTESIAN_POINT ( 'NONE',  ( 5.625652490679608955E-16, 0.6250000000000000000, 0.000000000000000000 ) ) ;
#280 = CARTESIAN_POINT ( 'NONE',  ( -3.827021247335478002E-18, 0.000000000000000000, 0.000000000000000000 ) ) ;
#281 = ADVANCED_FACE ( 'NONE', ( #42 ), #235, .F. ) ;
#282 = COLOUR_RGB ( '',0.7921568627450980005, 0.8196078431372548767, 0.9333333333333333481 ) ;
#283 = CARTESIAN_POINT ( 'NONE',  ( 0.000000000000000000, 0.06250000000000001388, 0.000000000000000000 ) ) ;
#284 =( CONVERSION_BASED_UNIT ( 'INCH', #45 ) LENGTH_UNIT ( ) NAMED_UNIT ( #137 ) );
#285 = ORIENTED_EDGE ( 'NONE', *, *, #174, .F. ) ;
#286 = DIRECTION ( 'NONE',  ( -0.000000000000000000, -1.000000000000000000, -0.000000000000000000 ) ) ;
#287 = COLOUR_RGB ( '',1.000000000000000000, 0.000000000000000000, 0.000000000000000000 ) ;
#288 = LINE ( 'NONE', #53, #236 ) ;
#289 = EDGE_LOOP ( 'NONE', ( #229, #142, #16, #285, #185 ) ) ;
#290 = EDGE_LOOP ( 'NONE', ( #312, #20, #360, #365 ) ) ;
#291 = DIRECTION ( 'NONE',  ( -0.000000000000000000, -1.000000000000000000, -0.000000000000000000 ) ) ;
#292 = CARTESIAN_POINT ( 'NONE',  ( 0.000000000000000000, 0.06250000000000001388, 0.000000000000000000 ) ) ;
#293 = DIRECTION ( 'NONE',  ( 0.000000000000000000, 0.000000000000000000, -1.000000000000000000 ) ) ;
#294 = PRESENTATION_STYLE_ASSIGNMENT (( #143 ) ) ;
#295 = AXIS2_PLACEMENT_3D ( 'NONE', #292, #350, #260 ) ;
#296 = DIMENSIONAL_EXPONENTS ( 1.000000000000000000, 0.000000000000000000, 0.000000000000000000, 0.000000000000000000, 0.000000000000000000, 0.000000000000000000, 0.000000000000000000 ) ;
#297 = PRESENTATION_STYLE_ASSIGNMENT (( #349 ) ) ;
#298 = UNCERTAINTY_MEASURE_WITH_UNIT (LENGTH_MEASURE( 1.000000000000000082E-05 ), #60, 'distance_accuracy_value', 'NONE');
#299 = STYLED_ITEM ( 'NONE', ( #294 ), #54 ) ;
#300 = CARTESIAN_POINT ( 'NONE',  ( 0.06250000000000001388, 0.06250000000000001388, 0.000000000000000000 ) ) ;
#301 = PRESENTATION_LAYER_ASSIGNMENT (  '', '', ( #188 ) ) ;
#302 =( CONVERSION_BASED_UNIT ( 'INCH', #191 ) LENGTH_UNIT ( ) NAMED_UNIT ( #38 ) );
#303 = PRODUCT_DEFINITION_SHAPE ( 'NONE', 'NONE',  #22 ) ;
#304 =( LENGTH_UNIT ( ) NAMED_UNIT ( * ) SI_UNIT ( $, .METRE. ) );
#305 = FILL_AREA_STYLE_COLOUR ( '', #287 ) ;
#306 = PRESENTATION_LAYER_ASSIGNMENT (  '', '', ( #358 ) ) ;
#307 =( GEOMETRIC_REPRESENTATION_CONTEXT ( 3 ) GLOBAL_UNCERTAINTY_ASSIGNED_CONTEXT ( ( #9 ) ) GLOBAL_UNIT_ASSIGNED_CONTEXT ( ( #362, #50, #47 ) ) REPRESENTATION_CONTEXT ( 'NONE', 'WORKASPACE' ) );
#308 = SURFACE_STYLE_FILL_AREA ( #117 ) ;
#309 = EDGE_CURVE ( 'NONE', #56, #202, #270, .T. ) ;
#310 = PRODUCT ( '83411', '83411', '', ( #39 ) ) ;
#311 = LENGTH_MEASURE_WITH_UNIT ( LENGTH_MEASURE( 0.02539999999999999897 ), #278 );
#312 = ORIENTED_EDGE ( 'NONE', *, *, #252, .F. ) ;
#313 = LINE ( 'NONE', #338, #102 ) ;
#314 = AXIS2_PLACEMENT_3D ( 'NONE', #132, #64, #293 ) ;
#315 = CIRCLE ( 'NONE', #223, 0.06250000000000001388 ) ;
#316 = PLANE ( 'NONE',  #62 ) ;
#317 = CYLINDRICAL_SURFACE ( 'NONE', #265, 0.06249999999999951428 ) ;
#318 = LENGTH_MEASURE_WITH_UNIT ( LENGTH_MEASURE( 0.02539999999999999897 ), #32 );
#319 = ORIENTED_EDGE ( 'NONE', *, *, #159, .T. ) ;
#320 =( GEOMETRIC_REPRESENTATION_CONTEXT ( 3 ) GLOBAL_UNCERTAINTY_ASSIGNED_CONTEXT ( ( #298 ) ) GLOBAL_UNIT_ASSIGNED_CONTEXT ( ( #60, #347, #11 ) ) REPRESENTATION_CONTEXT ( 'NONE', 'WORKASPACE' ) );
#321 = DIRECTION ( 'NONE',  ( -1.367485596165987018E-16, 1.000000000000000000, 0.000000000000000000 ) ) ;
#322 = CIRCLE ( 'NONE', #244, 0.06249999999999938244 ) ;
#323 = MECHANICAL_DESIGN_GEOMETRIC_PRESENTATION_REPRESENTATION (  '', ( #188 ), #320 ) ;
#324 = DIRECTION ( 'NONE',  ( 1.000000000000000000, 1.367485596165987018E-16, 0.000000000000000000 ) ) ;
#325 = PRESENTATION_STYLE_ASSIGNMENT (( #76 ) ) ;
#326 = FILL_AREA_STYLE ('',( #67 ) ) ;
#327 = COLOUR_RGB ( '',0.7921568627450980005, 0.8196078431372548767, 0.9333333333333333481 ) ;
#328 = ORIENTED_EDGE ( 'NONE', *, *, #309, .T. ) ;
#329 = FILL_AREA_STYLE ('',( #18 ) ) ;
#330 = CARTESIAN_POINT ( 'NONE',  ( -7.654042494670957545E-18, 0.06250000000000001388, 0.000000000000000000 ) ) ;
#331 = CIRCLE ( 'NONE', #213, 0.06250000000000001388 ) ;
#332 = MECHANICAL_DESIGN_GEOMETRIC_PRESENTATION_REPRESENTATION (  '', ( #230 ), #5 ) ;
#333 = PRODUCT_DEFINITION_FORMATION_WITH_SPECIFIED_SOURCE ( 'ANY', '', #310, .NOT_KNOWN. ) ;
#334 = PRESENTATION_STYLE_ASSIGNMENT (( #120 ) ) ;
#335 = DIRECTION ( 'NONE',  ( 0.000000000000000000, 0.000000000000000000, 1.000000000000000000 ) ) ;
#336 = ORIENTED_EDGE ( 'NONE', *, *, #122, .T. ) ;
#337 = EDGE_CURVE ( 'NONE', #202, #31, #373, .T. ) ;
#338 = CARTESIAN_POINT ( 'NONE',  ( 0.000000000000000000, 0.000000000000000000, -0.06249999999999997918 ) ) ;
#339 = CARTESIAN_POINT ( 'NONE',  ( 3.061616997868383141E-16, 2.500000000000000000, 0.000000000000000000 ) ) ;
#340 = ORIENTED_EDGE ( 'NONE', *, *, #66, .F. ) ;
#341 = DIRECTION ( 'NONE',  ( 0.000000000000000000, -0.000000000000000000, 1.000000000000000000 ) ) ;
#342 = ORIENTED_EDGE ( 'NONE', *, *, #337, .T. ) ;
#343 = CARTESIAN_POINT ( 'NONE',  ( 0.000000000000000000, 0.6250000000000000000, 0.000000000000000000 ) ) ;
#344 = ADVANCED_FACE ( 'NONE', ( #240 ), #105, .T. ) ;
#345 = AXIS2_PLACEMENT_3D ( 'NONE', #108, #136, #71 ) ;
#346 = FACE_OUTER_BOUND ( 'NONE', #183, .T. ) ;
#347 =( NAMED_UNIT ( * ) PLANE_ANGLE_UNIT ( ) SI_UNIT ( $, .RADIAN. ) );
#348 = MANIFOLD_SOLID_BREP ( 'Revolve - Cutting Edge', #367 ) ;
#349 = SURFACE_STYLE_USAGE ( .BOTH. , #353 ) ;
#350 = DIRECTION ( 'NONE',  ( -0.000000000000000000, -1.000000000000000000, -0.000000000000000000 ) ) ;
#351 = DIMENSIONAL_EXPONENTS ( 1.000000000000000000, 0.000000000000000000, 0.000000000000000000, 0.000000000000000000, 0.000000000000000000, 0.000000000000000000, 0.000000000000000000 ) ;
#352 = VECTOR ( 'NONE', #139, 39.37007874015748143 ) ;
#353 = SURFACE_SIDE_STYLE ('',( #2 ) ) ;
#354 = CARTESIAN_POINT ( 'NONE',  ( 5.625652490679608955E-16, 0.6250000000000000000, 0.000000000000000000 ) ) ;
#355 = DIRECTION ( 'NONE',  ( -1.000000000000000000, 0.000000000000000000, 0.000000000000000000 ) ) ;
#356 = PRODUCT_DEFINITION_CONTEXT ( 'detailed design', #160, 'design' ) ;
#357 = EDGE_CURVE ( 'NONE', #56, #162, #245, .T. ) ;
#358 = STYLED_ITEM ( 'NONE', ( #325 ), #113 ) ;
#359 = CIRCLE ( 'NONE', #186, 0.06249999999999963918 ) ;
#360 = ORIENTED_EDGE ( 'NONE', *, *, #28, .T. ) ;
#361 = DIRECTION ( 'NONE',  ( 1.000000000000000000, 0.000000000000000000, 0.000000000000000000 ) ) ;
#362 =( CONVERSION_BASED_UNIT ( 'INCH', #198 ) LENGTH_UNIT ( ) NAMED_UNIT ( #208 ) );
#363 =( GEOMETRIC_REPRESENTATION_CONTEXT ( 3 ) GLOBAL_UNCERTAINTY_ASSIGNED_CONTEXT ( ( #106 ) ) GLOBAL_UNIT_ASSIGNED_CONTEXT ( ( #284, #86, #77 ) ) REPRESENTATION_CONTEXT ( 'NONE', 'WORKASPACE' ) );
#364 = CARTESIAN_POINT ( 'NONE',  ( -7.654042494670957545E-18, 0.06250000000000001388, 0.000000000000000000 ) ) ;
#365 = ORIENTED_EDGE ( 'NONE', *, *, #259, .T. ) ;
#366 = FACE_OUTER_BOUND ( 'NONE', #253, .T. ) ;
#367 = CLOSED_SHELL ( 'NONE', ( #113, #101, #54, #344, #131 ) ) ;
#368 = VECTOR ( 'NONE', #79, 39.37007874015748143 ) ;
#369 = CARTESIAN_POINT ( 'NONE',  ( -0.06249999999999933387, 2.500000000000000000, 0.000000000000000000 ) ) ;
#370 = VERTEX_POINT ( 'NONE', #241 ) ;
#371 = PRESENTATION_STYLE_ASSIGNMENT (( #264 ) ) ;
#372 = DIRECTION ( 'NONE',  ( -1.000000000000000000, 0.000000000000000000, 0.000000000000000000 ) ) ;
#373 = CIRCLE ( 'NONE', #345, 0.06249999999999963918 ) ;
ENDSEC;
END-ISO-10303-21;
