ISO-10303-21;
HEADER;
FILE_DESCRIPTION (( 'STEP AP214' ),
    '1' );
FILE_NAME ('59467.STEP',
    '2023-07-24T15:47:46',
    ( '' ),
    ( '' ),
    'SwSTEP 2.0',
    'SolidWorks 2023',
    '' );
FILE_SCHEMA (( 'AUTOMOTIVE_DESIGN' ));
ENDSEC;

DATA;
#1 = CARTESIAN_POINT ( 'NONE',  ( 5.999999999999999112, 75.00000000000000000, 7.347880794884120722E-16 ) ) ;
#2 = MANIFOLD_SOLID_BREP ( 'Revolve - Tool Body (Straight Shanked)', #167 ) ;
#3 = APPLICATION_PROTOCOL_DEFINITION ( 'draft international standard', 'automotive_design', 1998, #249 ) ;
#4 = DIRECTION ( 'NONE',  ( 0.000000000000000000, 0.000000000000000000, 1.000000000000000000 ) ) ;
#5 =( NAMED_UNIT ( * ) SI_UNIT ( $, .STERADIAN. ) SOLID_ANGLE_UNIT ( ) );
#6 = EDGE_CURVE ( 'NONE', #23, #61, #92, .T. ) ;
#7 = CARTESIAN_POINT ( 'NONE',  ( 0.000000000000000000, 18.00000000000000355, 0.000000000000000000 ) ) ;
#8 = AXIS2_PLACEMENT_3D ( 'NONE', #94, #198, #71 ) ;
#9 = SURFACE_STYLE_USAGE ( .BOTH. , #117 ) ;
#10 = DIRECTION ( 'NONE',  ( -0.000000000000000000, -1.000000000000000000, -0.000000000000000000 ) ) ;
#11 = LINE ( 'NONE', #177, #54 ) ;
#12 =( NAMED_UNIT ( * ) PLANE_ANGLE_UNIT ( ) SI_UNIT ( $, .RADIAN. ) );
#13 = EDGE_CURVE ( 'NONE', #128, #23, #11, .T. ) ;
#14 = COLOUR_RGB ( '',1.000000000000000000, 0.000000000000000000, 0.000000000000000000 ) ;
#15 = PRODUCT_DEFINITION_SHAPE ( 'NONE', 'NONE',  #122 ) ;
#16 = ORIENTED_EDGE ( 'NONE', *, *, #254, .T. ) ;
#17 =( LENGTH_UNIT ( ) NAMED_UNIT ( * ) SI_UNIT ( .MILLI., .METRE. ) );
#18 = SURFACE_SIDE_STYLE ('',( #284 ) ) ;
#19 = AXIS2_PLACEMENT_3D ( 'NONE', #120, #236, #258 ) ;
#20 = AXIS2_PLACEMENT_3D ( 'NONE', #7, #72, #162 ) ;
#21 = ORIENTED_EDGE ( 'NONE', *, *, #254, .F. ) ;
#22 = FACE_OUTER_BOUND ( 'NONE', #244, .T. ) ;
#23 = VERTEX_POINT ( 'NONE', #256 ) ;
#24 = DIRECTION ( 'NONE',  ( 0.000000000000000000, -0.000000000000000000, 1.000000000000000000 ) ) ;
#25 = PRESENTATION_STYLE_ASSIGNMENT (( #243 ) ) ;
#26 = STYLED_ITEM ( 'NONE', ( #25 ), #113 ) ;
#27 = DIRECTION ( 'NONE',  ( -0.000000000000000000, -1.000000000000000000, -0.000000000000000000 ) ) ;
#28 = APPLICATION_PROTOCOL_DEFINITION ( 'draft international standard', 'automotive_design', 1998, #235 ) ;
#29 =( LENGTH_UNIT ( ) NAMED_UNIT ( * ) SI_UNIT ( .MILLI., .METRE. ) );
#30 = CARTESIAN_POINT ( 'NONE',  ( 6.000000000000000000, 18.00000000000000355, 7.347880794884120722E-16 ) ) ;
#31 = ORIENTED_EDGE ( 'NONE', *, *, #175, .T. ) ;
#32 = CARTESIAN_POINT ( 'NONE',  ( 0.000000000000000000, 0.000000000000000000, -6.000000000000000000 ) ) ;
#33 = ORIENTED_EDGE ( 'NONE', *, *, #178, .F. ) ;
#34 = CYLINDRICAL_SURFACE ( 'NONE', #274, 6.000000000000000000 ) ;
#35 = PRESENTATION_LAYER_ASSIGNMENT (  '', '', ( #275 ) ) ;
#36 = FACE_OUTER_BOUND ( 'NONE', #247, .T. ) ;
#37 = SURFACE_STYLE_FILL_AREA ( #57 ) ;
#38 = CARTESIAN_POINT ( 'NONE',  ( 0.000000000000000000, 0.000000000000000000, 0.000000000000000000 ) ) ;
#39 = AXIS2_PLACEMENT_3D ( 'NONE', #173, #127, #219 ) ;
#40 = EDGE_LOOP ( 'NONE', ( #189, #206 ) ) ;
#41 = DIRECTION ( 'NONE',  ( -1.000000000000000000, -2.578203787678638266E-17, 0.000000000000000000 ) ) ;
#42 = ORIENTED_EDGE ( 'NONE', *, *, #74, .F. ) ;
#43 = UNCERTAINTY_MEASURE_WITH_UNIT (LENGTH_MEASURE( 1.000000000000000082E-05 ), #29, 'distance_accuracy_value', 'NONE');
#44 = ORIENTED_EDGE ( 'NONE', *, *, #175, .F. ) ;
#45 =( NAMED_UNIT ( * ) SI_UNIT ( $, .STERADIAN. ) SOLID_ANGLE_UNIT ( ) );
#46 = AXIS2_PLACEMENT_3D ( 'NONE', #96, #248, #271 ) ;
#47 = ORIENTED_EDGE ( 'NONE', *, *, #199, .F. ) ;
#48 = FILL_AREA_STYLE_COLOUR ( '', #67 ) ;
#49 = ADVANCED_FACE ( 'NONE', ( #36 ), #212, .T. ) ;
#50 = ORIENTED_EDGE ( 'NONE', *, *, #279, .F. ) ;
#51 = FILL_AREA_STYLE ('',( #123 ) ) ;
#52 = LINE ( 'NONE', #253, #154 ) ;
#53 = CARTESIAN_POINT ( 'NONE',  ( 0.000000000000000000, 0.000000000000000000, 0.000000000000000000 ) ) ;
#54 = VECTOR ( 'NONE', #282, 1000.000000000000000 ) ;
#55 = CIRCLE ( 'NONE', #213, 6.000000000000000000 ) ;
#56 = PRODUCT_RELATED_PRODUCT_CATEGORY ( 'part', '', ( #209 ) ) ;
#57 = FILL_AREA_STYLE ('',( #137 ) ) ;
#58 = DIRECTION ( 'NONE',  ( 0.000000000000000000, 0.000000000000000000, -1.000000000000000000 ) ) ;
#59 = PRESENTATION_STYLE_ASSIGNMENT (( #165 ) ) ;
#60 = DIRECTION ( 'NONE',  ( -2.578203787678638266E-17, 1.000000000000000000, -0.000000000000000000 ) ) ;
#61 = VERTEX_POINT ( 'NONE', #139 ) ;
#62 = SURFACE_SIDE_STYLE ('',( #90 ) ) ;
#63 = PRODUCT_DEFINITION_CONTEXT ( 'detailed design', #249, 'design' ) ;
#64 = PRESENTATION_STYLE_ASSIGNMENT (( #87 ) ) ;
#65 = EDGE_CURVE ( 'NONE', #193, #128, #268, .T. ) ;
#66 = COLOUR_RGB ( '',0.7921568627450980005, 0.8196078431372548767, 0.9333333333333333481 ) ;
#67 = COLOUR_RGB ( '',1.000000000000000000, 0.000000000000000000, 0.000000000000000000 ) ;
#68 = FACE_OUTER_BOUND ( 'NONE', #115, .T. ) ;
#69 = DIRECTION ( 'NONE',  ( -0.000000000000000000, -1.000000000000000000, -0.000000000000000000 ) ) ;
#70 = AXIS2_PLACEMENT_3D ( 'NONE', #53, #69, #205 ) ;
#71 = DIRECTION ( 'NONE',  ( -1.000000000000000000, 0.000000000000000000, 0.000000000000000000 ) ) ;
#72 = DIRECTION ( 'NONE',  ( -2.578203787678638266E-17, 1.000000000000000000, -0.000000000000000000 ) ) ;
#73 = DIRECTION ( 'NONE',  ( -2.578203787678638266E-17, 1.000000000000000000, -0.000000000000000000 ) ) ;
#74 = EDGE_CURVE ( 'NONE', #163, #241, #89, .T. ) ;
#75 = LINE ( 'NONE', #1, #264 ) ;
#76 = CLOSED_SHELL ( 'NONE', ( #164, #105, #95, #113 ) ) ;
#77 =( GEOMETRIC_REPRESENTATION_CONTEXT ( 3 ) GLOBAL_UNCERTAINTY_ASSIGNED_CONTEXT ( ( #106 ) ) GLOBAL_UNIT_ASSIGNED_CONTEXT ( ( #182, #133, #226 ) ) REPRESENTATION_CONTEXT ( 'NONE', 'WORKASPACE' ) );
#78 = FILL_AREA_STYLE_COLOUR ( '', #233 ) ;
#79 = DIRECTION ( 'NONE',  ( -0.000000000000000000, -1.000000000000000000, -0.000000000000000000 ) ) ;
#80 = DIRECTION ( 'NONE',  ( -2.578203787678638266E-17, 1.000000000000000000, -0.000000000000000000 ) ) ;
#81 =( GEOMETRIC_REPRESENTATION_CONTEXT ( 3 ) GLOBAL_UNCERTAINTY_ASSIGNED_CONTEXT ( ( #217 ) ) GLOBAL_UNIT_ASSIGNED_CONTEXT ( ( #114, #204, #5 ) ) REPRESENTATION_CONTEXT ( 'NONE', 'WORKASPACE' ) );
#82 = DIRECTION ( 'NONE',  ( -1.000000000000000000, 0.000000000000000000, 0.000000000000000000 ) ) ;
#83 = PRESENTATION_STYLE_ASSIGNMENT (( #125 ) ) ;
#84 = MECHANICAL_DESIGN_GEOMETRIC_PRESENTATION_REPRESENTATION (  '', ( #181 ), #135 ) ;
#85 = AXIS2_PLACEMENT_3D ( 'NONE', #129, #149, #147 ) ;
#86 = ADVANCED_FACE ( 'NONE', ( #211 ), #169, .T. ) ;
#87 = SURFACE_STYLE_USAGE ( .BOTH. , #18 ) ;
#88 = EDGE_LOOP ( 'NONE', ( #108, #148, #42, #220 ) ) ;
#89 = CIRCLE ( 'NONE', #252, 6.000000000000001776 ) ;
#90 = SURFACE_STYLE_FILL_AREA ( #196 ) ;
#91 = DIRECTION ( 'NONE',  ( 1.000000000000000000, 0.000000000000000000, 0.000000000000000000 ) ) ;
#92 = CIRCLE ( 'NONE', #277, 6.000000000000000000 ) ;
#93 = PRESENTATION_LAYER_ASSIGNMENT (  '', '', ( #259 ) ) ;
#94 = CARTESIAN_POINT ( 'NONE',  ( -1.469576158976823750E-15, 75.00000000000000000, 0.000000000000000000 ) ) ;
#95 = ADVANCED_FACE ( 'NONE', ( #215 ), #34, .T. ) ;
#96 = CARTESIAN_POINT ( 'NONE',  ( 0.000000000000000000, 18.00000000000000355, 0.000000000000000000 ) ) ;
#97 = EDGE_LOOP ( 'NONE', ( #207, #145, #180, #21 ) ) ;
#98 = AXIS2_PLACEMENT_3D ( 'NONE', #237, #121, #41 ) ;
#99 = CARTESIAN_POINT ( 'NONE',  ( -1.469576158976823750E-15, 75.00000000000000000, 0.000000000000000000 ) ) ;
#100 = ADVANCED_FACE ( 'NONE', ( #240 ), #140, .F. ) ;
#101 =( NAMED_UNIT ( * ) PLANE_ANGLE_UNIT ( ) SI_UNIT ( $, .RADIAN. ) );
#102 = DIRECTION ( 'NONE',  ( -2.578203787678638266E-17, 1.000000000000000000, -0.000000000000000000 ) ) ;
#103 = MANIFOLD_SOLID_BREP ( 'Revolve - Cutting Edge', #76 ) ;
#104 = CARTESIAN_POINT ( 'NONE',  ( -1.469576158976823750E-15, 75.00000000000000000, 0.000000000000000000 ) ) ;
#105 = ADVANCED_FACE ( 'NONE', ( #22 ), #155, .T. ) ;
#106 = UNCERTAINTY_MEASURE_WITH_UNIT (LENGTH_MEASURE( 1.000000000000000082E-05 ), #182, 'distance_accuracy_value', 'NONE');
#107 = MECHANICAL_DESIGN_GEOMETRIC_PRESENTATION_REPRESENTATION (  '', ( #259 ), #144 ) ;
#108 = ORIENTED_EDGE ( 'NONE', *, *, #178, .T. ) ;
#109 = PLANE ( 'NONE',  #39 ) ;
#110 = CARTESIAN_POINT ( 'NONE',  ( 7.347880794884119736E-16, 18.00000000000000000, 6.000000000000000000 ) ) ;
#111 = SHAPE_DEFINITION_REPRESENTATION ( #15, #153 ) ;
#112 = CARTESIAN_POINT ( 'NONE',  ( 0.000000000000000000, 18.00000000000000000, -6.000000000000000000 ) ) ;
#113 = ADVANCED_FACE ( 'NONE', ( #288 ), #190, .T. ) ;
#114 =( LENGTH_UNIT ( ) NAMED_UNIT ( * ) SI_UNIT ( .MILLI., .METRE. ) );
#115 = EDGE_LOOP ( 'NONE', ( #273, #150 ) ) ;
#116 = AXIS2_PLACEMENT_3D ( 'NONE', #221, #130, #24 ) ;
#117 = SURFACE_SIDE_STYLE ('',( #201 ) ) ;
#118 = DIRECTION ( 'NONE',  ( 0.000000000000000000, 0.000000000000000000, -1.000000000000000000 ) ) ;
#119 = ORIENTED_EDGE ( 'NONE', *, *, #65, .F. ) ;
#120 = CARTESIAN_POINT ( 'NONE',  ( 0.000000000000000000, 18.00000000000000000, 0.000000000000000000 ) ) ;
#121 = DIRECTION ( 'NONE',  ( -2.578203787678638266E-17, 1.000000000000000000, 0.000000000000000000 ) ) ;
#122 = PRODUCT_DEFINITION ( 'UNKNOWN', '', #202, #63 ) ;
#123 = FILL_AREA_STYLE_COLOUR ( '', #174 ) ;
#124 = ORIENTED_EDGE ( 'NONE', *, *, #6, .F. ) ;
#125 = SURFACE_STYLE_USAGE ( .BOTH. , #184 ) ;
#126 = UNCERTAINTY_MEASURE_WITH_UNIT (LENGTH_MEASURE( 1.000000000000000082E-05 ), #17, 'distance_accuracy_value', 'NONE');
#127 = DIRECTION ( 'NONE',  ( 2.578203787678638266E-17, -1.000000000000000000, 0.000000000000000000 ) ) ;
#128 = VERTEX_POINT ( 'NONE', #110 ) ;
#129 = CARTESIAN_POINT ( 'NONE',  ( 0.000000000000000000, 0.000000000000000000, 0.000000000000000000 ) ) ;
#130 = DIRECTION ( 'NONE',  ( 0.000000000000000000, 1.000000000000000000, 0.000000000000000000 ) ) ;
#131 =( NAMED_UNIT ( * ) PLANE_ANGLE_UNIT ( ) SI_UNIT ( $, .RADIAN. ) );
#132 = AXIS2_PLACEMENT_3D ( 'NONE', #99, #60, #82 ) ;
#133 =( NAMED_UNIT ( * ) PLANE_ANGLE_UNIT ( ) SI_UNIT ( $, .RADIAN. ) );
#134 = LINE ( 'NONE', #32, #234 ) ;
#135 =( GEOMETRIC_REPRESENTATION_CONTEXT ( 3 ) GLOBAL_UNCERTAINTY_ASSIGNED_CONTEXT ( ( #261 ) ) GLOBAL_UNIT_ASSIGNED_CONTEXT ( ( #214, #101, #166 ) ) REPRESENTATION_CONTEXT ( 'NONE', 'WORKASPACE' ) );
#136 = DIRECTION ( 'NONE',  ( -0.000000000000000000, -1.000000000000000000, -0.000000000000000000 ) ) ;
#137 = FILL_AREA_STYLE_COLOUR ( '', #14 ) ;
#138 = MECHANICAL_DESIGN_GEOMETRIC_PRESENTATION_REPRESENTATION (  '', ( #275 ), #186 ) ;
#139 = CARTESIAN_POINT ( 'NONE',  ( 0.000000000000000000, 0.000000000000000000, -6.000000000000000000 ) ) ;
#140 = PLANE ( 'NONE',  #98 ) ;
#141 = ADVANCED_FACE ( 'NONE', ( #68 ), #109, .F. ) ;
#142 = CARTESIAN_POINT ( 'NONE',  ( -1.469576158976823750E-15, 75.00000000000000000, 0.000000000000000000 ) ) ;
#143 = PRESENTATION_LAYER_ASSIGNMENT (  '', '', ( #181 ) ) ;
#144 =( GEOMETRIC_REPRESENTATION_CONTEXT ( 3 ) GLOBAL_UNCERTAINTY_ASSIGNED_CONTEXT ( ( #126 ) ) GLOBAL_UNIT_ASSIGNED_CONTEXT ( ( #17, #131, #218 ) ) REPRESENTATION_CONTEXT ( 'NONE', 'WORKASPACE' ) );
#145 = ORIENTED_EDGE ( 'NONE', *, *, #13, .T. ) ;
#146 = UNCERTAINTY_MEASURE_WITH_UNIT (LENGTH_MEASURE( 1.000000000000000082E-05 ), #188, 'distance_accuracy_value', 'NONE');
#147 = DIRECTION ( 'NONE',  ( 0.000000000000000000, 0.000000000000000000, -1.000000000000000000 ) ) ;
#148 = ORIENTED_EDGE ( 'NONE', *, *, #228, .T. ) ;
#149 = DIRECTION ( 'NONE',  ( 0.000000000000000000, -1.000000000000000000, -0.000000000000000000 ) ) ;
#150 = ORIENTED_EDGE ( 'NONE', *, *, #199, .T. ) ;
#151 = CARTESIAN_POINT ( 'NONE',  ( -6.000000000000003553, 75.00000000000000000, 0.000000000000000000 ) ) ;
#152 = AXIS2_PLACEMENT_3D ( 'NONE', #104, #80, #257 ) ;
#153 = ADVANCED_BREP_SHAPE_REPRESENTATION ( '59467', ( #103, #2, #239 ), #77 ) ;
#154 = VECTOR ( 'NONE', #179, 1000.000000000000000 ) ;
#155 = PLANE ( 'NONE',  #116 ) ;
#156 = CARTESIAN_POINT ( 'NONE',  ( 6.000000000000000000, 75.00000000000000000, 7.347880794884120722E-16 ) ) ;
#157 = MECHANICAL_DESIGN_GEOMETRIC_PRESENTATION_REPRESENTATION (  '', ( #185 ), #255 ) ;
#158 = PRESENTATION_LAYER_ASSIGNMENT (  '', '', ( #26 ) ) ;
#159 =( NAMED_UNIT ( * ) SI_UNIT ( $, .STERADIAN. ) SOLID_ANGLE_UNIT ( ) );
#160 = CARTESIAN_POINT ( 'NONE',  ( 0.000000000000000000, 18.00000000000000000, 0.000000000000000000 ) ) ;
#161 =( GEOMETRIC_REPRESENTATION_CONTEXT ( 3 ) GLOBAL_UNCERTAINTY_ASSIGNED_CONTEXT ( ( #171 ) ) GLOBAL_UNIT_ASSIGNED_CONTEXT ( ( #194, #172, #45 ) ) REPRESENTATION_CONTEXT ( 'NONE', 'WORKASPACE' ) );
#162 = DIRECTION ( 'NONE',  ( -1.000000000000000000, 0.000000000000000000, 0.000000000000000000 ) ) ;
#163 = VERTEX_POINT ( 'NONE', #151 ) ;
#164 = ADVANCED_FACE ( 'NONE', ( #222 ), #246, .T. ) ;
#165 = SURFACE_STYLE_USAGE ( .BOTH. , #168 ) ;
#166 =( NAMED_UNIT ( * ) SI_UNIT ( $, .STERADIAN. ) SOLID_ANGLE_UNIT ( ) );
#167 = CLOSED_SHELL ( 'NONE', ( #86, #100, #49, #141 ) ) ;
#168 = SURFACE_SIDE_STYLE ('',( #280 ) ) ;
#169 = CYLINDRICAL_SURFACE ( 'NONE', #132, 6.000000000000000888 ) ;
#170 = CIRCLE ( 'NONE', #20, 6.000000000000000000 ) ;
#171 = UNCERTAINTY_MEASURE_WITH_UNIT (LENGTH_MEASURE( 1.000000000000000082E-05 ), #194, 'distance_accuracy_value', 'NONE');
#172 =( NAMED_UNIT ( * ) PLANE_ANGLE_UNIT ( ) SI_UNIT ( $, .RADIAN. ) );
#173 = CARTESIAN_POINT ( 'NONE',  ( 6.000000000000000000, 75.00000000000000000, 0.000000000000000000 ) ) ;
#174 = COLOUR_RGB ( '',1.000000000000000000, 0.000000000000000000, 0.000000000000000000 ) ;
#175 = EDGE_CURVE ( 'NONE', #128, #193, #55, .T. ) ;
#176 = PRESENTATION_STYLE_ASSIGNMENT (( #242 ) ) ;
#177 = CARTESIAN_POINT ( 'NONE',  ( 7.347880794884119736E-16, 0.000000000000000000, 6.000000000000000000 ) ) ;
#178 = EDGE_CURVE ( 'NONE', #216, #272, #197, .T. ) ;
#179 = DIRECTION ( 'NONE',  ( -2.578203787678638266E-17, 1.000000000000000000, -0.000000000000000000 ) ) ;
#180 = ORIENTED_EDGE ( 'NONE', *, *, #231, .F. ) ;
#181 = STYLED_ITEM ( 'NONE', ( #59 ), #103 ) ;
#182 =( LENGTH_UNIT ( ) NAMED_UNIT ( * ) SI_UNIT ( .MILLI., .METRE. ) );
#183 = CARTESIAN_POINT ( 'NONE',  ( 0.000000000000000000, 0.000000000000000000, 0.000000000000000000 ) ) ;
#184 = SURFACE_SIDE_STYLE ('',( #37 ) ) ;
#185 = STYLED_ITEM ( 'NONE', ( #83 ), #95 ) ;
#186 =( GEOMETRIC_REPRESENTATION_CONTEXT ( 3 ) GLOBAL_UNCERTAINTY_ASSIGNED_CONTEXT ( ( #43 ) ) GLOBAL_UNIT_ASSIGNED_CONTEXT ( ( #29, #203, #159 ) ) REPRESENTATION_CONTEXT ( 'NONE', 'WORKASPACE' ) );
#187 = FILL_AREA_STYLE_COLOUR ( '', #66 ) ;
#188 =( LENGTH_UNIT ( ) NAMED_UNIT ( * ) SI_UNIT ( .MILLI., .METRE. ) );
#189 = ORIENTED_EDGE ( 'NONE', *, *, #231, .T. ) ;
#190 = PLANE ( 'NONE',  #85 ) ;
#191 = STYLED_ITEM ( 'NONE', ( #270 ), #2 ) ;
#192 = FILL_AREA_STYLE ('',( #286 ) ) ;
#193 = VERTEX_POINT ( 'NONE', #112 ) ;
#194 =( LENGTH_UNIT ( ) NAMED_UNIT ( * ) SI_UNIT ( .MILLI., .METRE. ) );
#195 = ORIENTED_EDGE ( 'NONE', *, *, #283, .T. ) ;
#196 = FILL_AREA_STYLE ('',( #48 ) ) ;
#197 = CIRCLE ( 'NONE', #46, 6.000000000000000000 ) ;
#198 = DIRECTION ( 'NONE',  ( -2.578203787678638266E-17, 1.000000000000000000, -0.000000000000000000 ) ) ;
#199 = EDGE_CURVE ( 'NONE', #241, #163, #227, .T. ) ;
#200 = CARTESIAN_POINT ( 'NONE',  ( 0.000000000000000000, 0.000000000000000000, 0.000000000000000000 ) ) ;
#201 = SURFACE_STYLE_FILL_AREA ( #266 ) ;
#202 = PRODUCT_DEFINITION_FORMATION_WITH_SPECIFIED_SOURCE ( 'ANY', '', #209, .NOT_KNOWN. ) ;
#203 =( NAMED_UNIT ( * ) PLANE_ANGLE_UNIT ( ) SI_UNIT ( $, .RADIAN. ) );
#204 =( NAMED_UNIT ( * ) PLANE_ANGLE_UNIT ( ) SI_UNIT ( $, .RADIAN. ) );
#205 = DIRECTION ( 'NONE',  ( 0.000000000000000000, 0.000000000000000000, -1.000000000000000000 ) ) ;
#206 = ORIENTED_EDGE ( 'NONE', *, *, #6, .T. ) ;
#207 = ORIENTED_EDGE ( 'NONE', *, *, #65, .T. ) ;
#208 = PRESENTATION_LAYER_ASSIGNMENT (  '', '', ( #191 ) ) ;
#209 = PRODUCT ( '59467', '59467', '', ( #267 ) ) ;
#210 = DIRECTION ( 'NONE',  ( -1.000000000000000000, 0.000000000000000000, 0.000000000000000000 ) ) ;
#211 = FACE_OUTER_BOUND ( 'NONE', #88, .T. ) ;
#212 = CYLINDRICAL_SURFACE ( 'NONE', #152, 6.000000000000000888 ) ;
#213 = AXIS2_PLACEMENT_3D ( 'NONE', #160, #27, #250 ) ;
#214 =( LENGTH_UNIT ( ) NAMED_UNIT ( * ) SI_UNIT ( .MILLI., .METRE. ) );
#215 = FACE_OUTER_BOUND ( 'NONE', #281, .T. ) ;
#216 = VERTEX_POINT ( 'NONE', #251 ) ;
#217 = UNCERTAINTY_MEASURE_WITH_UNIT (LENGTH_MEASURE( 1.000000000000000082E-05 ), #114, 'distance_accuracy_value', 'NONE');
#218 =( NAMED_UNIT ( * ) SI_UNIT ( $, .STERADIAN. ) SOLID_ANGLE_UNIT ( ) );
#219 = DIRECTION ( 'NONE',  ( 1.000000000000000000, 2.578203787678638266E-17, 0.000000000000000000 ) ) ;
#220 = ORIENTED_EDGE ( 'NONE', *, *, #283, .F. ) ;
#221 = CARTESIAN_POINT ( 'NONE',  ( 0.000000000000000000, 18.00000000000000000, 0.000000000000000000 ) ) ;
#222 = FACE_OUTER_BOUND ( 'NONE', #97, .T. ) ;
#223 = COLOUR_RGB ( '',1.000000000000000000, 0.000000000000000000, 0.000000000000000000 ) ;
#224 = DIRECTION ( 'NONE',  ( -0.000000000000000000, -1.000000000000000000, -0.000000000000000000 ) ) ;
#225 = ORIENTED_EDGE ( 'NONE', *, *, #279, .T. ) ;
#226 =( NAMED_UNIT ( * ) SI_UNIT ( $, .STERADIAN. ) SOLID_ANGLE_UNIT ( ) );
#227 = CIRCLE ( 'NONE', #8, 6.000000000000001776 ) ;
#228 = EDGE_CURVE ( 'NONE', #272, #241, #75, .T. ) ;
#229 = CARTESIAN_POINT ( 'NONE',  ( 0.000000000000000000, 0.000000000000000000, 0.000000000000000000 ) ) ;
#230 = DIRECTION ( 'NONE',  ( 0.000000000000000000, 0.000000000000000000, -1.000000000000000000 ) ) ;
#231 = EDGE_CURVE ( 'NONE', #61, #23, #278, .T. ) ;
#232 = FILL_AREA_STYLE ('',( #187 ) ) ;
#233 = COLOUR_RGB ( '',0.7921568627450980005, 0.8196078431372548767, 0.9333333333333333481 ) ;
#234 = VECTOR ( 'NONE', #224, 1000.000000000000000 ) ;
#235 = APPLICATION_CONTEXT ( 'automotive_design' ) ;
#236 = DIRECTION ( 'NONE',  ( -0.000000000000000000, -1.000000000000000000, -0.000000000000000000 ) ) ;
#237 = CARTESIAN_POINT ( 'NONE',  ( 1.994140431240143121E-33, 18.00000000000000000, 0.000000000000000000 ) ) ;
#238 = ORIENTED_EDGE ( 'NONE', *, *, #228, .F. ) ;
#239 = AXIS2_PLACEMENT_3D ( 'NONE', #200, #4, #91 ) ;
#240 = FACE_OUTER_BOUND ( 'NONE', #285, .T. ) ;
#241 = VERTEX_POINT ( 'NONE', #156 ) ;
#242 = SURFACE_STYLE_USAGE ( .BOTH. , #62 ) ;
#243 = SURFACE_STYLE_USAGE ( .BOTH. , #265 ) ;
#244 = EDGE_LOOP ( 'NONE', ( #119, #44 ) ) ;
#245 = MECHANICAL_DESIGN_GEOMETRIC_PRESENTATION_REPRESENTATION (  '', ( #191 ), #81 ) ;
#246 = CYLINDRICAL_SURFACE ( 'NONE', #260, 6.000000000000000000 ) ;
#247 = EDGE_LOOP ( 'NONE', ( #238, #225, #195, #47 ) ) ;
#248 = DIRECTION ( 'NONE',  ( -2.578203787678638266E-17, 1.000000000000000000, -0.000000000000000000 ) ) ;
#249 = APPLICATION_CONTEXT ( 'automotive_design' ) ;
#250 = DIRECTION ( 'NONE',  ( 0.000000000000000000, 0.000000000000000000, -1.000000000000000000 ) ) ;
#251 = CARTESIAN_POINT ( 'NONE',  ( -6.000000000000000000, 18.00000000000000355, 0.000000000000000000 ) ) ;
#252 = AXIS2_PLACEMENT_3D ( 'NONE', #142, #102, #210 ) ;
#253 = CARTESIAN_POINT ( 'NONE',  ( -6.000000000000002665, 75.00000000000000000, 0.000000000000000000 ) ) ;
#254 = EDGE_CURVE ( 'NONE', #193, #61, #134, .T. ) ;
#255 =( GEOMETRIC_REPRESENTATION_CONTEXT ( 3 ) GLOBAL_UNCERTAINTY_ASSIGNED_CONTEXT ( ( #146 ) ) GLOBAL_UNIT_ASSIGNED_CONTEXT ( ( #188, #12, #276 ) ) REPRESENTATION_CONTEXT ( 'NONE', 'WORKASPACE' ) );
#256 = CARTESIAN_POINT ( 'NONE',  ( 7.347880794884119736E-16, 0.000000000000000000, 6.000000000000000000 ) ) ;
#257 = DIRECTION ( 'NONE',  ( -1.000000000000000000, 0.000000000000000000, 0.000000000000000000 ) ) ;
#258 = DIRECTION ( 'NONE',  ( 0.000000000000000000, 0.000000000000000000, -1.000000000000000000 ) ) ;
#259 = STYLED_ITEM ( 'NONE', ( #64 ), #105 ) ;
#260 = AXIS2_PLACEMENT_3D ( 'NONE', #229, #10, #118 ) ;
#261 = UNCERTAINTY_MEASURE_WITH_UNIT (LENGTH_MEASURE( 1.000000000000000082E-05 ), #214, 'distance_accuracy_value', 'NONE');
#262 = SURFACE_STYLE_FILL_AREA ( #192 ) ;
#263 = ORIENTED_EDGE ( 'NONE', *, *, #13, .F. ) ;
#264 = VECTOR ( 'NONE', #73, 1000.000000000000000 ) ;
#265 = SURFACE_SIDE_STYLE ('',( #262 ) ) ;
#266 = FILL_AREA_STYLE ('',( #78 ) ) ;
#267 = PRODUCT_CONTEXT ( 'NONE', #235, 'mechanical' ) ;
#268 = CIRCLE ( 'NONE', #19, 6.000000000000000000 ) ;
#269 = MECHANICAL_DESIGN_GEOMETRIC_PRESENTATION_REPRESENTATION (  '', ( #26 ), #161 ) ;
#270 = PRESENTATION_STYLE_ASSIGNMENT (( #9 ) ) ;
#271 = DIRECTION ( 'NONE',  ( -1.000000000000000000, 0.000000000000000000, 0.000000000000000000 ) ) ;
#272 = VERTEX_POINT ( 'NONE', #30 ) ;
#273 = ORIENTED_EDGE ( 'NONE', *, *, #74, .T. ) ;
#274 = AXIS2_PLACEMENT_3D ( 'NONE', #38, #79, #58 ) ;
#275 = STYLED_ITEM ( 'NONE', ( #176 ), #164 ) ;
#276 =( NAMED_UNIT ( * ) SI_UNIT ( $, .STERADIAN. ) SOLID_ANGLE_UNIT ( ) );
#277 = AXIS2_PLACEMENT_3D ( 'NONE', #183, #136, #230 ) ;
#278 = CIRCLE ( 'NONE', #70, 6.000000000000000000 ) ;
#279 = EDGE_CURVE ( 'NONE', #272, #216, #170, .T. ) ;
#280 = SURFACE_STYLE_FILL_AREA ( #232 ) ;
#281 = EDGE_LOOP ( 'NONE', ( #263, #31, #16, #124 ) ) ;
#282 = DIRECTION ( 'NONE',  ( -0.000000000000000000, -1.000000000000000000, -0.000000000000000000 ) ) ;
#283 = EDGE_CURVE ( 'NONE', #216, #163, #52, .T. ) ;
#284 = SURFACE_STYLE_FILL_AREA ( #51 ) ;
#285 = EDGE_LOOP ( 'NONE', ( #33, #50 ) ) ;
#286 = FILL_AREA_STYLE_COLOUR ( '', #223 ) ;
#287 = PRESENTATION_LAYER_ASSIGNMENT (  '', '', ( #185 ) ) ;
#288 = FACE_OUTER_BOUND ( 'NONE', #40, .T. ) ;
ENDSEC;
END-ISO-10303-21;
