ISO-10303-21;
HEADER;
FILE_DESCRIPTION (( 'STEP AP214' ),
    '1' );
FILE_NAME ('Micro_BMS-019-2X.STEP',
    '2021-09-03T14:56:13',
    ( '' ),
    ( '' ),
    'SwSTEP 2.0',
    'SolidWorks 2020',
    '' );
FILE_SCHEMA (( 'AUTOMOTIVE_DESIGN' ));
ENDSEC;

DATA;
#1 = CARTESIAN_POINT ( 'NONE',  ( 0.06250000000000004163, 7.654042494670960626E-18, 0.3286318136170233162 ) ) ;
#2 = UNCERTAINTY_MEASURE_WITH_UNIT (LENGTH_MEASURE( 1.000000000000000082E-05 ), #170, 'distance_accuracy_value', 'NONE');
#3 = DIRECTION ( 'NONE',  ( -1.000000000000000000, 1.224646799147352961E-16, 0.0000000000000000000 ) ) ;
#4 = PRODUCT_DEFINITION_SHAPE ( 'NONE', 'NONE',  #60 ) ;
#5 = SURFACE_STYLE_FILL_AREA ( #157 ) ;
#6 = CONICAL_SURFACE ( 'NONE', #148, 0.04750000000000064587, 0.7853981633974457255 ) ;
#7 = ADVANCED_FACE ( 'NONE', ( #292 ), #251, .T. ) ;
#8 =( NAMED_UNIT ( * ) PLANE_ANGLE_UNIT ( ) SI_UNIT ( $, .RADIAN. ) );
#9 = EDGE_LOOP ( 'NONE', ( #44, #213, #218, #245 ) ) ;
#10 = EDGE_CURVE ( 'NONE', #212, #168, #22, .T. ) ;
#11 = DIRECTION ( 'NONE',  ( 0.1736481776669313859, 0.0000000000000000000, 0.9848077530122077983 ) ) ;
#12 = AXIS2_PLACEMENT_3D ( 'NONE', #325, #26, #98 ) ;
#13 = ORIENTED_EDGE ( 'NONE', *, *, #156, .F. ) ;
#14 = FACE_OUTER_BOUND ( 'NONE', #265, .T. ) ;
#15 = DIRECTION ( 'NONE',  ( 1.224646799147353207E-16, 1.000000000000000000, -0.0000000000000000000 ) ) ;
#16 = ORIENTED_EDGE ( 'NONE', *, *, #112, .T. ) ;
#17 = LENGTH_MEASURE_WITH_UNIT ( LENGTH_MEASURE( 0.02539999999999999897 ), #41 );
#18 = ORIENTED_EDGE ( 'NONE', *, *, #112, .F. ) ;
#19 = ADVANCED_FACE ( 'NONE', ( #312 ), #165, .T. ) ;
#20 = LINE ( 'NONE', #79, #197 ) ;
#21 = DIRECTION ( 'NONE',  ( -1.000000000000000000, 0.0000000000000000000, 0.0000000000000000000 ) ) ;
#22 = CIRCLE ( 'NONE', #214, 0.009490500000000000672 ) ;
#23 = STYLED_ITEM ( 'NONE', ( #220 ), #101 ) ;
#24 = CIRCLE ( 'NONE', #308, 0.04750000000000064587 ) ;
#25 = VERTEX_POINT ( 'NONE', #140 ) ;
#26 = DIRECTION ( 'NONE',  ( -1.224646799147353454E-16, -0.0000000000000000000, -1.000000000000000000 ) ) ;
#27 = CARTESIAN_POINT ( 'NONE',  ( 0.06250000000000000000, 7.654042494670956004E-18, 1.500000000000000222 ) ) ;
#28 = DIRECTION ( 'NONE',  ( 0.7071067811865456854, 8.659560562354911904E-17, -0.7071067811865493491 ) ) ;
#29 = EDGE_CURVE ( 'NONE', #35, #25, #268, .T. ) ;
#30 = AXIS2_PLACEMENT_3D ( 'NONE', #169, #185, #243 ) ;
#31 = MECHANICAL_DESIGN_GEOMETRIC_PRESENTATION_REPRESENTATION (  '', ( #90 ), #66 ) ;
#32 = CARTESIAN_POINT ( 'NONE',  ( 0.06250000000000000000, 7.654042494670956004E-18, 1.485000000000000764 ) ) ;
#33 = AXIS2_PLACEMENT_3D ( 'NONE', #134, #15, #3 ) ;
#34 = CARTESIAN_POINT ( 'NONE',  ( 0.0000000000000000000, 0.0000000000000000000, 1.485000000000000764 ) ) ;
#35 = VERTEX_POINT ( 'NONE', #72 ) ;
#36 = ORIENTED_EDGE ( 'NONE', *, *, #184, .T. ) ;
#37 = DIRECTION ( 'NONE',  ( 1.000000000000000000, 0.0000000000000000000, 0.0000000000000000000 ) ) ;
#38 = ORIENTED_EDGE ( 'NONE', *, *, #67, .T. ) ;
#39 = CARTESIAN_POINT ( 'NONE',  ( -0.04750000000000064587, 0.0000000000000000000, 1.500000000000000222 ) ) ;
#40 = VECTOR ( 'NONE', #75, 39.37007874015748143 ) ;
#41 =( LENGTH_UNIT ( ) NAMED_UNIT ( * ) SI_UNIT ( $, .METRE. ) );
#42 = ORIENTED_EDGE ( 'NONE', *, *, #131, .T. ) ;
#43 = EDGE_CURVE ( 'NONE', #25, #286, #85, .T. ) ;
#44 = ORIENTED_EDGE ( 'NONE', *, *, #71, .F. ) ;
#45 = ORIENTED_EDGE ( 'NONE', *, *, #131, .F. ) ;
#46 = DIRECTION ( 'NONE',  ( 0.0000000000000000000, 1.000000000000000000, 0.0000000000000000000 ) ) ;
#47 = AXIS2_PLACEMENT_3D ( 'NONE', #119, #294, #191 ) ;
#48 = VERTEX_POINT ( 'NONE', #194 ) ;
#49 = FACE_OUTER_BOUND ( 'NONE', #108, .T. ) ;
#50 = DIRECTION ( 'NONE',  ( -1.224646799147353454E-16, -0.0000000000000000000, -1.000000000000000000 ) ) ;
#51 = ADVANCED_FACE ( 'NONE', ( #186 ), #171, .T. ) ;
#52 = FACE_OUTER_BOUND ( 'NONE', #9, .T. ) ;
#53 = EDGE_CURVE ( 'NONE', #290, #242, #172, .T. ) ;
#54 = DIRECTION ( 'NONE',  ( 1.224646799147353454E-16, 0.0000000000000000000, 1.000000000000000000 ) ) ;
#55 = CARTESIAN_POINT ( 'NONE',  ( 0.009490500000000002406, 1.162251044730795519E-18, 0.009490500000000000672 ) ) ;
#56 = CARTESIAN_POINT ( 'NONE',  ( 3.429011037612590247E-18, 0.0000000000000000000, 0.02800000000000000405 ) ) ;
#57 = VECTOR ( 'NONE', #221, 39.37007874015748143 ) ;
#58 = CARTESIAN_POINT ( 'NONE',  ( 0.009490500000000005876, 0.0000000000000000000, 0.02800000000000000405 ) ) ;
#59 = APPLICATION_CONTEXT ( 'automotive_design' ) ;
#60 = PRODUCT_DEFINITION ( 'UNKNOWN', '', #74, #80 ) ;
#61 = CARTESIAN_POINT ( 'NONE',  ( 0.04750000000000064587, 6.735557395310482421E-18, 1.500000000000000222 ) ) ;
#62 = CONICAL_SURFACE ( 'NONE', #104, 0.04750000000000064587, 0.7853981633974457255 ) ;
#63 = LINE ( 'NONE', #27, #158 ) ;
#64 = DIRECTION ( 'NONE',  ( 0.0000000000000000000, 0.0000000000000000000, -1.000000000000000000 ) ) ;
#65 = AXIS2_PLACEMENT_3D ( 'NONE', #175, #54, #324 ) ;
#66 =( GEOMETRIC_REPRESENTATION_CONTEXT ( 3 ) GLOBAL_UNCERTAINTY_ASSIGNED_CONTEXT ( ( #103 ) ) GLOBAL_UNIT_ASSIGNED_CONTEXT ( ( #264, #8, #305 ) ) REPRESENTATION_CONTEXT ( 'NONE', 'WORKASPACE' ) );
#67 = EDGE_CURVE ( 'NONE', #242, #118, #237, .T. ) ;
#68 = DIRECTION ( 'NONE',  ( 1.000000000000000000, 0.0000000000000000000, 0.0000000000000000000 ) ) ;
#69 = ORIENTED_EDGE ( 'NONE', *, *, #253, .T. ) ;
#70 = FILL_AREA_STYLE ('',( #246 ) ) ;
#71 = EDGE_CURVE ( 'NONE', #229, #35, #24, .T. ) ;
#72 = CARTESIAN_POINT ( 'NONE',  ( -0.04750000000000064587, 0.0000000000000000000, 1.500000000000000222 ) ) ;
#73 = COLOUR_RGB ( '',0.7921568627450980005, 0.8196078431372548767, 0.9333333333333333481 ) ;
#74 = PRODUCT_DEFINITION_FORMATION_WITH_SPECIFIED_SOURCE ( 'ANY', '', #255, .NOT_KNOWN. ) ;
#75 = DIRECTION ( 'NONE',  ( -1.224646799147353454E-16, -0.0000000000000000000, -1.000000000000000000 ) ) ;
#76 = DIRECTION ( 'NONE',  ( -1.224646799147353454E-16, -0.0000000000000000000, -1.000000000000000000 ) ) ;
#77 = CIRCLE ( 'NONE', #317, 0.06250000000000000000 ) ;
#78 = EDGE_CURVE ( 'NONE', #48, #168, #207, .T. ) ;
#79 = CARTESIAN_POINT ( 'NONE',  ( -0.009490500000000000672, 0.0000000000000000000, 1.162251044730795904E-18 ) ) ;
#80 = PRODUCT_DEFINITION_CONTEXT ( 'detailed design', #59, 'design' ) ;
#81 = CYLINDRICAL_SURFACE ( 'NONE', #176, 0.06250000000000000000 ) ;
#82 =( NAMED_UNIT ( * ) SI_UNIT ( $, .STERADIAN. ) SOLID_ANGLE_UNIT ( ) );
#83 = ADVANCED_FACE ( 'NONE', ( #14 ), #87, .T. ) ;
#84 = DIRECTION ( 'NONE',  ( 1.000000000000000000, 0.0000000000000000000, 0.0000000000000000000 ) ) ;
#85 = CIRCLE ( 'NONE', #109, 0.06250000000000000000 ) ;
#86 = DIRECTION ( 'NONE',  ( 1.000000000000000000, 0.0000000000000000000, 0.0000000000000000000 ) ) ;
#87 = SPHERICAL_SURFACE ( 'NONE', #282, 0.009490500000000000672 ) ;
#88 = ORIENTED_EDGE ( 'NONE', *, *, #78, .F. ) ;
#89 = ORIENTED_EDGE ( 'NONE', *, *, #43, .T. ) ;
#90 = STYLED_ITEM ( 'NONE', ( #105 ), #240 ) ;
#91 =( NAMED_UNIT ( * ) SI_UNIT ( $, .STERADIAN. ) SOLID_ANGLE_UNIT ( ) );
#92 = SURFACE_STYLE_USAGE ( .BOTH. , #113 ) ;
#93 = DIRECTION ( 'NONE',  ( 1.000000000000000000, 0.0000000000000000000, 0.0000000000000000000 ) ) ;
#94 = CONICAL_SURFACE ( 'NONE', #65, 0.009490500000000002406, 0.1745329251994338915 ) ;
#95 = CONICAL_SURFACE ( 'NONE', #208, 0.009490500000000002406, 0.1745329251994338915 ) ;
#96 = FACE_OUTER_BOUND ( 'NONE', #107, .T. ) ;
#97 = CARTESIAN_POINT ( 'NONE',  ( -0.009490499999999998937, 1.162251044730795904E-18, 0.02800000000000000405 ) ) ;
#98 = DIRECTION ( 'NONE',  ( 1.000000000000000000, 0.0000000000000000000, 0.0000000000000000000 ) ) ;
#99 = ORIENTED_EDGE ( 'NONE', *, *, #166, .F. ) ;
#100 = DIRECTION ( 'NONE',  ( -1.000000000000000000, 0.0000000000000000000, 0.0000000000000000000 ) ) ;
#101 = MANIFOLD_SOLID_BREP ( 'Fillet1', #122 ) ;
#102 =( LENGTH_UNIT ( ) NAMED_UNIT ( * ) SI_UNIT ( $, .METRE. ) );
#103 = UNCERTAINTY_MEASURE_WITH_UNIT (LENGTH_MEASURE( 1.000000000000000082E-05 ), #264, 'distance_accuracy_value', 'NONE');
#104 = AXIS2_PLACEMENT_3D ( 'NONE', #177, #228, #100 ) ;
#105 = PRESENTATION_STYLE_ASSIGNMENT (( #285 ) ) ;
#106 = APPLICATION_PROTOCOL_DEFINITION ( 'draft international standard', 'automotive_design', 1998, #133 ) ;
#107 = EDGE_LOOP ( 'NONE', ( #89, #16, #111, #13 ) ) ;
#108 = EDGE_LOOP ( 'NONE', ( #209, #45, #123, #188 ) ) ;
#109 = AXIS2_PLACEMENT_3D ( 'NONE', #249, #64, #68 ) ;
#110 = CARTESIAN_POINT ( 'NONE',  ( 0.0000000000000000000, 0.0000000000000000000, 1.500000000000000222 ) ) ;
#111 = ORIENTED_EDGE ( 'NONE', *, *, #120, .F. ) ;
#112 = EDGE_CURVE ( 'NONE', #286, #118, #63, .T. ) ;
#113 = SURFACE_SIDE_STYLE ('',( #266 ) ) ;
#114 = DIRECTION ( 'NONE',  ( 1.000000000000000000, 0.0000000000000000000, 0.0000000000000000000 ) ) ;
#115 = DIRECTION ( 'NONE',  ( 0.0000000000000000000, -1.000000000000000000, 0.0000000000000000000 ) ) ;
#116 = CARTESIAN_POINT ( 'NONE',  ( 0.0000000000000000000, 0.0000000000000000000, 0.0000000000000000000 ) ) ;
#117 = CIRCLE ( 'NONE', #204, 0.009490500000000002406 ) ;
#118 = VERTEX_POINT ( 'NONE', #1 ) ;
#119 = CARTESIAN_POINT ( 'NONE',  ( 3.429011037612590247E-18, 0.0000000000000000000, 0.02800000000000000405 ) ) ;
#120 = EDGE_CURVE ( 'NONE', #159, #118, #267, .T. ) ;
#121 = DIRECTION ( 'NONE',  ( -1.224646799147353454E-16, -0.0000000000000000000, -1.000000000000000000 ) ) ;
#122 = CLOSED_SHELL ( 'NONE', ( #19, #210, #162, #190, #215, #202, #51, #145, #281, #7, #83 ) ) ;
#123 = ORIENTED_EDGE ( 'NONE', *, *, #29, .T. ) ;
#124 = CYLINDRICAL_SURFACE ( 'NONE', #248, 0.009490500000000000672 ) ;
#125 = AXIS2_PLACEMENT_3D ( 'NONE', #173, #76, #252 ) ;
#126 = EDGE_CURVE ( 'NONE', #290, #48, #20, .T. ) ;
#127 = DIRECTION ( 'NONE',  ( 0.0000000000000000000, 0.0000000000000000000, 1.000000000000000000 ) ) ;
#128 = DIRECTION ( 'NONE',  ( 1.224646799147353454E-16, 0.0000000000000000000, 1.000000000000000000 ) ) ;
#129 = UNCERTAINTY_MEASURE_WITH_UNIT (LENGTH_MEASURE( 1.000000000000000082E-05 ), #313, 'distance_accuracy_value', 'NONE');
#130 = FACE_OUTER_BOUND ( 'NONE', #141, .T. ) ;
#131 = EDGE_CURVE ( 'NONE', #35, #229, #238, .T. ) ;
#132 = AXIS2_PLACEMENT_3D ( 'NONE', #291, #310, #144 ) ;
#133 = APPLICATION_CONTEXT ( 'automotive_design' ) ;
#134 = CARTESIAN_POINT ( 'NONE',  ( 1.162251044730795904E-18, 0.0000000000000000000, 0.009490500000000000672 ) ) ;
#135 = EDGE_CURVE ( 'NONE', #242, #290, #117, .T. ) ;
#136 = DIRECTION ( 'NONE',  ( -1.000000000000000000, 0.0000000000000000000, 0.0000000000000000000 ) ) ;
#137 = CIRCLE ( 'NONE', #33, 0.009490500000000000672 ) ;
#138 =( NAMED_UNIT ( * ) PLANE_ANGLE_UNIT ( ) SI_UNIT ( $, .RADIAN. ) );
#139 = EDGE_LOOP ( 'NONE', ( #18, #69, #309, #183 ) ) ;
#140 = CARTESIAN_POINT ( 'NONE',  ( -0.06250000000000000000, 0.0000000000000000000, 1.485000000000000764 ) ) ;
#141 = EDGE_LOOP ( 'NONE', ( #236, #161, #151, #211 ) ) ;
#142 = AXIS2_PLACEMENT_3D ( 'NONE', #277, #127, #93 ) ;
#143 =( GEOMETRIC_REPRESENTATION_CONTEXT ( 3 ) GLOBAL_UNCERTAINTY_ASSIGNED_CONTEXT ( ( #129 ) ) GLOBAL_UNIT_ASSIGNED_CONTEXT ( ( #313, #138, #82 ) ) REPRESENTATION_CONTEXT ( 'NONE', 'WORKASPACE' ) );
#144 = DIRECTION ( 'NONE',  ( 1.000000000000000000, 0.0000000000000000000, -0.0000000000000000000 ) ) ;
#145 = ADVANCED_FACE ( 'NONE', ( #49 ), #62, .T. ) ;
#146 = ORIENTED_EDGE ( 'NONE', *, *, #78, .T. ) ;
#147 = CARTESIAN_POINT ( 'NONE',  ( 0.009490500000000005876, 0.0000000000000000000, 0.02800000000000000405 ) ) ;
#148 = AXIS2_PLACEMENT_3D ( 'NONE', #259, #152, #230 ) ;
#149 = FACE_OUTER_BOUND ( 'NONE', #289, .T. ) ;
#150 = CARTESIAN_POINT ( 'NONE',  ( -0.06249999999999995837, 0.0000000000000000000, 0.3286318136170233162 ) ) ;
#151 = ORIENTED_EDGE ( 'NONE', *, *, #178, .T. ) ;
#152 = DIRECTION ( 'NONE',  ( 0.0000000000000000000, 0.0000000000000000000, -1.000000000000000000 ) ) ;
#153 = AXIS2_PLACEMENT_3D ( 'NONE', #301, #205, #21 ) ;
#154 = DIRECTION ( 'NONE',  ( -1.000000000000000000, 0.0000000000000000000, 1.124417177730470153E-16 ) ) ;
#155 = CARTESIAN_POINT ( 'NONE',  ( 1.162251044730795904E-18, 0.0000000000000000000, 0.009490500000000000672 ) ) ;
#156 = EDGE_CURVE ( 'NONE', #25, #159, #201, .T. ) ;
#157 = FILL_AREA_STYLE ('',( #233 ) ) ;
#158 = VECTOR ( 'NONE', #203, 39.37007874015748143 ) ;
#159 = VERTEX_POINT ( 'NONE', #150 ) ;
#160 = DIRECTION ( 'NONE',  ( 1.224646799147353454E-16, 0.0000000000000000000, 1.000000000000000000 ) ) ;
#161 = ORIENTED_EDGE ( 'NONE', *, *, #181, .T. ) ;
#162 = ADVANCED_FACE ( 'NONE', ( #149 ), #94, .T. ) ;
#163 = AXIS2_PLACEMENT_3D ( 'NONE', #320, #271, #37 ) ;
#164 = CARTESIAN_POINT ( 'NONE',  ( 0.0000000000000000000, 0.0000000000000000000, 0.0000000000000000000 ) ) ;
#165 = SPHERICAL_SURFACE ( 'NONE', #163, 0.009490500000000000672 ) ;
#166 = EDGE_CURVE ( 'NONE', #290, #159, #174, .T. ) ;
#167 = PRESENTATION_LAYER_ASSIGNMENT (  '', '', ( #23 ) ) ;
#168 = VERTEX_POINT ( 'NONE', #55 ) ;
#169 = CARTESIAN_POINT ( 'NONE',  ( 1.162251044730795904E-18, 0.0000000000000000000, 0.009490500000000000672 ) ) ;
#170 =( CONVERSION_BASED_UNIT ( 'INCH', #17 ) LENGTH_UNIT ( ) NAMED_UNIT ( #314 ) );
#171 = PLANE ( 'NONE',  #132 ) ;
#172 = CIRCLE ( 'NONE', #47, 0.009490500000000002406 ) ;
#173 = CARTESIAN_POINT ( 'NONE',  ( 4.024578986440772252E-17, 0.0000000000000000000, 0.3286318136170233162 ) ) ;
#174 = LINE ( 'NONE', #97, #321 ) ;
#175 = CARTESIAN_POINT ( 'NONE',  ( 3.429011037612590247E-18, 0.0000000000000000000, 0.02800000000000000405 ) ) ;
#176 = AXIS2_PLACEMENT_3D ( 'NONE', #274, #263, #136 ) ;
#177 = CARTESIAN_POINT ( 'NONE',  ( 0.0000000000000000000, 0.0000000000000000000, 1.500000000000000222 ) ) ;
#178 = EDGE_CURVE ( 'NONE', #168, #48, #179, .T. ) ;
#179 = CIRCLE ( 'NONE', #299, 0.009490500000000000672 ) ;
#180 = CARTESIAN_POINT ( 'NONE',  ( -0.009490499999999998937, 4.408146769700876243E-18, 0.02800000000000000405 ) ) ;
#181 = EDGE_CURVE ( 'NONE', #242, #168, #298, .T. ) ;
#182 = MECHANICAL_DESIGN_GEOMETRIC_PRESENTATION_REPRESENTATION (  '', ( #23 ), #295 ) ;
#183 = ORIENTED_EDGE ( 'NONE', *, *, #184, .F. ) ;
#184 = EDGE_CURVE ( 'NONE', #118, #159, #227, .T. ) ;
#185 = DIRECTION ( 'NONE',  ( 1.224646799147353454E-16, 0.0000000000000000000, 1.000000000000000000 ) ) ;
#186 = FACE_OUTER_BOUND ( 'NONE', #244, .T. ) ;
#187 = ORIENTED_EDGE ( 'NONE', *, *, #71, .T. ) ;
#188 = ORIENTED_EDGE ( 'NONE', *, *, #253, .F. ) ;
#189 = DIRECTION ( 'NONE',  ( -1.000000000000000000, 0.0000000000000000000, 1.224646799147353454E-16 ) ) ;
#190 = ADVANCED_FACE ( 'NONE', ( #52 ), #6, .T. ) ;
#191 = DIRECTION ( 'NONE',  ( -1.000000000000000000, 0.0000000000000000000, 0.0000000000000000000 ) ) ;
#192 = PRODUCT_CONTEXT ( 'NONE', #133, 'mechanical' ) ;
#193 = ORIENTED_EDGE ( 'NONE', *, *, #166, .T. ) ;
#194 = CARTESIAN_POINT ( 'NONE',  ( -0.009490500000000000672, 0.0000000000000000000, 0.009490500000000002406 ) ) ;
#195 = DIMENSIONAL_EXPONENTS ( 1.000000000000000000, 0.0000000000000000000, 0.0000000000000000000, 0.0000000000000000000, 0.0000000000000000000, 0.0000000000000000000, 0.0000000000000000000 ) ;
#196 = CARTESIAN_POINT ( 'NONE',  ( -0.06250000000000000000, 0.0000000000000000000, 1.500000000000000222 ) ) ;
#197 = VECTOR ( 'NONE', #50, 39.37007874015748143 ) ;
#198 = APPLICATION_PROTOCOL_DEFINITION ( 'draft international standard', 'automotive_design', 1998, #59 ) ;
#199 = DIRECTION ( 'NONE',  ( -0.0000000000000000000, -0.0000000000000000000, -1.000000000000000000 ) ) ;
#200 = EDGE_CURVE ( 'NONE', #229, #286, #260, .T. ) ;
#201 = LINE ( 'NONE', #196, #234 ) ;
#202 = ADVANCED_FACE ( 'NONE', ( #275 ), #254, .T. ) ;
#203 = DIRECTION ( 'NONE',  ( -0.0000000000000000000, -0.0000000000000000000, -1.000000000000000000 ) ) ;
#204 = AXIS2_PLACEMENT_3D ( 'NONE', #296, #121, #297 ) ;
#205 = DIRECTION ( 'NONE',  ( -0.0000000000000000000, -0.0000000000000000000, -1.000000000000000000 ) ) ;
#206 = LENGTH_MEASURE_WITH_UNIT ( LENGTH_MEASURE( 0.02539999999999999897 ), #102 );
#207 = CIRCLE ( 'NONE', #30, 0.009490500000000000672 ) ;
#208 = AXIS2_PLACEMENT_3D ( 'NONE', #56, #160, #114 ) ;
#209 = ORIENTED_EDGE ( 'NONE', *, *, #200, .F. ) ;
#210 = ADVANCED_FACE ( 'NONE', ( #130 ), #124, .T. ) ;
#211 = ORIENTED_EDGE ( 'NONE', *, *, #126, .F. ) ;
#212 = VERTEX_POINT ( 'NONE', #323 ) ;
#213 = ORIENTED_EDGE ( 'NONE', *, *, #200, .T. ) ;
#214 = AXIS2_PLACEMENT_3D ( 'NONE', #223, #115, #293 ) ;
#215 = ADVANCED_FACE ( 'NONE', ( #96 ), #81, .T. ) ;
#216 = AXIS2_PLACEMENT_3D ( 'NONE', #164, #307, #84 ) ;
#217 = DIRECTION ( 'NONE',  ( 0.0000000000000000000, 0.0000000000000000000, 1.000000000000000000 ) ) ;
#218 = ORIENTED_EDGE ( 'NONE', *, *, #43, .F. ) ;
#219 = ORIENTED_EDGE ( 'NONE', *, *, #135, .F. ) ;
#220 = PRESENTATION_STYLE_ASSIGNMENT (( #92 ) ) ;
#221 = DIRECTION ( 'NONE',  ( -0.7071067811865456854, 0.0000000000000000000, -0.7071067811865493491 ) ) ;
#222 =( NAMED_UNIT ( * ) PLANE_ANGLE_UNIT ( ) SI_UNIT ( $, .RADIAN. ) );
#223 = CARTESIAN_POINT ( 'NONE',  ( 1.162251044730795904E-18, 0.0000000000000000000, 0.009490500000000000672 ) ) ;
#224 = CARTESIAN_POINT ( 'NONE',  ( 0.009490500000000000672, 1.162251044730795519E-18, -1.162251044730795904E-18 ) ) ;
#225 = ORIENTED_EDGE ( 'NONE', *, *, #178, .F. ) ;
#226 = CARTESIAN_POINT ( 'NONE',  ( 0.0000000000000000000, 0.0000000000000000000, 0.0000000000000000000 ) ) ;
#227 = CIRCLE ( 'NONE', #125, 0.06250000000000000000 ) ;
#228 = DIRECTION ( 'NONE',  ( 0.0000000000000000000, 0.0000000000000000000, -1.000000000000000000 ) ) ;
#229 = VERTEX_POINT ( 'NONE', #61 ) ;
#230 = DIRECTION ( 'NONE',  ( -1.000000000000000000, 0.0000000000000000000, 0.0000000000000000000 ) ) ;
#231 = EDGE_CURVE ( 'NONE', #212, #48, #137, .T. ) ;
#232 = DIRECTION ( 'NONE',  ( -1.000000000000000000, 0.0000000000000000000, 1.224646799147353454E-16 ) ) ;
#233 = FILL_AREA_STYLE_COLOUR ( '', #258 ) ;
#234 = VECTOR ( 'NONE', #199, 39.37007874015748143 ) ;
#235 = DIRECTION ( 'NONE',  ( 0.0000000000000000000, 0.0000000000000000000, -1.000000000000000000 ) ) ;
#236 = ORIENTED_EDGE ( 'NONE', *, *, #53, .T. ) ;
#237 = LINE ( 'NONE', #147, #273 ) ;
#238 = CIRCLE ( 'NONE', #142, 0.04750000000000064587 ) ;
#239 = ORIENTED_EDGE ( 'NONE', *, *, #10, .F. ) ;
#240 = ADVANCED_BREP_SHAPE_REPRESENTATION ( 'Micro_BMS-019-2X', ( #101, #216 ), #143 ) ;
#241 = ORIENTED_EDGE ( 'NONE', *, *, #10, .T. ) ;
#242 = VERTEX_POINT ( 'NONE', #58 ) ;
#243 = DIRECTION ( 'NONE',  ( -1.000000000000000000, 0.0000000000000000000, 1.124417177730470153E-16 ) ) ;
#244 = EDGE_LOOP ( 'NONE', ( #42, #187 ) ) ;
#245 = ORIENTED_EDGE ( 'NONE', *, *, #29, .F. ) ;
#246 = FILL_AREA_STYLE_COLOUR ( '', #73 ) ;
#247 = EDGE_LOOP ( 'NONE', ( #99, #219, #38, #36 ) ) ;
#248 = AXIS2_PLACEMENT_3D ( 'NONE', #226, #300, #232 ) ;
#249 = CARTESIAN_POINT ( 'NONE',  ( 0.0000000000000000000, 0.0000000000000000000, 1.485000000000000764 ) ) ;
#250 = DIMENSIONAL_EXPONENTS ( 1.000000000000000000, 0.0000000000000000000, 0.0000000000000000000, 0.0000000000000000000, 0.0000000000000000000, 0.0000000000000000000, 0.0000000000000000000 ) ;
#251 = CYLINDRICAL_SURFACE ( 'NONE', #256, 0.009490500000000000672 ) ;
#252 = DIRECTION ( 'NONE',  ( 1.000000000000000000, 0.0000000000000000000, 0.0000000000000000000 ) ) ;
#253 = EDGE_CURVE ( 'NONE', #286, #25, #77, .T. ) ;
#254 = CYLINDRICAL_SURFACE ( 'NONE', #153, 0.06250000000000000000 ) ;
#255 = PRODUCT ( 'Micro_BMS-019-2X', 'Micro_BMS-019-2X', '', ( #192 ) ) ;
#256 = AXIS2_PLACEMENT_3D ( 'NONE', #116, #316, #189 ) ;
#257 = CARTESIAN_POINT ( 'NONE',  ( 0.04750000000000064587, 5.817072295950006528E-18, 1.500000000000000222 ) ) ;
#258 = COLOUR_RGB ( '',0.7921568627450980005, 0.8196078431372548767, 0.9333333333333333481 ) ;
#259 = CARTESIAN_POINT ( 'NONE',  ( 0.0000000000000000000, 0.0000000000000000000, 1.500000000000000222 ) ) ;
#260 = LINE ( 'NONE', #257, #288 ) ;
#261 = ORIENTED_EDGE ( 'NONE', *, *, #135, .T. ) ;
#262 = DIRECTION ( 'NONE',  ( 1.000000000000000000, 0.0000000000000000000, 0.0000000000000000000 ) ) ;
#263 = DIRECTION ( 'NONE',  ( -0.0000000000000000000, -0.0000000000000000000, -1.000000000000000000 ) ) ;
#264 =( CONVERSION_BASED_UNIT ( 'INCH', #304 ) LENGTH_UNIT ( ) NAMED_UNIT ( #250 ) );
#265 = EDGE_LOOP ( 'NONE', ( #319, #241, #88 ) ) ;
#266 = SURFACE_STYLE_FILL_AREA ( #70 ) ;
#267 = CIRCLE ( 'NONE', #12, 0.06250000000000000000 ) ;
#268 = LINE ( 'NONE', #39, #57 ) ;
#269 = ORIENTED_EDGE ( 'NONE', *, *, #126, .T. ) ;
#270 = CARTESIAN_POINT ( 'NONE',  ( 1.162251044730795904E-18, 0.0000000000000000000, 0.009490500000000000672 ) ) ;
#271 = DIRECTION ( 'NONE',  ( 0.0000000000000000000, 1.000000000000000000, 0.0000000000000000000 ) ) ;
#272 = SHAPE_DEFINITION_REPRESENTATION ( #4, #240 ) ;
#273 = VECTOR ( 'NONE', #11, 39.37007874015748143 ) ;
#274 = CARTESIAN_POINT ( 'NONE',  ( 0.0000000000000000000, 0.0000000000000000000, 1.500000000000000222 ) ) ;
#275 = FACE_OUTER_BOUND ( 'NONE', #139, .T. ) ;
#276 = ORIENTED_EDGE ( 'NONE', *, *, #181, .F. ) ;
#277 = CARTESIAN_POINT ( 'NONE',  ( 0.0000000000000000000, 0.0000000000000000000, 1.500000000000000222 ) ) ;
#278 = DIRECTION ( 'NONE',  ( -0.1736481776669311916, 2.126576849575783316E-17, 0.9848077530122080203 ) ) ;
#279 = PRESENTATION_LAYER_ASSIGNMENT (  '', '', ( #90 ) ) ;
#280 = FACE_OUTER_BOUND ( 'NONE', #247, .T. ) ;
#281 = ADVANCED_FACE ( 'NONE', ( #280 ), #95, .T. ) ;
#282 = AXIS2_PLACEMENT_3D ( 'NONE', #270, #46, #287 ) ;
#283 = SURFACE_SIDE_STYLE ('',( #5 ) ) ;
#284 = ORIENTED_EDGE ( 'NONE', *, *, #53, .F. ) ;
#285 = SURFACE_STYLE_USAGE ( .BOTH. , #283 ) ;
#286 = VERTEX_POINT ( 'NONE', #32 ) ;
#287 = DIRECTION ( 'NONE',  ( 1.000000000000000000, 0.0000000000000000000, 0.0000000000000000000 ) ) ;
#288 = VECTOR ( 'NONE', #28, 39.37007874015748143 ) ;
#289 = EDGE_LOOP ( 'NONE', ( #284, #193, #303, #318 ) ) ;
#290 = VERTEX_POINT ( 'NONE', #180 ) ;
#291 = CARTESIAN_POINT ( 'NONE',  ( 0.0000000000000000000, 0.0000000000000000000, 1.500000000000000222 ) ) ;
#292 = FACE_OUTER_BOUND ( 'NONE', #315, .T. ) ;
#293 = DIRECTION ( 'NONE',  ( 0.0000000000000000000, 0.0000000000000000000, -1.000000000000000000 ) ) ;
#294 = DIRECTION ( 'NONE',  ( -1.224646799147353454E-16, -0.0000000000000000000, -1.000000000000000000 ) ) ;
#295 =( GEOMETRIC_REPRESENTATION_CONTEXT ( 3 ) GLOBAL_UNCERTAINTY_ASSIGNED_CONTEXT ( ( #2 ) ) GLOBAL_UNIT_ASSIGNED_CONTEXT ( ( #170, #222, #91 ) ) REPRESENTATION_CONTEXT ( 'NONE', 'WORKASPACE' ) );
#296 = CARTESIAN_POINT ( 'NONE',  ( 3.429011037612590247E-18, 0.0000000000000000000, 0.02800000000000000405 ) ) ;
#297 = DIRECTION ( 'NONE',  ( -1.000000000000000000, 0.0000000000000000000, 0.0000000000000000000 ) ) ;
#298 = LINE ( 'NONE', #224, #40 ) ;
#299 = AXIS2_PLACEMENT_3D ( 'NONE', #155, #128, #154 ) ;
#300 = DIRECTION ( 'NONE',  ( -1.224646799147353454E-16, -0.0000000000000000000, -1.000000000000000000 ) ) ;
#301 = CARTESIAN_POINT ( 'NONE',  ( 0.0000000000000000000, 0.0000000000000000000, 1.500000000000000222 ) ) ;
#302 =( LENGTH_UNIT ( ) NAMED_UNIT ( * ) SI_UNIT ( $, .METRE. ) );
#303 = ORIENTED_EDGE ( 'NONE', *, *, #120, .T. ) ;
#304 = LENGTH_MEASURE_WITH_UNIT ( LENGTH_MEASURE( 0.02539999999999999897 ), #302 );
#305 =( NAMED_UNIT ( * ) SI_UNIT ( $, .STERADIAN. ) SOLID_ANGLE_UNIT ( ) );
#306 = PRODUCT_RELATED_PRODUCT_CATEGORY ( 'part', '', ( #255 ) ) ;
#307 = DIRECTION ( 'NONE',  ( 0.0000000000000000000, 0.0000000000000000000, 1.000000000000000000 ) ) ;
#308 = AXIS2_PLACEMENT_3D ( 'NONE', #110, #217, #86 ) ;
#309 = ORIENTED_EDGE ( 'NONE', *, *, #156, .T. ) ;
#310 = DIRECTION ( 'NONE',  ( 0.0000000000000000000, 0.0000000000000000000, 1.000000000000000000 ) ) ;
#311 = EDGE_LOOP ( 'NONE', ( #239, #322, #225 ) ) ;
#312 = FACE_OUTER_BOUND ( 'NONE', #311, .T. ) ;
#313 =( CONVERSION_BASED_UNIT ( 'INCH', #206 ) LENGTH_UNIT ( ) NAMED_UNIT ( #195 ) );
#314 = DIMENSIONAL_EXPONENTS ( 1.000000000000000000, 0.0000000000000000000, 0.0000000000000000000, 0.0000000000000000000, 0.0000000000000000000, 0.0000000000000000000, 0.0000000000000000000 ) ;
#315 = EDGE_LOOP ( 'NONE', ( #276, #261, #269, #146 ) ) ;
#316 = DIRECTION ( 'NONE',  ( -1.224646799147353454E-16, -0.0000000000000000000, -1.000000000000000000 ) ) ;
#317 = AXIS2_PLACEMENT_3D ( 'NONE', #34, #235, #262 ) ;
#318 = ORIENTED_EDGE ( 'NONE', *, *, #67, .F. ) ;
#319 = ORIENTED_EDGE ( 'NONE', *, *, #231, .F. ) ;
#320 = CARTESIAN_POINT ( 'NONE',  ( 1.162251044730795904E-18, 0.0000000000000000000, 0.009490500000000000672 ) ) ;
#321 = VECTOR ( 'NONE', #278, 39.37007874015747433 ) ;
#322 = ORIENTED_EDGE ( 'NONE', *, *, #231, .T. ) ;
#323 = CARTESIAN_POINT ( 'NONE',  ( 1.743376567096193568E-18, 0.0000000000000000000, 0.0000000000000000000 ) ) ;
#324 = DIRECTION ( 'NONE',  ( 1.000000000000000000, 0.0000000000000000000, 0.0000000000000000000 ) ) ;
#325 = CARTESIAN_POINT ( 'NONE',  ( 4.024578986440772252E-17, 0.0000000000000000000, 0.3286318136170233162 ) ) ;
ENDSEC;
END-ISO-10303-21;
