ISO-10303-21;
HEADER;
FILE_DESCRIPTION (( 'STEP AP214' ),
    '1' );
FILE_NAME ('81363.STEP',
    '2023-06-23T00:38:37',
    ( '' ),
    ( '' ),
    'SwSTEP 2.0',
    'SolidWorks 2023',
    '' );
FILE_SCHEMA (( 'AUTOMOTIVE_DESIGN' ));
ENDSEC;

DATA;
#1 = SURFACE_STYLE_USAGE ( .BOTH. , #198 ) ;
#2 = CARTESIAN_POINT ( 'NONE',  ( 0.000000000000000000, 0.7500000000000001110, 0.000000000000000000 ) ) ;
#3 = DIRECTION ( 'NONE',  ( -0.000000000000000000, -1.000000000000000000, -0.000000000000000000 ) ) ;
#4 =( NAMED_UNIT ( * ) PLANE_ANGLE_UNIT ( ) SI_UNIT ( $, .RADIAN. ) );
#5 = CIRCLE ( 'NONE', #50, 0.09374999999999998612 ) ;
#6 = EDGE_CURVE ( 'NONE', #277, #227, #186, .T. ) ;
#7 = LENGTH_MEASURE_WITH_UNIT ( LENGTH_MEASURE( 0.02539999999999999897 ), #192 );
#8 = EDGE_LOOP ( 'NONE', ( #183, #283 ) ) ;
#9 = CYLINDRICAL_SURFACE ( 'NONE', #44, 0.09374999999999998612 ) ;
#10 =( NAMED_UNIT ( * ) PLANE_ANGLE_UNIT ( ) SI_UNIT ( $, .RADIAN. ) );
#11 = CARTESIAN_POINT ( 'NONE',  ( 0.000000000000000000, 0.7499999999999998890, 0.000000000000000000 ) ) ;
#12 = CARTESIAN_POINT ( 'NONE',  ( 0.000000000000000000, 0.7500000000000001110, 0.000000000000000000 ) ) ;
#13 = ORIENTED_EDGE ( 'NONE', *, *, #181, .F. ) ;
#14 = APPLICATION_CONTEXT ( 'automotive_design' ) ;
#15 = CARTESIAN_POINT ( 'NONE',  ( 0.000000000000000000, 0.7500000000000001110, 0.000000000000000000 ) ) ;
#16 = VECTOR ( 'NONE', #201, 39.37007874015748143 ) ;
#17 = PRODUCT_DEFINITION_CONTEXT ( 'detailed design', #260, 'design' ) ;
#18 = EDGE_LOOP ( 'NONE', ( #114, #258, #224, #228 ) ) ;
#19 = FACE_OUTER_BOUND ( 'NONE', #8, .T. ) ;
#20 = EDGE_CURVE ( 'NONE', #49, #288, #219, .T. ) ;
#21 = AXIS2_PLACEMENT_3D ( 'NONE', #166, #306, #274 ) ;
#22 = AXIS2_PLACEMENT_3D ( 'NONE', #127, #58, #264 ) ;
#23 = EDGE_CURVE ( 'NONE', #132, #49, #66, .T. ) ;
#24 =( CONVERSION_BASED_UNIT ( 'INCH', #259 ) LENGTH_UNIT ( ) NAMED_UNIT ( #266 ) );
#25 = CARTESIAN_POINT ( 'NONE',  ( 0.000000000000000000, 0.7500000000000001110, -0.09374999999999998612 ) ) ;
#26 = CARTESIAN_POINT ( 'NONE',  ( 0.000000000000000000, 0.000000000000000000, -0.09375000000000001388 ) ) ;
#27 = FACE_OUTER_BOUND ( 'NONE', #162, .T. ) ;
#28 =( GEOMETRIC_REPRESENTATION_CONTEXT ( 3 ) GLOBAL_UNCERTAINTY_ASSIGNED_CONTEXT ( ( #163 ) ) GLOBAL_UNIT_ASSIGNED_CONTEXT ( ( #98, #231, #211 ) ) REPRESENTATION_CONTEXT ( 'NONE', 'WORKASPACE' ) );
#29 = CYLINDRICAL_SURFACE ( 'NONE', #22, 0.09374999999999983347 ) ;
#30 = UNCERTAINTY_MEASURE_WITH_UNIT (LENGTH_MEASURE( 1.000000000000000082E-05 ), #236, 'distance_accuracy_value', 'NONE');
#31 = DIMENSIONAL_EXPONENTS ( 1.000000000000000000, 0.000000000000000000, 0.000000000000000000, 0.000000000000000000, 0.000000000000000000, 0.000000000000000000, 0.000000000000000000 ) ;
#32 =( NAMED_UNIT ( * ) SI_UNIT ( $, .STERADIAN. ) SOLID_ANGLE_UNIT ( ) );
#33 = UNCERTAINTY_MEASURE_WITH_UNIT (LENGTH_MEASURE( 1.000000000000000082E-05 ), #63, 'distance_accuracy_value', 'NONE');
#34 = COLOUR_RGB ( '',1.000000000000000000, 0.000000000000000000, 0.000000000000000000 ) ;
#35 = DIMENSIONAL_EXPONENTS ( 1.000000000000000000, 0.000000000000000000, 0.000000000000000000, 0.000000000000000000, 0.000000000000000000, 0.000000000000000000, 0.000000000000000000 ) ;
#36 =( CONVERSION_BASED_UNIT ( 'INCH', #7 ) LENGTH_UNIT ( ) NAMED_UNIT ( #35 ) );
#37 = PRODUCT_DEFINITION_SHAPE ( 'NONE', 'NONE',  #96 ) ;
#38 =( NAMED_UNIT ( * ) SI_UNIT ( $, .STERADIAN. ) SOLID_ANGLE_UNIT ( ) );
#39 = CLOSED_SHELL ( 'NONE', ( #229, #61, #182, #69 ) ) ;
#40 = FACE_OUTER_BOUND ( 'NONE', #53, .T. ) ;
#41 = DIRECTION ( 'NONE',  ( 0.000000000000000000, 1.000000000000000000, 0.000000000000000000 ) ) ;
#42 = EDGE_CURVE ( 'NONE', #75, #277, #5, .T. ) ;
#43 = DIRECTION ( 'NONE',  ( -0.000000000000000000, -1.000000000000000000, -0.000000000000000000 ) ) ;
#44 = AXIS2_PLACEMENT_3D ( 'NONE', #293, #150, #214 ) ;
#45 = STYLED_ITEM ( 'NONE', ( #140 ), #246 ) ;
#46 = CARTESIAN_POINT ( 'NONE',  ( -0.09374999999999998612, 0.7499999999999998890, 0.000000000000000000 ) ) ;
#47 = EDGE_LOOP ( 'NONE', ( #303, #207 ) ) ;
#48 = SURFACE_STYLE_FILL_AREA ( #256 ) ;
#49 = VERTEX_POINT ( 'NONE', #138 ) ;
#50 = AXIS2_PLACEMENT_3D ( 'NONE', #15, #235, #226 ) ;
#51 = PRESENTATION_LAYER_ASSIGNMENT (  '', '', ( #308 ) ) ;
#52 =( LENGTH_UNIT ( ) NAMED_UNIT ( * ) SI_UNIT ( $, .METRE. ) );
#53 = EDGE_LOOP ( 'NONE', ( #187, #116, #284, #55 ) ) ;
#54 = DIMENSIONAL_EXPONENTS ( 1.000000000000000000, 0.000000000000000000, 0.000000000000000000, 0.000000000000000000, 0.000000000000000000, 0.000000000000000000, 0.000000000000000000 ) ;
#55 = ORIENTED_EDGE ( 'NONE', *, *, #305, .F. ) ;
#56 = AXIS2_PLACEMENT_3D ( 'NONE', #85, #177, #62 ) ;
#57 =( LENGTH_UNIT ( ) NAMED_UNIT ( * ) SI_UNIT ( $, .METRE. ) );
#58 = DIRECTION ( 'NONE',  ( 1.749495427353361372E-16, 1.000000000000000000, -0.000000000000000000 ) ) ;
#59 = COLOUR_RGB ( '',0.7921568627450980005, 0.8196078431372548767, 0.9333333333333333481 ) ;
#60 = STYLED_ITEM ( 'NONE', ( #282 ), #296 ) ;
#61 = ADVANCED_FACE ( 'NONE', ( #19 ), #232, .F. ) ;
#62 = DIRECTION ( 'NONE',  ( 1.000000000000000000, 0.000000000000000000, 0.000000000000000000 ) ) ;
#63 =( CONVERSION_BASED_UNIT ( 'INCH', #144 ) LENGTH_UNIT ( ) NAMED_UNIT ( #278 ) );
#64 = CLOSED_SHELL ( 'NONE', ( #139, #115, #246, #292 ) ) ;
#65 =( NAMED_UNIT ( * ) PLANE_ANGLE_UNIT ( ) SI_UNIT ( $, .RADIAN. ) );
#66 = CIRCLE ( 'NONE', #82, 0.09374999999999998612 ) ;
#67 = EDGE_LOOP ( 'NONE', ( #119, #118 ) ) ;
#68 = ORIENTED_EDGE ( 'NONE', *, *, #42, .F. ) ;
#69 = ADVANCED_FACE ( 'NONE', ( #268 ), #89, .F. ) ;
#70 = ORIENTED_EDGE ( 'NONE', *, *, #20, .T. ) ;
#71 = UNCERTAINTY_MEASURE_WITH_UNIT (LENGTH_MEASURE( 1.000000000000000082E-05 ), #24, 'distance_accuracy_value', 'NONE');
#72 =( GEOMETRIC_REPRESENTATION_CONTEXT ( 3 ) GLOBAL_UNCERTAINTY_ASSIGNED_CONTEXT ( ( #71 ) ) GLOBAL_UNIT_ASSIGNED_CONTEXT ( ( #24, #130, #38 ) ) REPRESENTATION_CONTEXT ( 'NONE', 'WORKASPACE' ) );
#73 =( GEOMETRIC_REPRESENTATION_CONTEXT ( 3 ) GLOBAL_UNCERTAINTY_ASSIGNED_CONTEXT ( ( #146 ) ) GLOBAL_UNIT_ASSIGNED_CONTEXT ( ( #36, #10, #178 ) ) REPRESENTATION_CONTEXT ( 'NONE', 'WORKASPACE' ) );
#74 = EDGE_CURVE ( 'NONE', #227, #165, #104, .T. ) ;
#75 = VERTEX_POINT ( 'NONE', #242 ) ;
#76 = EDGE_CURVE ( 'NONE', #132, #212, #190, .T. ) ;
#77 = STYLED_ITEM ( 'NONE', ( #249 ), #139 ) ;
#78 = CARTESIAN_POINT ( 'NONE',  ( 3.061616997868383141E-16, 2.500000000000000000, 0.000000000000000000 ) ) ;
#79 =( NAMED_UNIT ( * ) PLANE_ANGLE_UNIT ( ) SI_UNIT ( $, .RADIAN. ) );
#80 = DIMENSIONAL_EXPONENTS ( 1.000000000000000000, 0.000000000000000000, 0.000000000000000000, 0.000000000000000000, 0.000000000000000000, 0.000000000000000000, 0.000000000000000000 ) ;
#81 = DIRECTION ( 'NONE',  ( -1.000000000000000000, 0.000000000000000000, 0.000000000000000000 ) ) ;
#82 = AXIS2_PLACEMENT_3D ( 'NONE', #11, #106, #299 ) ;
#83 = EDGE_CURVE ( 'NONE', #212, #288, #111, .T. ) ;
#84 = CARTESIAN_POINT ( 'NONE',  ( -0.09374999999999937550, 2.500000000000000000, 0.000000000000000000 ) ) ;
#85 = CARTESIAN_POINT ( 'NONE',  ( 0.000000000000000000, 0.000000000000000000, 0.000000000000000000 ) ) ;
#86 =( CONVERSION_BASED_UNIT ( 'INCH', #133 ) LENGTH_UNIT ( ) NAMED_UNIT ( #80 ) );
#87 = AXIS2_PLACEMENT_3D ( 'NONE', #176, #131, #276 ) ;
#88 =( GEOMETRIC_REPRESENTATION_CONTEXT ( 3 ) GLOBAL_UNCERTAINTY_ASSIGNED_CONTEXT ( ( #30 ) ) GLOBAL_UNIT_ASSIGNED_CONTEXT ( ( #236, #4, #32 ) ) REPRESENTATION_CONTEXT ( 'NONE', 'WORKASPACE' ) );
#89 = PLANE ( 'NONE',  #87 ) ;
#90 = CARTESIAN_POINT ( 'NONE',  ( 0.09375000000000013878, 2.500000000000000000, 1.148106374200641552E-17 ) ) ;
#91 = SURFACE_SIDE_STYLE ('',( #253 ) ) ;
#92 = FILL_AREA_STYLE_COLOUR ( '', #280 ) ;
#93 = COLOUR_RGB ( '',1.000000000000000000, 0.000000000000000000, 0.000000000000000000 ) ;
#94 = DIRECTION ( 'NONE',  ( 0.000000000000000000, 0.000000000000000000, -1.000000000000000000 ) ) ;
#95 = CARTESIAN_POINT ( 'NONE',  ( 0.000000000000000000, 0.000000000000000000, -0.09374999999999998612 ) ) ;
#96 = PRODUCT_DEFINITION ( 'UNKNOWN', '', #155, #17 ) ;
#97 = LENGTH_MEASURE_WITH_UNIT ( LENGTH_MEASURE( 0.02539999999999999897 ), #113 );
#98 =( CONVERSION_BASED_UNIT ( 'INCH', #307 ) LENGTH_UNIT ( ) NAMED_UNIT ( #31 ) );
#99 = AXIS2_PLACEMENT_3D ( 'NONE', #250, #43, #204 ) ;
#100 =( NAMED_UNIT ( * ) PLANE_ANGLE_UNIT ( ) SI_UNIT ( $, .RADIAN. ) );
#101 = SURFACE_STYLE_FILL_AREA ( #121 ) ;
#102 = ADVANCED_BREP_SHAPE_REPRESENTATION ( '81363', ( #199, #296, #56 ), #194 ) ;
#103 = DIRECTION ( 'NONE',  ( -0.000000000000000000, -1.000000000000000000, -0.000000000000000000 ) ) ;
#104 = CIRCLE ( 'NONE', #252, 0.09375000000000001388 ) ;
#105 =( GEOMETRIC_REPRESENTATION_CONTEXT ( 3 ) GLOBAL_UNCERTAINTY_ASSIGNED_CONTEXT ( ( #241 ) ) GLOBAL_UNIT_ASSIGNED_CONTEXT ( ( #86, #100, #206 ) ) REPRESENTATION_CONTEXT ( 'NONE', 'WORKASPACE' ) );
#106 = DIRECTION ( 'NONE',  ( 1.749495427353361372E-16, 1.000000000000000000, -0.000000000000000000 ) ) ;
#107 = ORIENTED_EDGE ( 'NONE', *, *, #128, .F. ) ;
#108 =( NAMED_UNIT ( * ) SI_UNIT ( $, .STERADIAN. ) SOLID_ANGLE_UNIT ( ) );
#109 = PRODUCT_RELATED_PRODUCT_CATEGORY ( 'part', '', ( #298 ) ) ;
#110 = SURFACE_STYLE_FILL_AREA ( #221 ) ;
#111 = CIRCLE ( 'NONE', #203, 0.09374999999999968081 ) ;
#112 = CIRCLE ( 'NONE', #172, 0.09374999999999968081 ) ;
#113 =( LENGTH_UNIT ( ) NAMED_UNIT ( * ) SI_UNIT ( $, .METRE. ) );
#114 = ORIENTED_EDGE ( 'NONE', *, *, #181, .T. ) ;
#115 = ADVANCED_FACE ( 'NONE', ( #290 ), #247, .T. ) ;
#116 = ORIENTED_EDGE ( 'NONE', *, *, #225, .T. ) ;
#117 = DIRECTION ( 'NONE',  ( -0.000000000000000000, -1.000000000000000000, -0.000000000000000000 ) ) ;
#118 = ORIENTED_EDGE ( 'NONE', *, *, #305, .T. ) ;
#119 = ORIENTED_EDGE ( 'NONE', *, *, #83, .T. ) ;
#120 = PRESENTATION_LAYER_ASSIGNMENT (  '', '', ( #77 ) ) ;
#121 = FILL_AREA_STYLE ('',( #125 ) ) ;
#122 = DIRECTION ( 'NONE',  ( 0.000000000000000000, -1.000000000000000000, -0.000000000000000000 ) ) ;
#123 = DIRECTION ( 'NONE',  ( 1.749495427353361372E-16, 1.000000000000000000, -0.000000000000000000 ) ) ;
#124 = AXIS2_PLACEMENT_3D ( 'NONE', #12, #41, #202 ) ;
#125 = FILL_AREA_STYLE_COLOUR ( '', #93 ) ;
#126 = EDGE_CURVE ( 'NONE', #165, #227, #233, .T. ) ;
#127 = CARTESIAN_POINT ( 'NONE',  ( 3.061616997868383141E-16, 2.500000000000000000, 0.000000000000000000 ) ) ;
#128 = EDGE_CURVE ( 'NONE', #75, #165, #281, .T. ) ;
#129 = SURFACE_STYLE_USAGE ( .BOTH. , #152 ) ;
#130 =( NAMED_UNIT ( * ) PLANE_ANGLE_UNIT ( ) SI_UNIT ( $, .RADIAN. ) );
#131 = DIRECTION ( 'NONE',  ( -1.749495427353361372E-16, -1.000000000000000000, 0.000000000000000000 ) ) ;
#132 = VERTEX_POINT ( 'NONE', #46 ) ;
#133 = LENGTH_MEASURE_WITH_UNIT ( LENGTH_MEASURE( 0.02539999999999999897 ), #220 );
#134 = FILL_AREA_STYLE_COLOUR ( '', #59 ) ;
#135 = FILL_AREA_STYLE ('',( #191 ) ) ;
#136 = FACE_OUTER_BOUND ( 'NONE', #18, .T. ) ;
#137 = ORIENTED_EDGE ( 'NONE', *, *, #126, .F. ) ;
#138 = CARTESIAN_POINT ( 'NONE',  ( 0.09374999999999998612, 0.7499999999999998890, 1.148106374200642322E-17 ) ) ;
#139 = ADVANCED_FACE ( 'NONE', ( #136 ), #9, .T. ) ;
#140 = PRESENTATION_STYLE_ASSIGNMENT (( #309 ) ) ;
#141 = STYLED_ITEM ( 'NONE', ( #239 ), #115 ) ;
#142 = SHAPE_DEFINITION_REPRESENTATION ( #37, #102 ) ;
#143 = LENGTH_MEASURE_WITH_UNIT ( LENGTH_MEASURE( 0.02539999999999999897 ), #57 );
#144 = LENGTH_MEASURE_WITH_UNIT ( LENGTH_MEASURE( 0.02539999999999999897 ), #179 );
#145 = PRESENTATION_LAYER_ASSIGNMENT (  '', '', ( #60 ) ) ;
#146 = UNCERTAINTY_MEASURE_WITH_UNIT (LENGTH_MEASURE( 1.000000000000000082E-05 ), #36, 'distance_accuracy_value', 'NONE');
#147 = DIRECTION ( 'NONE',  ( 0.000000000000000000, 0.000000000000000000, -1.000000000000000000 ) ) ;
#148 = AXIS2_PLACEMENT_3D ( 'NONE', #2, #103, #218 ) ;
#149 = MECHANICAL_DESIGN_GEOMETRIC_PRESENTATION_REPRESENTATION (  '', ( #60 ), #88 ) ;
#150 = DIRECTION ( 'NONE',  ( -0.000000000000000000, -1.000000000000000000, -0.000000000000000000 ) ) ;
#151 =( NAMED_UNIT ( * ) SI_UNIT ( $, .STERADIAN. ) SOLID_ANGLE_UNIT ( ) );
#152 = SURFACE_SIDE_STYLE ('',( #216 ) ) ;
#153 = PRODUCT_CONTEXT ( 'NONE', #14, 'mechanical' ) ;
#154 = DIMENSIONAL_EXPONENTS ( 1.000000000000000000, 0.000000000000000000, 0.000000000000000000, 0.000000000000000000, 0.000000000000000000, 0.000000000000000000, 0.000000000000000000 ) ;
#155 = PRODUCT_DEFINITION_FORMATION_WITH_SPECIFIED_SOURCE ( 'ANY', '', #298, .NOT_KNOWN. ) ;
#156 = SURFACE_STYLE_USAGE ( .BOTH. , #223 ) ;
#157 = DIRECTION ( 'NONE',  ( -1.000000000000000000, 0.000000000000000000, 0.000000000000000000 ) ) ;
#158 = CARTESIAN_POINT ( 'NONE',  ( 1.148106374200643401E-17, 0.000000000000000000, 0.09374999999999998612 ) ) ;
#159 = ORIENTED_EDGE ( 'NONE', *, *, #6, .T. ) ;
#160 = AXIS2_PLACEMENT_3D ( 'NONE', #161, #255, #157 ) ;
#161 = CARTESIAN_POINT ( 'NONE',  ( 3.061616997868383141E-16, 2.500000000000000000, 0.000000000000000000 ) ) ;
#162 = EDGE_LOOP ( 'NONE', ( #107, #197, #159, #137 ) ) ;
#163 = UNCERTAINTY_MEASURE_WITH_UNIT (LENGTH_MEASURE( 1.000000000000000082E-05 ), #98, 'distance_accuracy_value', 'NONE');
#164 = FILL_AREA_STYLE ('',( #92 ) ) ;
#165 = VERTEX_POINT ( 'NONE', #265 ) ;
#166 = CARTESIAN_POINT ( 'NONE',  ( 1.434719179842337383E-33, 0.7500000000000001110, 0.000000000000000000 ) ) ;
#167 = PLANE ( 'NONE',  #200 ) ;
#168 = UNCERTAINTY_MEASURE_WITH_UNIT (LENGTH_MEASURE( 1.000000000000000082E-05 ), #243, 'distance_accuracy_value', 'NONE');
#169 = MECHANICAL_DESIGN_GEOMETRIC_PRESENTATION_REPRESENTATION (  '', ( #45 ), #73 ) ;
#170 = CARTESIAN_POINT ( 'NONE',  ( 3.061616997868383141E-16, 2.500000000000000000, 0.000000000000000000 ) ) ;
#171 = MECHANICAL_DESIGN_GEOMETRIC_PRESENTATION_REPRESENTATION (  '', ( #222 ), #28 ) ;
#172 = AXIS2_PLACEMENT_3D ( 'NONE', #78, #273, #81 ) ;
#173 = DIRECTION ( 'NONE',  ( 1.749495427353361372E-16, 1.000000000000000000, -0.000000000000000000 ) ) ;
#174 = PRESENTATION_STYLE_ASSIGNMENT (( #129 ) ) ;
#175 = FILL_AREA_STYLE_COLOUR ( '', #34 ) ;
#176 = CARTESIAN_POINT ( 'NONE',  ( 0.09374999999999998612, 2.500000000000000000, 0.000000000000000000 ) ) ;
#177 = DIRECTION ( 'NONE',  ( 0.000000000000000000, 0.000000000000000000, 1.000000000000000000 ) ) ;
#178 =( NAMED_UNIT ( * ) SI_UNIT ( $, .STERADIAN. ) SOLID_ANGLE_UNIT ( ) );
#179 =( LENGTH_UNIT ( ) NAMED_UNIT ( * ) SI_UNIT ( $, .METRE. ) );
#180 = CARTESIAN_POINT ( 'NONE',  ( 0.000000000000000000, 0.7499999999999998890, 0.000000000000000000 ) ) ;
#181 = EDGE_CURVE ( 'NONE', #277, #75, #285, .T. ) ;
#182 = ADVANCED_FACE ( 'NONE', ( #40 ), #248, .T. ) ;
#183 = ORIENTED_EDGE ( 'NONE', *, *, #23, .F. ) ;
#184 = SURFACE_STYLE_USAGE ( .BOTH. , #91 ) ;
#185 = VECTOR ( 'NONE', #272, 39.37007874015748143 ) ;
#186 = LINE ( 'NONE', #95, #185 ) ;
#187 = ORIENTED_EDGE ( 'NONE', *, *, #20, .F. ) ;
#188 =( GEOMETRIC_REPRESENTATION_CONTEXT ( 3 ) GLOBAL_UNCERTAINTY_ASSIGNED_CONTEXT ( ( #33 ) ) GLOBAL_UNIT_ASSIGNED_CONTEXT ( ( #63, #65, #108 ) ) REPRESENTATION_CONTEXT ( 'NONE', 'WORKASPACE' ) );
#189 = CARTESIAN_POINT ( 'NONE',  ( 0.09374999999999998612, 2.500000000000000000, 1.148106374200642322E-17 ) ) ;
#190 = LINE ( 'NONE', #289, #238 ) ;
#191 = FILL_AREA_STYLE_COLOUR ( '', #271 ) ;
#192 =( LENGTH_UNIT ( ) NAMED_UNIT ( * ) SI_UNIT ( $, .METRE. ) );
#193 = CARTESIAN_POINT ( 'NONE',  ( 0.000000000000000000, 0.000000000000000000, 0.000000000000000000 ) ) ;
#194 =( GEOMETRIC_REPRESENTATION_CONTEXT ( 3 ) GLOBAL_UNCERTAINTY_ASSIGNED_CONTEXT ( ( #168 ) ) GLOBAL_UNIT_ASSIGNED_CONTEXT ( ( #243, #79, #151 ) ) REPRESENTATION_CONTEXT ( 'NONE', 'WORKASPACE' ) );
#195 = ORIENTED_EDGE ( 'NONE', *, *, #83, .F. ) ;
#196 = CARTESIAN_POINT ( 'NONE',  ( 0.000000000000000000, 0.000000000000000000, 0.000000000000000000 ) ) ;
#197 = ORIENTED_EDGE ( 'NONE', *, *, #42, .T. ) ;
#198 = SURFACE_SIDE_STYLE ('',( #48 ) ) ;
#199 = MANIFOLD_SOLID_BREP ( 'Revolve - Cutting Edge', #64 ) ;
#200 = AXIS2_PLACEMENT_3D ( 'NONE', #193, #122, #94 ) ;
#201 = DIRECTION ( 'NONE',  ( 1.749495427353361372E-16, 1.000000000000000000, -0.000000000000000000 ) ) ;
#202 = DIRECTION ( 'NONE',  ( 0.000000000000000000, -0.000000000000000000, 1.000000000000000000 ) ) ;
#203 = AXIS2_PLACEMENT_3D ( 'NONE', #170, #123, #269 ) ;
#204 = DIRECTION ( 'NONE',  ( 0.000000000000000000, 0.000000000000000000, -1.000000000000000000 ) ) ;
#205 = DIRECTION ( 'NONE',  ( -1.000000000000000000, 0.000000000000000000, 0.000000000000000000 ) ) ;
#206 =( NAMED_UNIT ( * ) SI_UNIT ( $, .STERADIAN. ) SOLID_ANGLE_UNIT ( ) );
#207 = ORIENTED_EDGE ( 'NONE', *, *, #126, .T. ) ;
#208 = PRESENTATION_LAYER_ASSIGNMENT (  '', '', ( #141 ) ) ;
#209 = CYLINDRICAL_SURFACE ( 'NONE', #244, 0.09374999999999998612 ) ;
#210 =( LENGTH_UNIT ( ) NAMED_UNIT ( * ) SI_UNIT ( $, .METRE. ) );
#211 =( NAMED_UNIT ( * ) SI_UNIT ( $, .STERADIAN. ) SOLID_ANGLE_UNIT ( ) );
#212 = VERTEX_POINT ( 'NONE', #84 ) ;
#213 = DIRECTION ( 'NONE',  ( -0.000000000000000000, -1.000000000000000000, -0.000000000000000000 ) ) ;
#214 = DIRECTION ( 'NONE',  ( 0.000000000000000000, 0.000000000000000000, -1.000000000000000000 ) ) ;
#215 = ORIENTED_EDGE ( 'NONE', *, *, #76, .F. ) ;
#216 = SURFACE_STYLE_FILL_AREA ( #245 ) ;
#217 = COLOUR_RGB ( '',1.000000000000000000, 0.000000000000000000, 0.000000000000000000 ) ;
#218 = DIRECTION ( 'NONE',  ( 0.000000000000000000, 0.000000000000000000, -1.000000000000000000 ) ) ;
#219 = LINE ( 'NONE', #90, #16 ) ;
#220 =( LENGTH_UNIT ( ) NAMED_UNIT ( * ) SI_UNIT ( $, .METRE. ) );
#221 = FILL_AREA_STYLE ('',( #134 ) ) ;
#222 = STYLED_ITEM ( 'NONE', ( #234 ), #199 ) ;
#223 = SURFACE_SIDE_STYLE ('',( #263 ) ) ;
#224 = ORIENTED_EDGE ( 'NONE', *, *, #74, .F. ) ;
#225 = EDGE_CURVE ( 'NONE', #49, #132, #270, .T. ) ;
#226 = DIRECTION ( 'NONE',  ( 0.000000000000000000, 0.000000000000000000, -1.000000000000000000 ) ) ;
#227 = VERTEX_POINT ( 'NONE', #26 ) ;
#228 = ORIENTED_EDGE ( 'NONE', *, *, #6, .F. ) ;
#229 = ADVANCED_FACE ( 'NONE', ( #230 ), #29, .T. ) ;
#230 = FACE_OUTER_BOUND ( 'NONE', #251, .T. ) ;
#231 =( NAMED_UNIT ( * ) PLANE_ANGLE_UNIT ( ) SI_UNIT ( $, .RADIAN. ) );
#232 = PLANE ( 'NONE',  #21 ) ;
#233 = CIRCLE ( 'NONE', #99, 0.09375000000000001388 ) ;
#234 = PRESENTATION_STYLE_ASSIGNMENT (( #301 ) ) ;
#235 = DIRECTION ( 'NONE',  ( -0.000000000000000000, -1.000000000000000000, -0.000000000000000000 ) ) ;
#236 =( CONVERSION_BASED_UNIT ( 'INCH', #97 ) LENGTH_UNIT ( ) NAMED_UNIT ( #54 ) );
#237 = CARTESIAN_POINT ( 'NONE',  ( 0.000000000000000000, 0.000000000000000000, 0.000000000000000000 ) ) ;
#238 = VECTOR ( 'NONE', #240, 39.37007874015748143 ) ;
#239 = PRESENTATION_STYLE_ASSIGNMENT (( #1 ) ) ;
#240 = DIRECTION ( 'NONE',  ( 1.749495427353361372E-16, 1.000000000000000000, -0.000000000000000000 ) ) ;
#241 = UNCERTAINTY_MEASURE_WITH_UNIT (LENGTH_MEASURE( 1.000000000000000082E-05 ), #86, 'distance_accuracy_value', 'NONE');
#242 = CARTESIAN_POINT ( 'NONE',  ( 1.148106374200643401E-17, 0.7500000000000001110, 0.09374999999999998612 ) ) ;
#243 =( CONVERSION_BASED_UNIT ( 'INCH', #143 ) LENGTH_UNIT ( ) NAMED_UNIT ( #154 ) );
#244 = AXIS2_PLACEMENT_3D ( 'NONE', #237, #3, #286 ) ;
#245 = FILL_AREA_STYLE ('',( #297 ) ) ;
#246 = ADVANCED_FACE ( 'NONE', ( #27 ), #209, .T. ) ;
#247 = PLANE ( 'NONE',  #124 ) ;
#248 = CYLINDRICAL_SURFACE ( 'NONE', #160, 0.09374999999999983347 ) ;
#249 = PRESENTATION_STYLE_ASSIGNMENT (( #156 ) ) ;
#250 = CARTESIAN_POINT ( 'NONE',  ( 0.000000000000000000, 0.000000000000000000, 0.000000000000000000 ) ) ;
#251 = EDGE_LOOP ( 'NONE', ( #257, #70, #195, #215 ) ) ;
#252 = AXIS2_PLACEMENT_3D ( 'NONE', #196, #213, #147 ) ;
#253 = SURFACE_STYLE_FILL_AREA ( #135 ) ;
#254 = EDGE_LOOP ( 'NONE', ( #13, #68 ) ) ;
#255 = DIRECTION ( 'NONE',  ( 1.749495427353361372E-16, 1.000000000000000000, -0.000000000000000000 ) ) ;
#256 = FILL_AREA_STYLE ('',( #175 ) ) ;
#257 = ORIENTED_EDGE ( 'NONE', *, *, #23, .T. ) ;
#258 = ORIENTED_EDGE ( 'NONE', *, *, #128, .T. ) ;
#259 = LENGTH_MEASURE_WITH_UNIT ( LENGTH_MEASURE( 0.02539999999999999897 ), #210 );
#260 = APPLICATION_CONTEXT ( 'automotive_design' ) ;
#261 = MECHANICAL_DESIGN_GEOMETRIC_PRESENTATION_REPRESENTATION (  '', ( #141 ), #72 ) ;
#262 = PRESENTATION_LAYER_ASSIGNMENT (  '', '', ( #45 ) ) ;
#263 = SURFACE_STYLE_FILL_AREA ( #164 ) ;
#264 = DIRECTION ( 'NONE',  ( -1.000000000000000000, 0.000000000000000000, 0.000000000000000000 ) ) ;
#265 = CARTESIAN_POINT ( 'NONE',  ( 1.148106374200643555E-17, 0.000000000000000000, 0.09375000000000001388 ) ) ;
#266 = DIMENSIONAL_EXPONENTS ( 1.000000000000000000, 0.000000000000000000, 0.000000000000000000, 0.000000000000000000, 0.000000000000000000, 0.000000000000000000, 0.000000000000000000 ) ;
#267 = SURFACE_SIDE_STYLE ('',( #101 ) ) ;
#268 = FACE_OUTER_BOUND ( 'NONE', #67, .T. ) ;
#269 = DIRECTION ( 'NONE',  ( -1.000000000000000000, 0.000000000000000000, 0.000000000000000000 ) ) ;
#270 = CIRCLE ( 'NONE', #295, 0.09374999999999998612 ) ;
#271 = COLOUR_RGB ( '',0.7921568627450980005, 0.8196078431372548767, 0.9333333333333333481 ) ;
#272 = DIRECTION ( 'NONE',  ( -0.000000000000000000, -1.000000000000000000, -0.000000000000000000 ) ) ;
#273 = DIRECTION ( 'NONE',  ( 1.749495427353361372E-16, 1.000000000000000000, -0.000000000000000000 ) ) ;
#274 = DIRECTION ( 'NONE',  ( -1.000000000000000000, 1.749495427353361372E-16, 0.000000000000000000 ) ) ;
#275 = PRESENTATION_LAYER_ASSIGNMENT (  '', '', ( #222 ) ) ;
#276 = DIRECTION ( 'NONE',  ( 1.000000000000000000, -1.749495427353361372E-16, 0.000000000000000000 ) ) ;
#277 = VERTEX_POINT ( 'NONE', #25 ) ;
#278 = DIMENSIONAL_EXPONENTS ( 1.000000000000000000, 0.000000000000000000, 0.000000000000000000, 0.000000000000000000, 0.000000000000000000, 0.000000000000000000, 0.000000000000000000 ) ;
#279 = APPLICATION_PROTOCOL_DEFINITION ( 'draft international standard', 'automotive_design', 1998, #14 ) ;
#280 = COLOUR_RGB ( '',1.000000000000000000, 0.000000000000000000, 0.000000000000000000 ) ;
#281 = LINE ( 'NONE', #158, #304 ) ;
#282 = PRESENTATION_STYLE_ASSIGNMENT (( #184 ) ) ;
#283 = ORIENTED_EDGE ( 'NONE', *, *, #225, .F. ) ;
#284 = ORIENTED_EDGE ( 'NONE', *, *, #76, .T. ) ;
#285 = CIRCLE ( 'NONE', #148, 0.09374999999999998612 ) ;
#286 = DIRECTION ( 'NONE',  ( 0.000000000000000000, 0.000000000000000000, -1.000000000000000000 ) ) ;
#287 = MECHANICAL_DESIGN_GEOMETRIC_PRESENTATION_REPRESENTATION (  '', ( #308 ), #105 ) ;
#288 = VERTEX_POINT ( 'NONE', #189 ) ;
#289 = CARTESIAN_POINT ( 'NONE',  ( -0.09374999999999952816, 2.500000000000000000, 0.000000000000000000 ) ) ;
#290 = FACE_OUTER_BOUND ( 'NONE', #254, .T. ) ;
#291 = SURFACE_SIDE_STYLE ('',( #110 ) ) ;
#292 = ADVANCED_FACE ( 'NONE', ( #294 ), #167, .T. ) ;
#293 = CARTESIAN_POINT ( 'NONE',  ( 0.000000000000000000, 0.000000000000000000, 0.000000000000000000 ) ) ;
#294 = FACE_OUTER_BOUND ( 'NONE', #47, .T. ) ;
#295 = AXIS2_PLACEMENT_3D ( 'NONE', #180, #173, #205 ) ;
#296 = MANIFOLD_SOLID_BREP ( 'Revolve - Tool Body (Straight Shanked)', #39 ) ;
#297 = FILL_AREA_STYLE_COLOUR ( '', #217 ) ;
#298 = PRODUCT ( '81363', '81363', '', ( #153 ) ) ;
#299 = DIRECTION ( 'NONE',  ( -1.000000000000000000, 0.000000000000000000, 0.000000000000000000 ) ) ;
#300 = MECHANICAL_DESIGN_GEOMETRIC_PRESENTATION_REPRESENTATION (  '', ( #77 ), #188 ) ;
#301 = SURFACE_STYLE_USAGE ( .BOTH. , #291 ) ;
#302 = APPLICATION_PROTOCOL_DEFINITION ( 'draft international standard', 'automotive_design', 1998, #260 ) ;
#303 = ORIENTED_EDGE ( 'NONE', *, *, #74, .T. ) ;
#304 = VECTOR ( 'NONE', #117, 39.37007874015748143 ) ;
#305 = EDGE_CURVE ( 'NONE', #288, #212, #112, .T. ) ;
#306 = DIRECTION ( 'NONE',  ( 1.749495427353361372E-16, 1.000000000000000000, -0.000000000000000000 ) ) ;
#307 = LENGTH_MEASURE_WITH_UNIT ( LENGTH_MEASURE( 0.02539999999999999897 ), #52 );
#308 = STYLED_ITEM ( 'NONE', ( #174 ), #292 ) ;
#309 = SURFACE_STYLE_USAGE ( .BOTH. , #267 ) ;
ENDSEC;
END-ISO-10303-21;
