ISO-10303-21;
HEADER;
FILE_DESCRIPTION (( 'STEP AP214' ),
    '1' );
FILE_NAME ('00512.STEP',
    '2023-06-22T14:10:10',
    ( '' ),
    ( '' ),
    'SwSTEP 2.0',
    'SolidWorks 2023',
    '' );
FILE_SCHEMA (( 'AUTOMOTIVE_DESIGN' ));
ENDSEC;

DATA;
#1 = DIRECTION ( 'NONE',  ( -4.898587196589412459E-17, 1.000000000000000000, -0.000000000000000000 ) ) ;
#2 = DIRECTION ( 'NONE',  ( 0.000000000000000000, 0.000000000000000000, -1.000000000000000000 ) ) ;
#3 =( GEOMETRIC_REPRESENTATION_CONTEXT ( 3 ) GLOBAL_UNCERTAINTY_ASSIGNED_CONTEXT ( ( #209 ) ) GLOBAL_UNIT_ASSIGNED_CONTEXT ( ( #11, #201, #86 ) ) REPRESENTATION_CONTEXT ( 'NONE', 'WORKASPACE' ) );
#4 = DIRECTION ( 'NONE',  ( -4.898587196589412459E-17, 1.000000000000000000, 0.000000000000000000 ) ) ;
#5 = ADVANCED_FACE ( 'NONE', ( #64 ), #189, .T. ) ;
#6 = ORIENTED_EDGE ( 'NONE', *, *, #171, .T. ) ;
#7 = DIRECTION ( 'NONE',  ( -4.898587196589413075E-17, 1.000000000000000000, -0.000000000000000000 ) ) ;
#8 = STYLED_ITEM ( 'NONE', ( #29 ), #123 ) ;
#9 = SURFACE_STYLE_FILL_AREA ( #124 ) ;
#10 = CARTESIAN_POINT ( 'NONE',  ( 3.061616997868383018E-17, 0.000000000000000000, 0.2500000000000000000 ) ) ;
#11 =( CONVERSION_BASED_UNIT ( 'INCH', #300 ) LENGTH_UNIT ( ) NAMED_UNIT ( #139 ) );
#12 =( NAMED_UNIT ( * ) SI_UNIT ( $, .STERADIAN. ) SOLID_ANGLE_UNIT ( ) );
#13 = DIRECTION ( 'NONE',  ( 1.000000000000000000, 4.898587196589412459E-17, 0.000000000000000000 ) ) ;
#14 = PRESENTATION_LAYER_ASSIGNMENT (  '', '', ( #8 ) ) ;
#15 = ORIENTED_EDGE ( 'NONE', *, *, #159, .T. ) ;
#16 = AXIS2_PLACEMENT_3D ( 'NONE', #116, #166, #50 ) ;
#17 = CARTESIAN_POINT ( 'NONE',  ( 0.000000000000000000, 2.500000000000000000, 0.000000000000000000 ) ) ;
#18 = EDGE_CURVE ( 'NONE', #175, #299, #54, .T. ) ;
#19 =( NAMED_UNIT ( * ) SI_UNIT ( $, .STERADIAN. ) SOLID_ANGLE_UNIT ( ) );
#20 = CIRCLE ( 'NONE', #204, 0.2500000000000000000 ) ;
#21 = PRODUCT_DEFINITION_CONTEXT ( 'detailed design', #303, 'design' ) ;
#22 = DIMENSIONAL_EXPONENTS ( 1.000000000000000000, 0.000000000000000000, 0.000000000000000000, 0.000000000000000000, 0.000000000000000000, 0.000000000000000000, 0.000000000000000000 ) ;
#23 =( CONVERSION_BASED_UNIT ( 'INCH', #94 ) LENGTH_UNIT ( ) NAMED_UNIT ( #89 ) );
#24 = AXIS2_PLACEMENT_3D ( 'NONE', #172, #51, #140 ) ;
#25 =( NAMED_UNIT ( * ) PLANE_ANGLE_UNIT ( ) SI_UNIT ( $, .RADIAN. ) );
#26 = PRESENTATION_LAYER_ASSIGNMENT (  '', '', ( #195 ) ) ;
#27 =( CONVERSION_BASED_UNIT ( 'INCH', #120 ) LENGTH_UNIT ( ) NAMED_UNIT ( #184 ) );
#28 = CYLINDRICAL_SURFACE ( 'NONE', #16, 0.2500000000000000555 ) ;
#29 = PRESENTATION_STYLE_ASSIGNMENT (( #213 ) ) ;
#30 =( LENGTH_UNIT ( ) NAMED_UNIT ( * ) SI_UNIT ( $, .METRE. ) );
#31 = CARTESIAN_POINT ( 'NONE',  ( 0.000000000000000000, 0.000000000000000000, -0.2500000000000000000 ) ) ;
#32 = AXIS2_PLACEMENT_3D ( 'NONE', #280, #70, #163 ) ;
#33 = EDGE_CURVE ( 'NONE', #175, #145, #239, .T. ) ;
#34 = CARTESIAN_POINT ( 'NONE',  ( -1.224646799147353207E-16, 5.000000000000000000, 0.000000000000000000 ) ) ;
#35 = FILL_AREA_STYLE_COLOUR ( '', #92 ) ;
#36 = LINE ( 'NONE', #10, #158 ) ;
#37 = CIRCLE ( 'NONE', #127, 0.2500000000000000000 ) ;
#38 = ORIENTED_EDGE ( 'NONE', *, *, #71, .F. ) ;
#39 = CYLINDRICAL_SURFACE ( 'NONE', #255, 0.2500000000000000000 ) ;
#40 = PRESENTATION_STYLE_ASSIGNMENT (( #224 ) ) ;
#41 = EDGE_LOOP ( 'NONE', ( #99, #220, #15, #243 ) ) ;
#42 = ORIENTED_EDGE ( 'NONE', *, *, #171, .F. ) ;
#43 = LENGTH_MEASURE_WITH_UNIT ( LENGTH_MEASURE( 0.02539999999999999897 ), #205 );
#44 = AXIS2_PLACEMENT_3D ( 'NONE', #34, #7, #85 ) ;
#45 = EDGE_CURVE ( 'NONE', #299, #175, #67, .T. ) ;
#46 = CIRCLE ( 'NONE', #190, 0.2500000000000001110 ) ;
#47 = APPLICATION_PROTOCOL_DEFINITION ( 'draft international standard', 'automotive_design', 1998, #272 ) ;
#48 = DIRECTION ( 'NONE',  ( -0.000000000000000000, -1.000000000000000000, -0.000000000000000000 ) ) ;
#49 = CARTESIAN_POINT ( 'NONE',  ( 0.000000000000000000, 2.500000000000000000, 0.000000000000000000 ) ) ;
#50 = DIRECTION ( 'NONE',  ( -1.000000000000000000, 0.000000000000000000, 0.000000000000000000 ) ) ;
#51 = DIRECTION ( 'NONE',  ( -4.898587196589413075E-17, 1.000000000000000000, -0.000000000000000000 ) ) ;
#52 = PLANE ( 'NONE',  #228 ) ;
#53 = DIRECTION ( 'NONE',  ( -0.000000000000000000, -1.000000000000000000, -0.000000000000000000 ) ) ;
#54 = CIRCLE ( 'NONE', #24, 0.2500000000000000000 ) ;
#55 = EDGE_LOOP ( 'NONE', ( #42, #121, #128, #182 ) ) ;
#56 = LINE ( 'NONE', #196, #245 ) ;
#57 = APPLICATION_PROTOCOL_DEFINITION ( 'draft international standard', 'automotive_design', 1998, #303 ) ;
#58 = EDGE_LOOP ( 'NONE', ( #174, #227 ) ) ;
#59 = CYLINDRICAL_SURFACE ( 'NONE', #109, 0.2500000000000000555 ) ;
#60 = PRESENTATION_STYLE_ASSIGNMENT (( #231 ) ) ;
#61 = EDGE_LOOP ( 'NONE', ( #81, #297, #38, #84 ) ) ;
#62 = FILL_AREA_STYLE_COLOUR ( '', #106 ) ;
#63 = CIRCLE ( 'NONE', #44, 0.2500000000000001110 ) ;
#64 = FACE_OUTER_BOUND ( 'NONE', #41, .T. ) ;
#65 = SURFACE_STYLE_USAGE ( .BOTH. , #270 ) ;
#66 = EDGE_LOOP ( 'NONE', ( #153, #267 ) ) ;
#67 = CIRCLE ( 'NONE', #269, 0.2500000000000000000 ) ;
#68 = PRESENTATION_LAYER_ASSIGNMENT (  '', '', ( #290 ) ) ;
#69 =( NAMED_UNIT ( * ) PLANE_ANGLE_UNIT ( ) SI_UNIT ( $, .RADIAN. ) );
#70 = DIRECTION ( 'NONE',  ( 0.000000000000000000, -1.000000000000000000, -0.000000000000000000 ) ) ;
#71 = EDGE_CURVE ( 'NONE', #107, #295, #211, .T. ) ;
#72 = FACE_OUTER_BOUND ( 'NONE', #134, .T. ) ;
#73 = DIRECTION ( 'NONE',  ( 0.000000000000000000, 0.000000000000000000, -1.000000000000000000 ) ) ;
#74 = CARTESIAN_POINT ( 'NONE',  ( 0.2500000000000000555, 2.500000000000000000, 3.061616997868384251E-17 ) ) ;
#75 = MECHANICAL_DESIGN_GEOMETRIC_PRESENTATION_REPRESENTATION (  '', ( #167 ), #212 ) ;
#76 = PRESENTATION_STYLE_ASSIGNMENT (( #258 ) ) ;
#77 = ORIENTED_EDGE ( 'NONE', *, *, #146, .T. ) ;
#78 = DIRECTION ( 'NONE',  ( -1.000000000000000000, 0.000000000000000000, 0.000000000000000000 ) ) ;
#79 = FILL_AREA_STYLE ('',( #248 ) ) ;
#80 = FACE_OUTER_BOUND ( 'NONE', #61, .T. ) ;
#81 = ORIENTED_EDGE ( 'NONE', *, *, #265, .T. ) ;
#82 = DIRECTION ( 'NONE',  ( -1.000000000000000000, 0.000000000000000000, 0.000000000000000000 ) ) ;
#83 = STYLED_ITEM ( 'NONE', ( #60 ), #281 ) ;
#84 = ORIENTED_EDGE ( 'NONE', *, *, #159, .F. ) ;
#85 = DIRECTION ( 'NONE',  ( -1.000000000000000000, 0.000000000000000000, 0.000000000000000000 ) ) ;
#86 =( NAMED_UNIT ( * ) SI_UNIT ( $, .STERADIAN. ) SOLID_ANGLE_UNIT ( ) );
#87 = VERTEX_POINT ( 'NONE', #278 ) ;
#88 = LINE ( 'NONE', #217, #221 ) ;
#89 = DIMENSIONAL_EXPONENTS ( 1.000000000000000000, 0.000000000000000000, 0.000000000000000000, 0.000000000000000000, 0.000000000000000000, 0.000000000000000000, 0.000000000000000000 ) ;
#90 = MECHANICAL_DESIGN_GEOMETRIC_PRESENTATION_REPRESENTATION (  '', ( #290 ), #308 ) ;
#91 = DIMENSIONAL_EXPONENTS ( 1.000000000000000000, 0.000000000000000000, 0.000000000000000000, 0.000000000000000000, 0.000000000000000000, 0.000000000000000000, 0.000000000000000000 ) ;
#92 = COLOUR_RGB ( '',1.000000000000000000, 0.000000000000000000, 0.000000000000000000 ) ;
#93 = COLOUR_RGB ( '',1.000000000000000000, 0.000000000000000000, 0.000000000000000000 ) ;
#94 = LENGTH_MEASURE_WITH_UNIT ( LENGTH_MEASURE( 0.02539999999999999897 ), #144 );
#95 = CARTESIAN_POINT ( 'NONE',  ( 0.000000000000000000, 0.000000000000000000, 0.000000000000000000 ) ) ;
#96 = FACE_OUTER_BOUND ( 'NONE', #66, .T. ) ;
#97 = MECHANICAL_DESIGN_GEOMETRIC_PRESENTATION_REPRESENTATION (  '', ( #83 ), #3 ) ;
#98 = UNCERTAINTY_MEASURE_WITH_UNIT (LENGTH_MEASURE( 1.000000000000000082E-05 ), #23, 'distance_accuracy_value', 'NONE');
#99 = ORIENTED_EDGE ( 'NONE', *, *, #164, .F. ) ;
#100 = DIRECTION ( 'NONE',  ( -4.898587196589413075E-17, 1.000000000000000000, -0.000000000000000000 ) ) ;
#101 = SURFACE_STYLE_USAGE ( .BOTH. , #176 ) ;
#102 = CARTESIAN_POINT ( 'NONE',  ( -0.2500000000000002776, 5.000000000000000000, 0.000000000000000000 ) ) ;
#103 = ORIENTED_EDGE ( 'NONE', *, *, #276, .F. ) ;
#104 = DIRECTION ( 'NONE',  ( -4.898587196589413075E-17, 1.000000000000000000, -0.000000000000000000 ) ) ;
#105 = SURFACE_STYLE_FILL_AREA ( #79 ) ;
#106 = COLOUR_RGB ( '',1.000000000000000000, 0.000000000000000000, 0.000000000000000000 ) ;
#107 = VERTEX_POINT ( 'NONE', #31 ) ;
#108 = CARTESIAN_POINT ( 'NONE',  ( 0.000000000000000000, 0.000000000000000000, 0.000000000000000000 ) ) ;
#109 = AXIS2_PLACEMENT_3D ( 'NONE', #125, #104, #82 ) ;
#110 = CARTESIAN_POINT ( 'NONE',  ( 0.000000000000000000, 0.000000000000000000, 0.000000000000000000 ) ) ;
#111 = DIMENSIONAL_EXPONENTS ( 1.000000000000000000, 0.000000000000000000, 0.000000000000000000, 0.000000000000000000, 0.000000000000000000, 0.000000000000000000, 0.000000000000000000 ) ;
#112 = CARTESIAN_POINT ( 'NONE',  ( 0.000000000000000000, 0.000000000000000000, 0.000000000000000000 ) ) ;
#113 = PRODUCT_RELATED_PRODUCT_CATEGORY ( 'part', '', ( #132 ) ) ;
#114 = CLOSED_SHELL ( 'NONE', ( #250, #123, #5, #291 ) ) ;
#115 =( NAMED_UNIT ( * ) SI_UNIT ( $, .STERADIAN. ) SOLID_ANGLE_UNIT ( ) );
#116 = CARTESIAN_POINT ( 'NONE',  ( -1.224646799147353207E-16, 5.000000000000000000, 0.000000000000000000 ) ) ;
#117 = FILL_AREA_STYLE_COLOUR ( '', #306 ) ;
#118 = DIRECTION ( 'NONE',  ( -1.000000000000000000, 0.000000000000000000, 0.000000000000000000 ) ) ;
#119 = CARTESIAN_POINT ( 'NONE',  ( 2.999519565323715729E-34, 2.500000000000000000, 0.000000000000000000 ) ) ;
#120 = LENGTH_MEASURE_WITH_UNIT ( LENGTH_MEASURE( 0.02539999999999999897 ), #254 );
#121 = ORIENTED_EDGE ( 'NONE', *, *, #45, .T. ) ;
#122 = DIRECTION ( 'NONE',  ( -4.898587196589412459E-17, 1.000000000000000000, -0.000000000000000000 ) ) ;
#123 = ADVANCED_FACE ( 'NONE', ( #72 ), #52, .T. ) ;
#124 = FILL_AREA_STYLE ('',( #35 ) ) ;
#125 = CARTESIAN_POINT ( 'NONE',  ( -1.224646799147353207E-16, 5.000000000000000000, 0.000000000000000000 ) ) ;
#126 = CLOSED_SHELL ( 'NONE', ( #234, #257, #302, #229 ) ) ;
#127 = AXIS2_PLACEMENT_3D ( 'NONE', #49, #53, #73 ) ;
#128 = ORIENTED_EDGE ( 'NONE', *, *, #33, .T. ) ;
#129 = DIRECTION ( 'NONE',  ( -0.000000000000000000, -1.000000000000000000, -0.000000000000000000 ) ) ;
#130 =( NAMED_UNIT ( * ) PLANE_ANGLE_UNIT ( ) SI_UNIT ( $, .RADIAN. ) );
#131 = EDGE_LOOP ( 'NONE', ( #225, #77 ) ) ;
#132 = PRODUCT ( '00512', '00512', '', ( #218 ) ) ;
#133 = PLANE ( 'NONE',  #283 ) ;
#134 = EDGE_LOOP ( 'NONE', ( #264, #103 ) ) ;
#135 = ADVANCED_BREP_SHAPE_REPRESENTATION ( '00512', ( #277, #281, #208 ), #253 ) ;
#136 = CIRCLE ( 'NONE', #307, 0.2500000000000000000 ) ;
#137 = AXIS2_PLACEMENT_3D ( 'NONE', #119, #4, #187 ) ;
#138 = AXIS2_PLACEMENT_3D ( 'NONE', #95, #261, #186 ) ;
#139 = DIMENSIONAL_EXPONENTS ( 1.000000000000000000, 0.000000000000000000, 0.000000000000000000, 0.000000000000000000, 0.000000000000000000, 0.000000000000000000, 0.000000000000000000 ) ;
#140 = DIRECTION ( 'NONE',  ( -1.000000000000000000, 0.000000000000000000, 0.000000000000000000 ) ) ;
#141 = SURFACE_STYLE_FILL_AREA ( #260 ) ;
#142 = DIRECTION ( 'NONE',  ( 0.000000000000000000, 0.000000000000000000, 1.000000000000000000 ) ) ;
#143 = VECTOR ( 'NONE', #1, 39.37007874015748143 ) ;
#144 =( LENGTH_UNIT ( ) NAMED_UNIT ( * ) SI_UNIT ( $, .METRE. ) );
#145 = VERTEX_POINT ( 'NONE', #102 ) ;
#146 = EDGE_CURVE ( 'NONE', #295, #107, #136, .T. ) ;
#147 = DIRECTION ( 'NONE',  ( -0.000000000000000000, -1.000000000000000000, -0.000000000000000000 ) ) ;
#148 = UNCERTAINTY_MEASURE_WITH_UNIT (LENGTH_MEASURE( 1.000000000000000082E-05 ), #160, 'distance_accuracy_value', 'NONE');
#149 = ORIENTED_EDGE ( 'NONE', *, *, #33, .F. ) ;
#150 =( LENGTH_UNIT ( ) NAMED_UNIT ( * ) SI_UNIT ( $, .METRE. ) );
#151 = MECHANICAL_DESIGN_GEOMETRIC_PRESENTATION_REPRESENTATION (  '', ( #305 ), #157 ) ;
#152 = PRESENTATION_STYLE_ASSIGNMENT (( #65 ) ) ;
#153 = ORIENTED_EDGE ( 'NONE', *, *, #18, .F. ) ;
#154 = PRODUCT_DEFINITION_SHAPE ( 'NONE', 'NONE',  #232 ) ;
#155 = LENGTH_MEASURE_WITH_UNIT ( LENGTH_MEASURE( 0.02539999999999999897 ), #180 );
#156 = PLANE ( 'NONE',  #32 ) ;
#157 =( GEOMETRIC_REPRESENTATION_CONTEXT ( 3 ) GLOBAL_UNCERTAINTY_ASSIGNED_CONTEXT ( ( #215 ) ) GLOBAL_UNIT_ASSIGNED_CONTEXT ( ( #27, #285, #115 ) ) REPRESENTATION_CONTEXT ( 'NONE', 'WORKASPACE' ) );
#158 = VECTOR ( 'NONE', #147, 39.37007874015748143 ) ;
#159 = EDGE_CURVE ( 'NONE', #87, #107, #56, .T. ) ;
#160 =( CONVERSION_BASED_UNIT ( 'INCH', #252 ) LENGTH_UNIT ( ) NAMED_UNIT ( #111 ) );
#161 =( GEOMETRIC_REPRESENTATION_CONTEXT ( 3 ) GLOBAL_UNCERTAINTY_ASSIGNED_CONTEXT ( ( #188 ) ) GLOBAL_UNIT_ASSIGNED_CONTEXT ( ( #293, #251, #12 ) ) REPRESENTATION_CONTEXT ( 'NONE', 'WORKASPACE' ) );
#162 =( GEOMETRIC_REPRESENTATION_CONTEXT ( 3 ) GLOBAL_UNCERTAINTY_ASSIGNED_CONTEXT ( ( #287 ) ) GLOBAL_UNIT_ASSIGNED_CONTEXT ( ( #275, #25, #273 ) ) REPRESENTATION_CONTEXT ( 'NONE', 'WORKASPACE' ) );
#163 = DIRECTION ( 'NONE',  ( 0.000000000000000000, 0.000000000000000000, -1.000000000000000000 ) ) ;
#164 = EDGE_CURVE ( 'NONE', #249, #295, #36, .T. ) ;
#165 = FILL_AREA_STYLE_COLOUR ( '', #235 ) ;
#166 = DIRECTION ( 'NONE',  ( -4.898587196589413075E-17, 1.000000000000000000, -0.000000000000000000 ) ) ;
#167 = STYLED_ITEM ( 'NONE', ( #76 ), #277 ) ;
#168 = DIRECTION ( 'NONE',  ( -0.000000000000000000, -1.000000000000000000, -0.000000000000000000 ) ) ;
#169 = DIRECTION ( 'NONE',  ( -4.898587196589413075E-17, 1.000000000000000000, -0.000000000000000000 ) ) ;
#170 = FILL_AREA_STYLE ('',( #117 ) ) ;
#171 = EDGE_CURVE ( 'NONE', #299, #292, #88, .T. ) ;
#172 = CARTESIAN_POINT ( 'NONE',  ( 1.516480271171051896E-32, 2.500000000000000000, 0.000000000000000000 ) ) ;
#173 = SURFACE_STYLE_FILL_AREA ( #294 ) ;
#174 = ORIENTED_EDGE ( 'NONE', *, *, #192, .T. ) ;
#175 = VERTEX_POINT ( 'NONE', #242 ) ;
#176 = SURFACE_SIDE_STYLE ('',( #9 ) ) ;
#177 = SURFACE_STYLE_FILL_AREA ( #203 ) ;
#178 = MECHANICAL_DESIGN_GEOMETRIC_PRESENTATION_REPRESENTATION (  '', ( #8 ), #161 ) ;
#179 = MECHANICAL_DESIGN_GEOMETRIC_PRESENTATION_REPRESENTATION (  '', ( #195 ), #162 ) ;
#180 =( LENGTH_UNIT ( ) NAMED_UNIT ( * ) SI_UNIT ( $, .METRE. ) );
#181 = SURFACE_SIDE_STYLE ('',( #173 ) ) ;
#182 = ORIENTED_EDGE ( 'NONE', *, *, #219, .F. ) ;
#183 = DIRECTION ( 'NONE',  ( 0.000000000000000000, -0.000000000000000000, 1.000000000000000000 ) ) ;
#184 = DIMENSIONAL_EXPONENTS ( 1.000000000000000000, 0.000000000000000000, 0.000000000000000000, 0.000000000000000000, 0.000000000000000000, 0.000000000000000000, 0.000000000000000000 ) ;
#185 = LENGTH_MEASURE_WITH_UNIT ( LENGTH_MEASURE( 0.02539999999999999897 ), #271 );
#186 = DIRECTION ( 'NONE',  ( 0.000000000000000000, 0.000000000000000000, -1.000000000000000000 ) ) ;
#187 = DIRECTION ( 'NONE',  ( -1.000000000000000000, -4.898587196589412459E-17, 0.000000000000000000 ) ) ;
#188 = UNCERTAINTY_MEASURE_WITH_UNIT (LENGTH_MEASURE( 1.000000000000000082E-05 ), #293, 'distance_accuracy_value', 'NONE');
#189 = CYLINDRICAL_SURFACE ( 'NONE', #194, 0.2500000000000000000 ) ;
#190 = AXIS2_PLACEMENT_3D ( 'NONE', #226, #100, #78 ) ;
#191 = PLANE ( 'NONE',  #137 ) ;
#192 = EDGE_CURVE ( 'NONE', #145, #292, #63, .T. ) ;
#193 = CARTESIAN_POINT ( 'NONE',  ( 0.000000000000000000, 0.000000000000000000, 0.000000000000000000 ) ) ;
#194 = AXIS2_PLACEMENT_3D ( 'NONE', #193, #168, #288 ) ;
#195 = STYLED_ITEM ( 'NONE', ( #40 ), #291 ) ;
#196 = CARTESIAN_POINT ( 'NONE',  ( 0.000000000000000000, 0.000000000000000000, -0.2500000000000000000 ) ) ;
#197 =( NAMED_UNIT ( * ) SI_UNIT ( $, .STERADIAN. ) SOLID_ANGLE_UNIT ( ) );
#198 = CARTESIAN_POINT ( 'NONE',  ( 3.061616997868383018E-17, 2.500000000000000000, 0.2500000000000000000 ) ) ;
#199 = ORIENTED_EDGE ( 'NONE', *, *, #18, .T. ) ;
#200 = DIRECTION ( 'NONE',  ( 4.898587196589412459E-17, -1.000000000000000000, 0.000000000000000000 ) ) ;
#201 =( NAMED_UNIT ( * ) PLANE_ANGLE_UNIT ( ) SI_UNIT ( $, .RADIAN. ) );
#202 = EDGE_LOOP ( 'NONE', ( #199, #6, #216, #149 ) ) ;
#203 = FILL_AREA_STYLE ('',( #62 ) ) ;
#204 = AXIS2_PLACEMENT_3D ( 'NONE', #279, #286, #240 ) ;
#205 =( LENGTH_UNIT ( ) NAMED_UNIT ( * ) SI_UNIT ( $, .METRE. ) );
#206 = PRESENTATION_LAYER_ASSIGNMENT (  '', '', ( #305 ) ) ;
#207 = PRESENTATION_LAYER_ASSIGNMENT (  '', '', ( #167 ) ) ;
#208 = AXIS2_PLACEMENT_3D ( 'NONE', #112, #142, #214 ) ;
#209 = UNCERTAINTY_MEASURE_WITH_UNIT (LENGTH_MEASURE( 1.000000000000000082E-05 ), #11, 'distance_accuracy_value', 'NONE');
#210 = SURFACE_STYLE_FILL_AREA ( #170 ) ;
#211 = CIRCLE ( 'NONE', #138, 0.2500000000000000000 ) ;
#212 =( GEOMETRIC_REPRESENTATION_CONTEXT ( 3 ) GLOBAL_UNCERTAINTY_ASSIGNED_CONTEXT ( ( #98 ) ) GLOBAL_UNIT_ASSIGNED_CONTEXT ( ( #23, #130, #197 ) ) REPRESENTATION_CONTEXT ( 'NONE', 'WORKASPACE' ) );
#213 = SURFACE_STYLE_USAGE ( .BOTH. , #241 ) ;
#214 = DIRECTION ( 'NONE',  ( 1.000000000000000000, 0.000000000000000000, 0.000000000000000000 ) ) ;
#215 = UNCERTAINTY_MEASURE_WITH_UNIT (LENGTH_MEASURE( 1.000000000000000082E-05 ), #27, 'distance_accuracy_value', 'NONE');
#216 = ORIENTED_EDGE ( 'NONE', *, *, #192, .F. ) ;
#217 = CARTESIAN_POINT ( 'NONE',  ( 0.2499999999999999167, 5.000000000000000000, 3.061616997868383634E-17 ) ) ;
#218 = PRODUCT_CONTEXT ( 'NONE', #272, 'mechanical' ) ;
#219 = EDGE_CURVE ( 'NONE', #292, #145, #46, .T. ) ;
#220 = ORIENTED_EDGE ( 'NONE', *, *, #276, .T. ) ;
#221 = VECTOR ( 'NONE', #122, 39.37007874015748143 ) ;
#222 = SURFACE_SIDE_STYLE ('',( #105 ) ) ;
#223 = FACE_OUTER_BOUND ( 'NONE', #58, .T. ) ;
#224 = SURFACE_STYLE_USAGE ( .BOTH. , #181 ) ;
#225 = ORIENTED_EDGE ( 'NONE', *, *, #71, .T. ) ;
#226 = CARTESIAN_POINT ( 'NONE',  ( -1.224646799147353207E-16, 5.000000000000000000, 0.000000000000000000 ) ) ;
#227 = ORIENTED_EDGE ( 'NONE', *, *, #219, .T. ) ;
#228 = AXIS2_PLACEMENT_3D ( 'NONE', #17, #298, #183 ) ;
#229 = ADVANCED_FACE ( 'NONE', ( #223 ), #133, .F. ) ;
#230 = COLOUR_RGB ( '',0.7921568627450980005, 0.8196078431372548767, 0.9333333333333333481 ) ;
#231 = SURFACE_STYLE_USAGE ( .BOTH. , #222 ) ;
#232 = PRODUCT_DEFINITION ( 'UNKNOWN', '', #263, #21 ) ;
#233 =( NAMED_UNIT ( * ) SI_UNIT ( $, .STERADIAN. ) SOLID_ANGLE_UNIT ( ) );
#234 = ADVANCED_FACE ( 'NONE', ( #296 ), #59, .T. ) ;
#235 = COLOUR_RGB ( '',1.000000000000000000, 0.000000000000000000, 0.000000000000000000 ) ;
#236 = FACE_OUTER_BOUND ( 'NONE', #55, .T. ) ;
#237 = PRESENTATION_LAYER_ASSIGNMENT (  '', '', ( #83 ) ) ;
#238 = CARTESIAN_POINT ( 'NONE',  ( 3.061616997868383018E-17, 0.000000000000000000, 0.2500000000000000000 ) ) ;
#239 = LINE ( 'NONE', #309, #143 ) ;
#240 = DIRECTION ( 'NONE',  ( 0.000000000000000000, 0.000000000000000000, -1.000000000000000000 ) ) ;
#241 = SURFACE_SIDE_STYLE ('',( #141 ) ) ;
#242 = CARTESIAN_POINT ( 'NONE',  ( -0.2500000000000000000, 2.500000000000000000, 0.000000000000000000 ) ) ;
#243 = ORIENTED_EDGE ( 'NONE', *, *, #146, .F. ) ;
#244 = PRESENTATION_STYLE_ASSIGNMENT (( #101 ) ) ;
#245 = VECTOR ( 'NONE', #247, 39.37007874015748143 ) ;
#246 = FILL_AREA_STYLE_COLOUR ( '', #93 ) ;
#247 = DIRECTION ( 'NONE',  ( -0.000000000000000000, -1.000000000000000000, -0.000000000000000000 ) ) ;
#248 = FILL_AREA_STYLE_COLOUR ( '', #230 ) ;
#249 = VERTEX_POINT ( 'NONE', #198 ) ;
#250 = ADVANCED_FACE ( 'NONE', ( #80 ), #39, .T. ) ;
#251 =( NAMED_UNIT ( * ) PLANE_ANGLE_UNIT ( ) SI_UNIT ( $, .RADIAN. ) );
#252 = LENGTH_MEASURE_WITH_UNIT ( LENGTH_MEASURE( 0.02539999999999999897 ), #30 );
#253 =( GEOMETRIC_REPRESENTATION_CONTEXT ( 3 ) GLOBAL_UNCERTAINTY_ASSIGNED_CONTEXT ( ( #148 ) ) GLOBAL_UNIT_ASSIGNED_CONTEXT ( ( #160, #301, #233 ) ) REPRESENTATION_CONTEXT ( 'NONE', 'WORKASPACE' ) );
#254 =( LENGTH_UNIT ( ) NAMED_UNIT ( * ) SI_UNIT ( $, .METRE. ) );
#255 = AXIS2_PLACEMENT_3D ( 'NONE', #110, #48, #2 ) ;
#256 = DIMENSIONAL_EXPONENTS ( 1.000000000000000000, 0.000000000000000000, 0.000000000000000000, 0.000000000000000000, 0.000000000000000000, 0.000000000000000000, 0.000000000000000000 ) ;
#257 = ADVANCED_FACE ( 'NONE', ( #96 ), #191, .F. ) ;
#258 = SURFACE_STYLE_USAGE ( .BOTH. , #282 ) ;
#259 = CARTESIAN_POINT ( 'NONE',  ( 0.2500000000000000555, 5.000000000000000000, 3.061616997868384251E-17 ) ) ;
#260 = FILL_AREA_STYLE ('',( #165 ) ) ;
#261 = DIRECTION ( 'NONE',  ( -0.000000000000000000, -1.000000000000000000, -0.000000000000000000 ) ) ;
#262 = SHAPE_DEFINITION_REPRESENTATION ( #154, #135 ) ;
#263 = PRODUCT_DEFINITION_FORMATION_WITH_SPECIFIED_SOURCE ( 'ANY', '', #132, .NOT_KNOWN. ) ;
#264 = ORIENTED_EDGE ( 'NONE', *, *, #265, .F. ) ;
#265 = EDGE_CURVE ( 'NONE', #87, #249, #20, .T. ) ;
#266 = CARTESIAN_POINT ( 'NONE',  ( 0.2500000000000000000, 5.000000000000000000, 0.000000000000000000 ) ) ;
#267 = ORIENTED_EDGE ( 'NONE', *, *, #45, .F. ) ;
#268 = DIRECTION ( 'NONE',  ( 0.000000000000000000, 0.000000000000000000, -1.000000000000000000 ) ) ;
#269 = AXIS2_PLACEMENT_3D ( 'NONE', #284, #169, #118 ) ;
#270 = SURFACE_SIDE_STYLE ('',( #177 ) ) ;
#271 =( LENGTH_UNIT ( ) NAMED_UNIT ( * ) SI_UNIT ( $, .METRE. ) );
#272 = APPLICATION_CONTEXT ( 'automotive_design' ) ;
#273 =( NAMED_UNIT ( * ) SI_UNIT ( $, .STERADIAN. ) SOLID_ANGLE_UNIT ( ) );
#274 = UNCERTAINTY_MEASURE_WITH_UNIT (LENGTH_MEASURE( 1.000000000000000082E-05 ), #304, 'distance_accuracy_value', 'NONE');
#275 =( CONVERSION_BASED_UNIT ( 'INCH', #185 ) LENGTH_UNIT ( ) NAMED_UNIT ( #256 ) );
#276 = EDGE_CURVE ( 'NONE', #249, #87, #37, .T. ) ;
#277 = MANIFOLD_SOLID_BREP ( 'Revolve - Cutting Edge', #114 ) ;
#278 = CARTESIAN_POINT ( 'NONE',  ( 0.000000000000000000, 2.500000000000000000, -0.2500000000000000000 ) ) ;
#279 = CARTESIAN_POINT ( 'NONE',  ( 0.000000000000000000, 2.500000000000000000, 0.000000000000000000 ) ) ;
#280 = CARTESIAN_POINT ( 'NONE',  ( 0.000000000000000000, 0.000000000000000000, 0.000000000000000000 ) ) ;
#281 = MANIFOLD_SOLID_BREP ( 'Revolve - Tool Body (Straight Shanked)', #126 ) ;
#282 = SURFACE_SIDE_STYLE ('',( #210 ) ) ;
#283 = AXIS2_PLACEMENT_3D ( 'NONE', #266, #200, #13 ) ;
#284 = CARTESIAN_POINT ( 'NONE',  ( 1.516480271171051896E-32, 2.500000000000000000, 0.000000000000000000 ) ) ;
#285 =( NAMED_UNIT ( * ) PLANE_ANGLE_UNIT ( ) SI_UNIT ( $, .RADIAN. ) );
#286 = DIRECTION ( 'NONE',  ( -0.000000000000000000, -1.000000000000000000, -0.000000000000000000 ) ) ;
#287 = UNCERTAINTY_MEASURE_WITH_UNIT (LENGTH_MEASURE( 1.000000000000000082E-05 ), #275, 'distance_accuracy_value', 'NONE');
#288 = DIRECTION ( 'NONE',  ( 0.000000000000000000, 0.000000000000000000, -1.000000000000000000 ) ) ;
#289 = FACE_OUTER_BOUND ( 'NONE', #131, .T. ) ;
#290 = STYLED_ITEM ( 'NONE', ( #152 ), #250 ) ;
#291 = ADVANCED_FACE ( 'NONE', ( #289 ), #156, .T. ) ;
#292 = VERTEX_POINT ( 'NONE', #259 ) ;
#293 =( CONVERSION_BASED_UNIT ( 'INCH', #43 ) LENGTH_UNIT ( ) NAMED_UNIT ( #22 ) );
#294 = FILL_AREA_STYLE ('',( #246 ) ) ;
#295 = VERTEX_POINT ( 'NONE', #238 ) ;
#296 = FACE_OUTER_BOUND ( 'NONE', #202, .T. ) ;
#297 = ORIENTED_EDGE ( 'NONE', *, *, #164, .T. ) ;
#298 = DIRECTION ( 'NONE',  ( 0.000000000000000000, 1.000000000000000000, 0.000000000000000000 ) ) ;
#299 = VERTEX_POINT ( 'NONE', #74 ) ;
#300 = LENGTH_MEASURE_WITH_UNIT ( LENGTH_MEASURE( 0.02539999999999999897 ), #150 );
#301 =( NAMED_UNIT ( * ) PLANE_ANGLE_UNIT ( ) SI_UNIT ( $, .RADIAN. ) );
#302 = ADVANCED_FACE ( 'NONE', ( #236 ), #28, .T. ) ;
#303 = APPLICATION_CONTEXT ( 'automotive_design' ) ;
#304 =( CONVERSION_BASED_UNIT ( 'INCH', #155 ) LENGTH_UNIT ( ) NAMED_UNIT ( #91 ) );
#305 = STYLED_ITEM ( 'NONE', ( #244 ), #5 ) ;
#306 = COLOUR_RGB ( '',0.7921568627450980005, 0.8196078431372548767, 0.9333333333333333481 ) ;
#307 = AXIS2_PLACEMENT_3D ( 'NONE', #108, #129, #268 ) ;
#308 =( GEOMETRIC_REPRESENTATION_CONTEXT ( 3 ) GLOBAL_UNCERTAINTY_ASSIGNED_CONTEXT ( ( #274 ) ) GLOBAL_UNIT_ASSIGNED_CONTEXT ( ( #304, #69, #19 ) ) REPRESENTATION_CONTEXT ( 'NONE', 'WORKASPACE' ) );
#309 = CARTESIAN_POINT ( 'NONE',  ( -0.2500000000000002220, 5.000000000000000000, 0.000000000000000000 ) ) ;
ENDSEC;
END-ISO-10303-21;
